  0
SECTION
  2
HEADER
  0
ENDSEC
  0
SECTION
  2
TABLES
  0
TABLE
  2
LTYPE
 70
     4
  0
LTYPE
  2
CONTINUOUS
 70
    64
  3
Solid line
 72
    65
 73
     0
 40
0.000000
  0
LTYPE
  2
DASHED
 70
    64
  3
__ __ __ __ __ __ __ __ __ __ __ __ __ __ __
 72
    65
 73
     2
 40
3.500000
 49
2.000000
 49
-1.500000
  0
LTYPE
  2
CENTER
 70
    64
  3
____ _ ____ _ ____ _ ____ _ ____ _ ____ _ ____
 72
    65
 73
     4
 40
17.500000
 49
13.000000
 49
-1.500000
 49
1.500000
 49
-1.500000
  0
LTYPE
  2
PHANTOM
 70
    64
  3
_____ _ _ _____ _ _ _____ _ _ _____ _ _ ____  
 72
    65
 73
     6
 40
15.500000
 49
8.000000
 49
-1.500000
 49
1.500000
 49
-1.500000
 49
1.500000
 49
-1.500000
  0
LTYPE
  2
DASHED1
 70
    64
  3
__ __ __ __ __ __ __ __ __ __ __ __ __ __ __
 72
    65
 73
     2
 40
1.500000
 49
1.000000
 49
-0.500000
  0
LTYPE
  2
DASHED2
 70
    64
  3
__ __ __ __ __ __ __ __ __ __ __ __ __ __ __
 72
    65
 73
     2
 40
3.500000
 49
2.500000
 49
-1.000000
  0
LTYPE
  2
DASHED3
 70
    64
  3
__ __ __ __ __ __ __ __ __ __ __ __ __ __ __
 72
    65
 73
     2
 40
6.000000
 49
4.000000
 49
-2.000000
  0
LTYPE
  2
DASHED4
 70
    64
  3
__ __ __ __ __ __ __ __ __ __ __ __ __ __ __
 72
    65
 73
     2
 40
12.000000
 49
10.000000
 49
-2.000000
  0
LTYPE
  2
DASHED5
 70
    64
  3
__ __ __ __ __ __ __ __ __ __ __ __ __ __ __
 72
    65
 73
     2
 40
17.000000
 49
15.000000
 49
-2.000000
  0
LTYPE
  2
DASHED6
 70
    64
  3
__ __ __ __ __ __ __ __ __ __ __ __ __ __ __
 72
    65
 73
     2
 40
29.000000
 49
27.000000
 49
-2.000000
  0
LTYPE
  2
PHANTOM1
 70
    64
  3
_____ _ _ _____ _ _ _____ _ _ _____ _ _ ____  
 72
    65
 73
     6
 40
31.000000
 49
25.000000
 49
-1.500000
 49
1.000000
 49
-1.000000
 49
1.000000
 49
-1.500000
  0
LTYPE
  2
PHANTOM2
 70
    64
  3
_____ _ _ _____ _ _ _____ _ _ _____ _ _ ____  
 72
    65
 73
     6
 40
36.000000
 49
27.000000
 49
-1.500000
 49
2.500000
 49
-1.000000
 49
2.500000
 49
-1.500000
  0
LTYPE
  2
PHANTOM3
 70
    64
  3
_____ _ _ _____ _ _ _____ _ _ _____ _ _ ____  
 72
    65
 73
     6
 40
78.000000
 49
64.000000
 49
-2.000000
 49
4.000000
 49
-2.000000
 49
4.000000
 49
-2.000000
  0
LTYPE
  2
CENTER1
 70
    64
  3
____ _ ____ _ ____ _ ____ _ ____ _ ____ _ ____
 72
    65
 73
     4
 40
19.000000
 49
14.000000
 49
-1.000000
 49
3.000000
 49
-1.000000
  0
LTYPE
  2
CENTER2
 70
    64
  3
____ _ ____ _ ____ _ ____ _ ____ _ ____ _ ____
 72
    65
 73
     4
 40
28.500000
 49
25.000000
 49
-1.000000
 49
1.500000
 49
-1.000000
  0
LTYPE
  2
CENTER3
 70
    64
  3
____ _ ____ _ ____ _ ____ _ ____ _ ____ _ ____
 72
    65
 73
     4
 40
31.500000
 49
27.000000
 49
-1.000000
 49
2.500000
 49
-1.000000
  0
LTYPE
  2
CENTER4
 70
    64
  3
____ _ ____ _ ____ _ ____ _ ____ _ ____ _ ____
 72
    65
 73
     4
 40
50.000000
 49
45.000000
 49
-1.000000
 49
3.000000
 49
-1.000000
  0
LTYPE
  2
CENTER5
 70
    64
  3
____ _ ____ _ ____ _ ____ _ ____ _ ____ _ ____
 72
    65
 73
     4
 40
100.000000
 49
92.000000
 49
-2.000000
 49
4.000000
 49
-2.000000
  0
LTYPE
  2
SBK1
 70
    64
  3
______ _ _ _ ______ _ _ _ ______ _ _ _ _____  
 72
    65
 73
     8
 40
60.500000
 49
45.000000
 49
-2.000000
 49
2.500000
 49
-2.000000
 49
2.500000
 49
-2.000000
 49
2.500000
 49
-2.000000
  0
LTYPE
  2
SBK2
 70
    64
  3
______ _ _ _ ______ _ _ _ ______ _ _ _ _____  
 72
    65
 73
     8
 40
84.000000
 49
64.000000
 49
-2.000000
 49
4.000000
 49
-2.000000
 49
4.000000
 49
-2.000000
 49
4.000000
 49
-2.000000
  0
LTYPE
  2
STCH
 70
    64
  3
__ __ __ __ __ __ __ __ __ __ __ __ __ __ __
 72
    65
 73
     2
 40
3.000000
 49
1.000000
 49
-2.000000
  0
LTYPE
  2
MTCH
 70
    64
  3
_____ _ _ _____ _ _ _____ _ _ _____ _ _ ____  
 72
    65
 73
     6
 40
80.000000
 49
66.000000
 49
-2.000000
 49
4.000000
 49
-2.000000
 49
4.000000
 49
-2.000000
  0
ENDTAB
  0
TABLE
  2
LAYER
 70
     1
  0
LAYER
  2
0
 70
     0
 62
     7
  6
CONTINUOUS
  0
ENDTAB
  0
TABLE
  2
STYLE
 70
     1
  0
STYLE
  2
STANDARD
 70
     0
 40
0.000000
 41
1.000000
 50
0.000000
 71
     0
 42
0.200000
  3
txt
  4
BIGFONT
  0
ENDTAB
  0
TABLE
  2
VIEW
 70
     0
  0
ENDTAB
  0
ENDSEC
  0
SECTION
  2
BLOCKS
  0
ENDSEC
  0
SECTION
  2
ENTITIES
  0
POINT
  8
0
 10
-285.873657
 20
-40.000034
  0
POINT
  8
0
 10
-134.873505
 20
-39.999973
  0
POINT
  8
0
 10
-134.873566
 20
133.000000
  0
POINT
  8
0
 10
-134.873611
 20
-203.000061
  0
POINT
  8
0
 10
240.373657
 20
-39.999981
  0
POINT
  8
0
 10
120.126465
 20
-39.999973
  0
POINT
  8
0
 10
120.126495
 20
133.000000
  0
POINT
  8
0
 10
285.873566
 20
-39.999981
  0
POINT
  8
0
 10
120.126495
 20
-203.000061
  0
POINT
  8
0
 10
-240.373581
 20
-40.000034
  0
LINE
  8
0
 62
     3
 10
218.329163
 20
-225.956436
 11
370.873566
 21
-225.956436
  0
LINE
  8
0
 62
     3
 10
-218.329163
 20
225.956390
 11
-218.329163
 21
254.558487
  0
LINE
  8
0
 62
     3
 10
-370.873566
 20
225.956390
 11
-218.329163
 21
225.956390
  0
LINE
  8
0
 62
     3
 10
-370.873566
 20
254.558487
 11
370.873566
 21
254.558487
  0
LINE
  8
0
 62
     3
 10
-370.873566
 20
-254.558487
 11
370.873566
 21
-254.558487
  0
LINE
  8
0
 62
     3
 10
370.873566
 20
254.558487
 11
370.873566
 21
-254.558487
  0
LINE
  8
0
 62
     3
 10
-370.873566
 20
-254.558487
 11
-370.873566
 21
254.558487
  0
LINE
  8
0
 62
     3
 10
218.329163
 20
-225.956436
 11
218.329163
 21
-254.558487
  0
LINE
  8
0
 62
     3
 10
218.329163
 20
254.558487
 11
218.329163
 21
225.956390
  0
LINE
  8
0
 62
     3
 10
218.329163
 20
225.956390
 11
370.873566
 21
225.956390
  0
LINE
  8
0
 62
     5
 10
258.381622
 20
-232.833740
 11
258.381622
 21
-236.151566
  0
LINE
  8
0
 62
     5
 10
258.381622
 20
-236.151566
 11
270.823547
 21
-236.151566
  0
LINE
  8
0
 62
     5
 10
258.381622
 20
-249.146469
 11
275.247345
 21
-249.146469
  0
LINE
  8
0
 62
     5
 10
258.381622
 20
-245.828644
 11
270.823547
 21
-245.828644
  0
LINE
  8
0
 62
     5
 10
258.381622
 20
-232.833740
 11
273.035400
 21
-232.833740
  0
LINE
  8
0
 62
     5
 10
270.823547
 20
-236.151566
 11
270.823547
 21
-245.828644
  0
LINE
  8
0
 62
     5
 10
275.247345
 20
-235.045654
 11
275.247345
 21
-249.146469
  0
LINE
  8
0
 62
     5
 10
258.381622
 20
-245.828644
 11
258.381622
 21
-249.146469
  0
LINE
  8
0
 62
     5
 10
293.495392
 20
-236.151566
 11
293.495392
 21
-246.934647
  0
LINE
  8
0
 62
     5
 10
277.735657
 20
-232.833740
 11
277.735657
 21
-236.151566
  0
LINE
  8
0
 62
     5
 10
293.937836
 20
-232.584961
 11
295.513824
 21
-232.584961
  0
LINE
  8
0
 62
     5
 10
293.937836
 20
-230.373016
 11
295.513824
 21
-230.373016
  0
LINE
  8
0
 62
     5
 10
295.513824
 20
-230.373016
 11
295.513824
 21
-232.584961
  0
LINE
  8
0
 62
     5
 10
293.937836
 20
-230.373016
 11
293.937836
 21
-232.584961
  0
LINE
  8
0
 62
     5
 10
293.108276
 20
-230.373016
 11
293.108276
 21
-232.584961
  0
LINE
  8
0
 62
     5
 10
282.766052
 20
-230.373016
 11
286.200897
 21
-230.373016
  0
LINE
  8
0
 62
     5
 10
285.541260
 20
-232.833466
 11
286.200562
 21
-230.372711
  0
LINE
  8
0
 62
     5
 10
282.106689
 20
-232.833710
 11
282.766022
 21
-230.372986
  0
LINE
  8
0
 62
     5
 10
285.541565
 20
-232.833740
 11
290.177551
 21
-232.833740
  0
LINE
  8
0
 62
     5
 10
284.652557
 20
-236.151566
 11
289.071625
 21
-236.151566
  0
LINE
  8
0
 62
     5
 10
286.642853
 20
-249.146469
 11
291.283569
 21
-249.146469
  0
LINE
  8
0
 62
     5
 10
285.753693
 20
-245.828583
 11
286.642731
 21
-249.146347
  0
LINE
  8
0
 62
     5
 10
285.753754
 20
-245.828644
 11
289.071625
 21
-245.828644
  0
LINE
  8
0
 62
     5
 10
281.170746
 20
-249.146637
 11
284.652679
 21
-236.151733
  0
LINE
  8
0
 62
     5
 10
277.735657
 20
-236.151566
 11
281.217682
 21
-236.151566
  0
LINE
  8
0
 62
     5
 10
277.735413
 20
-249.146210
 11
281.217468
 21
-236.151337
  0
LINE
  8
0
 62
     5
 10
277.735657
 20
-249.146469
 11
281.170593
 21
-249.146469
  0
LINE
  8
0
 62
     5
 10
277.735657
 20
-232.833740
 11
282.106689
 21
-232.833740
  0
LINE
  8
0
 62
     5
 10
289.071625
 20
-236.151566
 11
289.071625
 21
-245.828644
  0
LINE
  8
0
 62
     5
 10
291.532288
 20
-230.373016
 11
293.108276
 21
-230.373016
  0
LINE
  8
0
 62
     5
 10
291.532288
 20
-232.584961
 11
293.108276
 21
-232.584961
  0
LINE
  8
0
 62
     5
 10
291.532288
 20
-230.373016
 11
291.532288
 21
-232.584961
  0
LINE
  8
0
 62
     5
 10
301.513550
 20
-230.373016
 11
305.937286
 21
-230.373016
  0
LINE
  8
0
 62
     5
 10
308.342316
 20
-240.195053
 11
311.296204
 21
-238.817642
  0
LINE
  8
0
 62
     5
 10
305.937286
 20
-242.734406
 11
305.937286
 21
-249.146469
  0
LINE
  8
0
 62
     5
 10
301.513550
 20
-243.379044
 11
301.513550
 21
-249.146469
  0
LINE
  8
0
 62
     5
 10
305.937286
 20
-232.833740
 11
310.361115
 21
-232.833740
  0
LINE
  8
0
 62
     5
 10
305.937286
 20
-230.373016
 11
305.937286
 21
-232.833740
  0
LINE
  8
0
 62
     5
 10
301.513550
 20
-230.373016
 11
301.513550
 21
-232.833740
  0
LINE
  8
0
 62
     5
 10
312.572998
 20
-235.045654
 11
312.572998
 21
-236.812775
  0
LINE
  8
0
 62
     5
 10
308.342377
 20
-240.195038
 11
312.573395
 21
-242.168030
  0
LINE
  8
0
 62
     5
 10
305.937256
 20
-242.734329
 11
312.573059
 21
-245.828613
  0
LINE
  8
0
 62
     5
 10
296.260284
 20
-242.167801
 11
296.260284
 21
-245.828644
  0
LINE
  8
0
 62
     5
 10
296.260742
 20
-242.168167
 11
309.162567
 21
-236.151932
  0
LINE
  8
0
 62
     5
 10
296.260254
 20
-245.828598
 11
301.513580
 21
-243.378937
  0
LINE
  8
0
 62
     5
 10
312.572998
 20
-242.167801
 11
312.572998
 21
-245.828644
  0
LINE
  8
0
 62
     5
 10
296.260284
 20
-232.833740
 11
296.260284
 21
-236.151566
  0
LINE
  8
0
 62
     5
 10
301.513550
 20
-249.146469
 11
305.937286
 21
-249.146469
  0
LINE
  8
0
 62
     5
 10
296.260284
 20
-236.151566
 11
309.162079
 21
-236.151566
  0
LINE
  8
0
 62
     5
 10
296.260284
 20
-232.833740
 11
301.513550
 21
-232.833740
  0
LINE
  8
0
 62
     5
 10
327.503998
 20
-236.404739
 11
328.730042
 21
-235.917068
  0
LINE
  8
0
 62
     5
 10
327.503357
 20
-236.404404
 11
327.503357
 21
-249.146469
  0
LINE
  8
0
 62
     5
 10
323.079498
 20
-249.146469
 11
327.503357
 21
-249.146469
  0
LINE
  8
0
 62
     5
 10
313.955292
 20
-241.792511
 11
323.079376
 21
-238.163742
  0
LINE
  8
0
 62
     5
 10
313.955536
 20
-238.221954
 11
326.806152
 21
-233.111084
  0
LINE
  8
0
 62
     5
 10
323.079498
 20
-238.163773
 11
323.079498
 21
-249.146469
  0
LINE
  8
0
 62
     5
 10
327.503357
 20
-231.368408
 11
327.503357
 21
-232.083389
  0
LINE
  8
0
 62
     5
 10
330.821106
 20
-231.368408
 11
330.821106
 21
-232.833755
  0
LINE
  8
0
 62
     5
 10
313.955444
 20
-238.221893
 11
313.955444
 21
-241.792496
  0
LINE
  8
0
 62
     5
 10
327.503357
 20
-231.368408
 11
330.821106
 21
-231.368408
  0
LINE
  8
0
 10
-129.805496
 20
-176.287613
 11
-151.333527
 21
-138.999954
  0
LINE
  8
0
 10
-129.805511
 20
-176.287613
 11
-131.229004
 21
-170.975021
  0
LINE
  8
0
 10
-129.805481
 20
-176.287613
 11
-133.694580
 21
-172.398514
  0
LINE
  8
0
 10
-203.615234
 20
-138.999954
 11
-151.333527
 21
-138.999954
  0
LINE
  8
0
 10
-62.123585
 20
-19.834932
 11
-37.970165
 21
22.000010
  0
LINE
  8
0
 10
-62.123589
 20
-19.834934
 11
-58.234501
 21
-15.945846
  0
LINE
  8
0
 10
-62.123585
 20
-19.834932
 11
-60.700081
 21
-14.522341
  0
LINE
  8
0
 10
-37.970165
 20
22.000010
 11
22.029835
 21
22.000010
  0
LINE
  8
0
  6
CENTER
 10
-139.873566
 20
-40.000000
 11
125.126434
 21
-40.000000
  0
LINE
  8
0
 10
-134.873566
 20
-82.000000
 11
-134.873566
 21
2.000000
  0
LINE
  8
0
 10
120.126434
 20
-81.999962
 11
120.126434
 21
2.000038
  0
LINE
  8
0
 10
-115.873566
 20
-82.000000
 11
-115.873566
 21
2.000004
  0
LINE
  8
0
 10
-134.873566
 20
2.000000
 11
-115.873566
 21
2.000000
  0
LINE
  8
0
 10
101.126434
 20
-81.999969
 11
101.126434
 21
2.000034
  0
LINE
  8
0
 10
101.126434
 20
2.000000
 11
120.126434
 21
2.000000
  0
LINE
  8
0
 10
-134.873566
 20
-82.000000
 11
120.126434
 21
-82.000000
  0
LINE
  8
0
  6
CENTER
 10
-129.873566
 20
-22.500000
 11
-113.873566
 21
-22.500000
  0
LINE
  8
0
  6
CENTER
 10
-121.873566
 20
-14.499996
 11
-121.873566
 21
-30.499996
  0
LINE
  8
0
  6
CENTER
 10
-121.873566
 20
-65.500000
 11
-121.873566
 21
-49.499996
  0
LINE
  8
0
  6
CENTER
 10
-129.873566
 20
-57.500000
 11
-113.873566
 21
-57.500000
  0
LINE
  8
0
  6
CENTER
 10
115.126434
 20
-22.500000
 11
99.126434
 21
-22.500000
  0
LINE
  8
0
  6
CENTER
 10
107.126434
 20
-14.499966
 11
107.126434
 21
-30.499966
  0
LINE
  8
0
  6
CENTER
 10
107.126434
 20
-65.499969
 11
107.126434
 21
-49.499966
  0
LINE
  8
0
  6
CENTER
 10
115.126434
 20
-57.500000
 11
99.126434
 21
-57.500000
  0
LINE
  8
0
 10
123.579681
 20
-4.000000
 11
120.126434
 21
-4.000000
  0
LINE
  8
0
 10
124.126434
 20
-4.946999
 11
120.126434
 21
-4.946999
  0
LINE
  8
0
 10
124.126434
 20
-15.052999
 11
120.126434
 21
-15.052999
  0
LINE
  8
0
 10
123.579681
 20
-16.000000
 11
120.126434
 21
-16.000000
  0
LINE
  8
0
  6
CENTER
 10
129.126434
 20
-10.000000
 11
-54.873566
 21
-10.000000
  0
LINE
  8
0
 10
124.126434
 20
-15.052961
 11
124.126434
 21
-4.946960
  0
LINE
  8
0
 10
124.126488
 20
-15.052990
 11
123.579742
 21
-15.999979
  0
LINE
  8
0
 10
124.126427
 20
-4.946966
 11
123.579674
 21
-3.999963
  0
LINE
  8
0
 10
123.579681
 20
-3.999962
 11
123.579681
 21
-15.999962
  0
LINE
  8
0
 10
108.626434
 20
-77.499962
 11
108.626434
 21
-81.999962
  0
LINE
  8
0
 10
117.626434
 20
-77.499962
 11
117.626434
 21
-81.999962
  0
LINE
  8
0
  6
CENTER
 10
105.626434
 20
-77.500000
 11
120.626434
 21
-77.500000
  0
LINE
  8
0
  6
CENTER
 10
113.126434
 20
-69.999962
 11
113.126434
 21
-84.999962
  0
LINE
  8
0
 10
111.126434
 20
-78.654694
 11
113.126434
 21
-79.809395
  0
LINE
  8
0
 10
113.126457
 20
-79.809402
 11
115.126457
 21
-78.654701
  0
LINE
  8
0
 10
115.126434
 20
-78.654671
 11
115.126434
 21
-76.345268
  0
LINE
  8
0
 10
115.126434
 20
-76.345299
 11
113.126427
 21
-75.190598
  0
LINE
  8
0
 10
113.126495
 20
-75.190651
 11
111.126495
 21
-76.345352
  0
LINE
  8
0
 10
111.126434
 20
-76.345268
 11
111.126434
 21
-78.654671
  0
LINE
  8
0
 10
-138.326813
 20
-4.000000
 11
-134.873566
 21
-4.000000
  0
LINE
  8
0
 10
-138.873566
 20
-4.946999
 11
-134.873566
 21
-4.946999
  0
LINE
  8
0
 10
-138.873566
 20
-15.052999
 11
-134.873566
 21
-15.052999
  0
LINE
  8
0
 10
-138.326813
 20
-16.000000
 11
-134.873566
 21
-16.000000
  0
LINE
  8
0
  6
CENTER
 10
-143.873566
 20
-10.000000
 11
-110.873566
 21
-10.000000
  0
LINE
  8
0
 10
-138.873566
 20
-15.052999
 11
-138.873566
 21
-4.946999
  0
LINE
  8
0
 10
-138.873520
 20
-15.052968
 11
-138.326767
 21
-15.999965
  0
LINE
  8
0
 10
-138.873566
 20
-4.947004
 11
-138.326813
 21
-4.000001
  0
LINE
  8
0
 10
-138.326813
 20
-4.000000
 11
-138.326813
 21
-16.000000
  0
LINE
  8
0
  6
CENTER
 10
-82.373566
 20
-85.999992
 11
-82.373566
 21
6.000008
  0
LINE
  8
0
 10
-114.873566
 20
1.000000
 11
-49.873566
 21
1.000000
  0
LINE
  8
0
 10
-114.873566
 20
-81.000000
 11
-49.873566
 21
-81.000000
  0
LINE
  8
0
 10
-49.873566
 20
-80.999985
 11
-49.873566
 21
1.000011
  0
LINE
  8
0
 10
-114.873566
 20
-81.000000
 11
-114.873566
 21
1.000004
  0
LINE
  8
0
 10
-51.473564
 20
-80.999985
 11
-51.473564
 21
1.000011
  0
LINE
  8
0
 10
-113.273560
 20
-81.000000
 11
-113.273560
 21
1.000004
  0
LINE
  8
0
  6
CENTER
 10
-106.373566
 20
-22.000000
 11
-96.373566
 21
-22.000000
  0
LINE
  8
0
  6
CENTER
 10
-101.373566
 20
-16.999996
 11
-101.373566
 21
-26.999996
  0
LINE
  8
0
  6
CENTER
 10
-63.373566
 20
-16.999989
 11
-63.373566
 21
-26.999989
  0
LINE
  8
0
  6
CENTER
 10
-58.373566
 20
-22.000000
 11
-68.373566
 21
-22.000000
  0
LINE
  8
0
  6
CENTER
 10
-101.373566
 20
-62.999996
 11
-101.373566
 21
-52.999996
  0
LINE
  8
0
  6
CENTER
 10
-106.373566
 20
-58.000000
 11
-96.373566
 21
-58.000000
  0
LINE
  8
0
  6
CENTER
 10
-63.373566
 20
-62.999989
 11
-63.373566
 21
-52.999989
  0
LINE
  8
0
  6
CENTER
 10
-58.373566
 20
-58.000000
 11
-68.373566
 21
-58.000000
  0
LINE
  8
0
 10
-79.873566
 20
-22.999992
 11
-79.873566
 21
-20.999992
  0
LINE
  8
0
 10
-84.873566
 20
-22.999992
 11
-84.873566
 21
-20.999992
  0
LINE
  8
0
  6
CENTER
 10
-87.373566
 20
-22.000000
 11
-77.373566
 21
-22.000000
  0
LINE
  8
0
  6
CENTER
 10
-87.373566
 20
-58.000000
 11
-77.373566
 21
-58.000000
  0
LINE
  8
0
 10
-115.873566
 20
-29.299999
 11
-114.873566
 21
-29.299999
  0
LINE
  8
0
 10
-115.873566
 20
-50.700001
 11
-114.873566
 21
-50.700001
  0
LINE
  8
0
 10
-49.873566
 20
-29.299999
 11
101.126434
 21
-29.299999
  0
LINE
  8
0
 10
-49.873566
 20
-50.700001
 11
101.126434
 21
-50.700001
  0
LINE
  8
0
  6
CENTER
 10
-54.873566
 20
-70.000000
 11
125.126434
 21
-70.000000
  0
LINE
  8
0
 10
101.126434
 20
-17.000000
 11
-49.873566
 21
-17.000000
  0
LINE
  8
0
 10
101.126434
 20
-3.000000
 11
-49.873566
 21
-3.000000
  0
LINE
  8
0
 10
-49.873566
 20
-77.000000
 11
101.126434
 21
-77.000000
  0
LINE
  8
0
 10
-49.873566
 20
-63.000000
 11
101.126434
 21
-63.000000
  0
LINE
  8
0
 10
-113.273560
 20
-49.000000
 11
-51.473564
 21
-49.000000
  0
LINE
  8
0
 10
-113.273560
 20
-31.000000
 11
-51.473564
 21
-31.000000
  0
LINE
  8
0
 10
-46.073570
 20
-19.000000
 11
-49.873566
 21
-19.000000
  0
LINE
  8
0
 10
-46.073570
 20
-1.000000
 11
-49.873566
 21
-1.000000
  0
LINE
  8
0
 10
-46.073570
 20
-0.999989
 11
-46.073570
 21
-2.999989
  0
LINE
  8
0
 10
-46.073570
 20
-16.999989
 11
-46.073570
 21
-18.999989
  0
LINE
  8
0
 10
-115.873566
 20
-3.000000
 11
-114.873566
 21
-3.000000
  0
LINE
  8
0
 10
-115.873566
 20
-17.000000
 11
-114.873566
 21
-17.000000
  0
LINE
  8
0
  6
CENTER
 10
-139.873566
 20
-70.000000
 11
-110.873566
 21
-70.000000
  0
LINE
  8
0
 10
-115.873566
 20
-77.000000
 11
-114.873566
 21
-77.000000
  0
LINE
  8
0
 10
-115.873566
 20
-63.000000
 11
-114.873566
 21
-63.000000
  0
LINE
  8
0
 10
-115.873566
 20
-61.500000
 11
-114.873566
 21
-61.500000
  0
LINE
  8
0
 10
-49.873566
 20
-61.500000
 11
101.126434
 21
-61.500000
  0
LINE
  8
0
 10
-51.473579
 20
88.000000
 11
-49.873581
 21
88.000000
  0
LINE
  8
0
 10
-49.873566
 20
87.999969
 11
-49.873566
 21
130.999969
  0
LINE
  8
0
 10
-51.473564
 20
86.999969
 11
-51.473564
 21
130.999969
  0
LINE
  8
0
 10
-113.273560
 20
87.000000
 11
-113.273560
 21
131.000000
  0
LINE
  8
0
 10
-113.273575
 20
87.000000
 11
-51.473579
 21
87.000000
  0
LINE
  8
0
 10
-114.873581
 20
88.000000
 11
-113.273575
 21
88.000000
  0
LINE
  8
0
 10
-114.873566
 20
88.000000
 11
-114.873566
 21
131.000000
  0
LINE
  8
0
 10
-115.873581
 20
93.000000
 11
-114.873581
 21
93.000000
  0
LINE
  8
0
 10
-49.873581
 20
93.000000
 11
101.126419
 21
93.000000
  0
LINE
  8
0
 10
101.126434
 20
88.999924
 11
101.126434
 21
132.999924
  0
LINE
  8
0
 10
101.126419
 20
89.000000
 11
120.126419
 21
89.000000
  0
LINE
  8
0
 10
120.126434
 20
88.999924
 11
120.126434
 21
132.999924
  0
LINE
  8
0
 10
101.126434
 20
133.000000
 11
120.126434
 21
133.000000
  0
LINE
  8
0
 10
-134.873581
 20
89.000000
 11
-115.873581
 21
89.000000
  0
LINE
  8
0
 10
-115.873566
 20
89.000000
 11
-115.873566
 21
133.000000
  0
LINE
  8
0
 10
-134.873566
 20
89.000000
 11
-134.873566
 21
133.000000
  0
LINE
  8
0
 10
-134.873566
 20
133.000000
 11
-115.873566
 21
133.000000
  0
LINE
  8
0
 10
-138.326813
 20
112.000000
 11
-134.873566
 21
112.000000
  0
LINE
  8
0
 10
-138.873566
 20
112.946999
 11
-134.873566
 21
112.946999
  0
LINE
  8
0
 10
-138.873566
 20
123.053001
 11
-134.873566
 21
123.053001
  0
LINE
  8
0
 10
-138.326813
 20
124.000000
 11
-134.873566
 21
124.000000
  0
LINE
  8
0
  6
CENTER
 10
-143.873566
 20
118.000000
 11
-30.673569
 21
118.000000
  0
LINE
  8
0
 10
-138.873566
 20
123.053001
 11
-138.873566
 21
112.946999
  0
LINE
  8
0
 10
-138.873581
 20
123.052979
 11
-138.326828
 21
123.999969
  0
LINE
  8
0
 10
-138.873566
 20
112.946999
 11
-138.326813
 21
111.999992
  0
LINE
  8
0
 10
-138.326813
 20
112.000000
 11
-138.326813
 21
124.000000
  0
LINE
  8
0
 10
123.579681
 20
112.000000
 11
120.126434
 21
112.000000
  0
LINE
  8
0
 10
124.126434
 20
112.946999
 11
120.126434
 21
112.946999
  0
LINE
  8
0
 10
124.126434
 20
123.053001
 11
120.126434
 21
123.053001
  0
LINE
  8
0
 10
123.579681
 20
124.000000
 11
120.126434
 21
124.000000
  0
LINE
  8
0
  6
CENTER
 10
129.126434
 20
118.000000
 11
96.126434
 21
118.000000
  0
LINE
  8
0
 10
124.126434
 20
123.052925
 11
124.126434
 21
112.946922
  0
LINE
  8
0
 10
124.126381
 20
123.052887
 11
123.579628
 21
123.999870
  0
LINE
  8
0
 10
124.126419
 20
112.946953
 11
123.579666
 21
111.999954
  0
LINE
  8
0
 10
123.579681
 20
111.999924
 11
123.579681
 21
123.999924
  0
LINE
  8
0
 10
-115.873566
 20
132.000000
 11
101.126434
 21
132.000000
  0
LINE
  8
0
  6
CENTER
 10
-139.873581
 20
100.000000
 11
125.126419
 21
100.000000
  0
LINE
  8
0
 10
-114.873566
 20
131.000000
 11
-49.873566
 21
131.000000
  0
LINE
  8
0
 10
-49.873581
 20
107.000000
 11
101.126419
 21
107.000000
  0
LINE
  8
0
 10
-115.873581
 20
107.000000
 11
-114.873581
 21
107.000000
  0
LINE
  8
0
 10
-113.273575
 20
89.000000
 11
-51.473579
 21
89.000000
  0
LINE
  8
0
 10
-113.273560
 20
115.000000
 11
-51.473564
 21
115.000000
  0
LINE
  8
0
 10
-134.873566
 20
117.000000
 11
-115.873566
 21
117.000000
  0
LINE
  8
0
 10
-134.873566
 20
123.000000
 11
-115.873566
 21
123.000000
  0
LINE
  8
0
  6
CENTER
 10
-127.873566
 20
134.000046
 11
-127.873566
 21
122.000046
  0
LINE
  8
0
  6
CENTER
 10
-133.873566
 20
128.000046
 11
-121.873566
 21
128.000046
  0
LINE
  8
0
 10
-129.873550
 20
126.845314
 11
-127.873550
 21
125.690613
  0
LINE
  8
0
 10
-127.873581
 20
125.690674
 11
-125.873589
 21
126.845367
  0
LINE
  8
0
 10
-125.873566
 20
126.845352
 11
-125.873566
 21
129.154755
  0
LINE
  8
0
 10
-125.873566
 20
129.154755
 11
-127.873566
 21
130.309464
  0
LINE
  8
0
 10
-127.873642
 20
130.309525
 11
-129.873642
 21
129.154816
  0
LINE
  8
0
 10
-129.873581
 20
129.154724
 11
-129.873581
 21
126.845322
  0
LINE
  8
0
 10
115.126450
 20
129.154648
 11
115.126450
 21
126.845245
  0
LINE
  8
0
 10
120.126434
 20
117.000000
 11
101.126434
 21
117.000000
  0
LINE
  8
0
 10
120.126434
 20
123.000000
 11
101.126434
 21
123.000000
  0
LINE
  8
0
  6
CENTER
 10
113.126434
 20
133.999969
 11
113.126434
 21
121.999969
  0
LINE
  8
0
  6
CENTER
 10
119.126434
 20
128.000046
 11
107.126434
 21
128.000046
  0
LINE
  8
0
 10
115.126381
 20
126.845284
 11
113.126396
 21
125.690590
  0
LINE
  8
0
 10
113.126495
 20
125.690697
 11
111.126511
 21
126.845398
  0
LINE
  8
0
 10
111.126434
 20
126.845276
 11
111.126434
 21
129.154678
  0
LINE
  8
0
 10
111.126411
 20
129.154755
 11
113.126427
 21
130.309464
  0
LINE
  8
0
 10
113.126503
 20
130.309448
 11
115.126495
 21
129.154755
  0
LINE
  8
0
 10
-115.873566
 20
119.699997
 11
-114.873566
 21
119.699997
  0
LINE
  8
0
 10
-45.673569
 20
119.699997
 11
101.126434
 21
119.699997
  0
LINE
  8
0
 10
-45.673569
 20
112.999969
 11
-45.673569
 21
122.999969
  0
LINE
  8
0
 10
-35.673569
 20
116.499969
 11
-35.673569
 21
119.499969
  0
LINE
  8
0
 10
-45.673569
 20
119.500000
 11
-35.673569
 21
119.500000
  0
LINE
  8
0
 10
-45.673569
 20
116.500000
 11
-35.673569
 21
116.500000
  0
LINE
  8
0
 10
-46.073563
 20
108.999962
 11
-46.073563
 21
126.999969
  0
LINE
  8
0
 10
-49.069717
 20
123.196152
 11
-46.877411
 21
123.196152
  0
LINE
  8
0
 10
-49.069717
 20
112.803841
 11
-46.877411
 21
112.803841
  0
LINE
  8
0
 10
-49.069710
 20
128.392303
 11
-46.877411
 21
128.392303
  0
LINE
  8
0
 10
-49.069717
 20
107.607697
 11
-46.877411
 21
107.607697
  0
LINE
  8
0
 10
-46.073540
 20
127.000000
 11
-46.877392
 21
128.392303
  0
LINE
  8
0
 10
-49.873581
 20
127.000000
 11
-49.069736
 21
128.392288
  0
LINE
  8
0
 10
-49.873539
 20
108.999969
 11
-49.069702
 21
107.607681
  0
LINE
  8
0
 10
-46.073597
 20
108.999977
 11
-46.877441
 21
107.607681
  0
LINE
  8
0
 10
-46.073551
 20
123.399963
 11
-45.673561
 21
122.999977
  0
LINE
  8
0
 10
-45.673592
 20
112.999985
 11
-46.073582
 21
112.599998
  0
LINE
  8
0
  6
CENTER
 10
234.873566
 20
-40.000000
 11
290.873566
 21
-40.000000
  0
LINE
  8
0
  6
CENTER
 10
290.873566
 20
-40.000000
 11
234.873566
 21
-40.000000
  0
LINE
  8
0
 10
285.873566
 20
-81.999992
 11
285.873566
 21
-10.999992
  0
LINE
  8
0
 10
239.873566
 20
-78.999992
 11
239.873566
 21
-49.500000
  0
LINE
  8
0
 10
285.873566
 20
-82.000000
 11
241.873566
 21
-82.000000
  0
LINE
  8
0
 10
269.873566
 20
2.000000
 11
241.873566
 21
2.000000
  0
LINE
  8
0
 10
241.873566
 20
-82.000000
 11
241.873566
 21
2.000000
  0
LINE
  8
0
 10
285.123566
 20
-4.000000
 11
275.873566
 21
-4.000000
  0
LINE
  8
0
 10
284.873566
 20
-9.999992
 11
284.873566
 21
-3.999992
  0
LINE
  8
0
 10
285.873566
 20
-11.000000
 11
276.789642
 21
-11.000000
  0
LINE
  8
0
 10
284.873566
 20
-10.000000
 11
276.873566
 21
-10.000000
  0
LINE
  8
0
 10
275.873444
 20
-4.000074
 11
269.873444
 21
1.999920
  0
LINE
  8
0
 10
241.873444
 20
-81.000076
 11
239.873444
 21
-79.000069
  0
LINE
  8
0
 10
241.873444
 20
1.000084
 11
239.873444
 21
-0.999920
  0
LINE
  8
0
  6
CENTER
 10
280.873566
 20
-15.999992
 11
280.873566
 21
1.433865
  0
LINE
  8
0
  6
CENTER
 10
252.873566
 20
-0.999996
 11
252.873566
 21
-18.999996
  0
LINE
  8
0
  6
CENTER
 10
279.873566
 20
-10.000000
 11
243.873566
 21
-10.000000
  0
LINE
  8
0
 10
255.373566
 20
-11.443360
 11
252.873535
 21
-12.886748
  0
LINE
  8
0
 10
252.873505
 20
-12.886835
 11
250.373474
 21
-11.443445
  0
LINE
  8
0
 10
250.373566
 20
-11.443359
 11
250.373566
 21
-8.556610
  0
LINE
  8
0
 10
250.373596
 20
-8.556622
 11
252.873627
 21
-7.113235
  0
LINE
  8
0
 10
252.873581
 20
-7.113183
 11
255.373611
 21
-8.556569
  0
LINE
  8
0
 10
255.373535
 20
-8.556606
 11
255.373535
 21
-11.443386
  0
LINE
  8
0
  6
CENTER
 10
270.873566
 20
-0.999996
 11
270.873566
 21
-18.999996
  0
LINE
  8
0
 10
273.873535
 20
-11.732057
 11
270.873596
 21
-13.464074
  0
LINE
  8
0
 10
270.873535
 20
-13.464102
 11
267.873596
 21
-11.732066
  0
LINE
  8
0
 10
267.873535
 20
-11.732052
 11
267.873535
 21
-8.267956
  0
LINE
  8
0
 10
267.873566
 20
-8.267915
 11
270.873505
 21
-6.535886
  0
LINE
  8
0
 10
270.873505
 20
-6.535883
 11
273.873505
 21
-8.267929
  0
LINE
  8
0
 10
273.873566
 20
-8.267956
 11
273.873566
 21
-11.732037
  0
LINE
  8
0
 10
283.373566
 20
-10.999992
 11
283.373566
 21
-9.999992
  0
LINE
  8
0
 10
278.373566
 20
-10.999992
 11
278.373566
 21
-9.999992
  0
LINE
  8
0
 10
282.940552
 20
-10.999992
 11
282.940552
 21
-9.999992
  0
LINE
  8
0
 10
278.806580
 20
-10.999992
 11
278.806580
 21
-9.999992
  0
LINE
  8
0
 10
276.623566
 20
-3.999992
 11
276.623566
 21
0.500008
  0
LINE
  8
0
 10
285.123566
 20
-3.999992
 11
285.123566
 21
0.500008
  0
LINE
  8
0
 10
284.623566
 20
1.000000
 11
277.123566
 21
1.000000
  0
LINE
  8
0
 10
285.123566
 20
0.500000
 11
276.623566
 21
0.500000
  0
LINE
  8
0
 10
285.123627
 20
0.500070
 11
284.623657
 21
1.000059
  0
LINE
  8
0
 10
276.623474
 20
0.500044
 11
277.123474
 21
1.000033
  0
LINE
  8
0
 10
240.373474
 20
-31.000071
 11
239.873474
 21
-30.500069
  0
LINE
  8
0
 10
240.373444
 20
-48.999905
 11
239.873444
 21
-49.499905
  0
LINE
  8
0
  6
CENTER
 10
245.373566
 20
-70.000000
 11
260.373566
 21
-70.000000
  0
LINE
  8
0
  6
CENTER
 10
252.873566
 20
-62.499996
 11
252.873566
 21
-77.500000
  0
LINE
  8
0
 10
253.873566
 20
-74.130676
 11
253.873566
 21
-82.000000
  0
LINE
  8
0
 10
251.873566
 20
-74.130676
 11
251.873566
 21
-82.000000
  0
LINE
  8
0
  6
CENTER
 10
260.317841
 20
-77.500000
 11
238.873566
 21
-77.500000
  0
LINE
  8
0
 10
253.873566
 20
-80.000000
 11
251.873566
 21
-80.000000
  0
LINE
  8
0
 10
253.873566
 20
-75.000000
 11
251.873566
 21
-75.000000
  0
LINE
  8
0
 10
253.873566
 20
-79.567001
 11
251.873566
 21
-79.567001
  0
LINE
  8
0
 10
253.873566
 20
-75.432999
 11
251.873566
 21
-75.432999
  0
LINE
  8
0
 10
239.873505
 20
-1.000004
 11
239.873505
 21
-30.499945
  0
LINE
  8
0
 10
240.373535
 20
-30.999998
 11
240.373535
 21
-49.000023
  0
LINE
  8
0
 10
-138.326813
 20
-182.000000
 11
-134.873566
 21
-182.000000
  0
LINE
  8
0
 10
-138.873566
 20
-182.946991
 11
-134.873566
 21
-182.946991
  0
LINE
  8
0
 10
-138.873566
 20
-193.053009
 11
-134.873566
 21
-193.053009
  0
LINE
  8
0
 10
-138.326813
 20
-194.000000
 11
-134.873566
 21
-194.000000
  0
LINE
  8
0
  6
CENTER
 10
-143.873566
 20
-188.000000
 11
-110.873566
 21
-188.000000
  0
LINE
  8
0
 10
-138.873566
 20
-193.053009
 11
-138.873566
 21
-182.946991
  0
LINE
  8
0
 10
-138.873474
 20
-193.052917
 11
-138.326721
 21
-193.999908
  0
LINE
  8
0
 10
-138.873566
 20
-182.946991
 11
-138.326813
 21
-181.999985
  0
LINE
  8
0
 10
-138.326813
 20
-182.000000
 11
-138.326813
 21
-194.000000
  0
LINE
  8
0
  6
CENTER
 10
-139.873566
 20
-170.000000
 11
125.126450
 21
-170.000000
  0
LINE
  8
0
 10
-134.873566
 20
-203.000000
 11
-115.873566
 21
-203.000000
  0
LINE
  8
0
 10
-134.873566
 20
-159.000000
 11
-115.873566
 21
-159.000000
  0
LINE
  8
0
 10
101.126434
 20
-158.999969
 11
101.126434
 21
-202.999969
  0
LINE
  8
0
 10
120.126434
 20
-158.999969
 11
120.126434
 21
-202.999969
  0
LINE
  8
0
 10
101.126434
 20
-159.000000
 11
120.126434
 21
-159.000000
  0
LINE
  8
0
 10
101.126434
 20
-203.000000
 11
120.126434
 21
-203.000000
  0
LINE
  8
0
  6
CENTER
 10
113.126434
 20
-153.999969
 11
113.126434
 21
-175.999969
  0
LINE
  8
0
 10
108.626434
 20
-158.999969
 11
108.626434
 21
-163.999969
  0
LINE
  8
0
 10
117.626434
 20
-158.999969
 11
117.626434
 21
-163.999969
  0
LINE
  8
0
 10
108.626434
 20
-164.000000
 11
117.626434
 21
-164.000000
  0
LINE
  8
0
 10
108.876434
 20
-159.499969
 11
108.876434
 21
-163.999969
  0
LINE
  8
0
 10
117.376434
 20
-159.499969
 11
117.376434
 21
-163.999969
  0
LINE
  8
0
 10
108.876434
 20
-159.500000
 11
117.376434
 21
-159.500000
  0
LINE
  8
0
 10
108.876411
 20
-159.499954
 11
109.376427
 21
-158.999939
  0
LINE
  8
0
 10
117.376427
 20
-159.500000
 11
116.876411
 21
-159.000000
  0
LINE
  8
0
 10
101.126434
 20
-169.000000
 11
120.126434
 21
-169.000000
  0
LINE
  8
0
 10
101.126434
 20
-171.000000
 11
120.126434
 21
-171.000000
  0
LINE
  8
0
 10
110.626434
 20
-168.999969
 11
110.626434
 21
-170.999969
  0
LINE
  8
0
 10
115.626434
 20
-168.999969
 11
115.626434
 21
-170.999969
  0
LINE
  8
0
 10
115.193436
 20
-168.999969
 11
115.193436
 21
-170.999969
  0
LINE
  8
0
 10
111.059433
 20
-168.999969
 11
111.059433
 21
-170.999969
  0
LINE
  8
0
 10
-134.873566
 20
-159.000000
 11
-134.873566
 21
-203.000000
  0
LINE
  8
0
 10
-115.873566
 20
-159.000000
 11
-115.873566
 21
-203.000000
  0
LINE
  8
0
 10
123.579697
 20
-182.000000
 11
120.126434
 21
-182.000000
  0
LINE
  8
0
 10
124.126450
 20
-182.946991
 11
120.126434
 21
-182.946991
  0
LINE
  8
0
 10
124.126450
 20
-193.053009
 11
120.126434
 21
-193.053009
  0
LINE
  8
0
 10
123.579697
 20
-194.000000
 11
120.126434
 21
-194.000000
  0
LINE
  8
0
  6
CENTER
 10
129.126450
 20
-188.000000
 11
96.126434
 21
-188.000000
  0
LINE
  8
0
 10
124.126450
 20
-193.052979
 11
124.126450
 21
-182.946960
  0
LINE
  8
0
 10
124.126503
 20
-193.052963
 11
123.579742
 21
-193.999969
  0
LINE
  8
0
 10
124.126411
 20
-182.946991
 11
123.579659
 21
-181.999985
  0
LINE
  8
0
 10
123.579697
 20
-181.999969
 11
123.579697
 21
-193.999969
  0
LINE
  8
0
  6
CENTER
 10
-134.373566
 20
-180.500000
 11
-120.373566
 21
-180.500000
  0
LINE
  8
0
  6
CENTER
 10
-134.373566
 20
-195.000000
 11
-120.373566
 21
-195.000000
  0
LINE
  8
0
  6
CENTER
 10
-127.373566
 20
-173.500000
 11
-127.373566
 21
-202.000000
  0
LINE
  8
0
 10
-115.873566
 20
-163.000000
 11
-114.873566
 21
-163.000000
  0
LINE
  8
0
 10
-115.873566
 20
-177.000000
 11
-114.873566
 21
-177.000000
  0
LINE
  8
0
 10
-114.873566
 20
-158.000000
 11
-114.873566
 21
-179.000000
  0
LINE
  8
0
 10
-49.873566
 20
-157.999985
 11
-49.873566
 21
-178.999985
  0
LINE
  8
0
 10
-51.473564
 20
-156.999985
 11
-51.473564
 21
-178.999985
  0
LINE
  8
0
 10
-113.273560
 20
-157.000000
 11
-113.273560
 21
-179.000000
  0
LINE
  8
0
 10
-49.873566
 20
-163.000000
 11
101.126434
 21
-163.000000
  0
LINE
  8
0
 10
-49.873566
 20
-177.000000
 11
101.126434
 21
-177.000000
  0
LINE
  8
0
 10
-113.273560
 20
-157.000000
 11
-51.473564
 21
-157.000000
  0
LINE
  8
0
 10
-114.873566
 20
-158.000000
 11
-113.273560
 21
-158.000000
  0
LINE
  8
0
 10
-51.473564
 20
-158.000000
 11
-49.873566
 21
-158.000000
  0
LINE
  8
0
 10
-114.873566
 20
-175.571793
 11
-49.873566
 21
-175.571793
  0
LINE
  8
0
 10
-115.873566
 20
-202.000000
 11
101.126434
 21
-202.000000
  0
LINE
  8
0
 10
-115.873566
 20
-179.000000
 11
101.126434
 21
-179.000000
  0
LINE
  8
0
 10
-115.873566
 20
-183.500000
 11
101.126434
 21
-183.500000
  0
LINE
  8
0
 10
-115.873566
 20
-194.500000
 11
101.126434
 21
-194.500000
  0
LINE
  8
0
 10
-113.273560
 20
-159.000000
 11
-51.473564
 21
-159.000000
  0
LINE
  8
0
  6
CENTER
 10
112.626419
 20
-187.999969
 11
112.626419
 21
-201.999969
  0
LINE
  8
0
  6
CENTER
 10
119.626434
 20
-195.000000
 11
105.626434
 21
-195.000000
  0
LINE
  8
0
 10
112.626495
 20
-192.113358
 11
110.126495
 21
-193.556717
  0
LINE
  8
0
 10
110.126419
 20
-193.556595
 11
110.126419
 21
-196.443344
  0
LINE
  8
0
 10
110.126411
 20
-196.443390
 11
112.626404
 21
-197.886765
  0
LINE
  8
0
 10
112.626480
 20
-197.886826
 11
115.126480
 21
-196.443451
  0
LINE
  8
0
 10
115.126450
 20
-196.443359
 11
115.126450
 21
-193.556610
  0
LINE
  8
0
 10
115.126434
 20
-193.556625
 11
112.626434
 21
-192.113251
  0
LINE
  8
0
  6
CENTER
 10
-290.873566
 20
-40.000000
 11
-234.873566
 21
-40.000000
  0
LINE
  8
0
 10
-285.873566
 20
-82.000000
 11
-241.873566
 21
-82.000000
  0
LINE
  8
0
 10
-241.873489
 20
-81.000061
 11
-239.873489
 21
-79.000061
  0
LINE
  8
0
  6
CENTER
 10
-279.873566
 20
-10.000000
 11
-243.873566
 21
-10.000000
  0
LINE
  8
0
 10
-255.373581
 20
-11.443381
 11
-252.873566
 21
-12.886771
  0
LINE
  8
0
 10
-252.873596
 20
-12.886729
 11
-250.373596
 21
-11.443355
  0
LINE
  8
0
 10
-250.373566
 20
-11.443367
 11
-250.373566
 21
-8.556618
  0
LINE
  8
0
 10
-250.373566
 20
-8.556637
 11
-252.873596
 21
-7.113246
  0
LINE
  8
0
 10
-252.873627
 20
-7.113174
 11
-255.373642
 21
-8.556563
  0
LINE
  8
0
 10
-255.373535
 20
-8.556614
 11
-255.373535
 21
-11.443394
  0
LINE
  8
0
  6
CENTER
 10
-252.873566
 20
-79.000000
 11
-252.873566
 21
-61.000004
  0
LINE
  8
0
 10
-252.873474
 20
-67.113144
 11
-250.373474
 21
-68.556519
  0
LINE
  8
0
 10
-250.373596
 20
-71.443367
 11
-252.873627
 21
-72.886757
  0
LINE
  8
0
 10
-250.373566
 20
-68.556648
 11
-250.373566
 21
-71.443398
  0
LINE
  8
0
  6
CENTER
 10
-261.873566
 20
-70.000000
 11
-243.873566
 21
-70.000000
  0
LINE
  8
0
 10
-252.873642
 20
-72.886841
 11
-255.373672
 21
-71.443451
  0
LINE
  8
0
 10
-255.373535
 20
-71.443390
 11
-255.373535
 21
-68.556610
  0
LINE
  8
0
 10
-255.373596
 20
-68.556656
 11
-252.873566
 21
-67.113266
  0
LINE
  8
0
 10
-273.873535
 20
-11.732076
 11
-270.873596
 21
-13.464102
  0
LINE
  8
0
 10
-270.873596
 20
-13.464094
 11
-267.873596
 21
-11.732054
  0
LINE
  8
0
 10
-267.873535
 20
-11.732059
 11
-267.873535
 21
-8.267963
  0
LINE
  8
0
 10
-267.873596
 20
-8.267936
 11
-270.873566
 21
-6.535895
  0
LINE
  8
0
 10
-270.873627
 20
-6.535790
 11
-273.873596
 21
-8.267830
  0
LINE
  8
0
 10
-273.873566
 20
-8.267963
 11
-273.873566
 21
-11.732044
  0
LINE
  8
0
  6
CENTER
 10
-285.373566
 20
-63.000000
 11
-255.873566
 21
-63.000000
  0
LINE
  8
0
  6
CENTER
 10
-277.873566
 20
-55.500000
 11
-277.873566
 21
-70.500000
  0
LINE
  8
0
  6
CENTER
 10
-263.373566
 20
-55.500004
 11
-263.373566
 21
-70.500000
  0
LINE
  8
0
 10
-283.373566
 20
-11.000000
 11
-283.373566
 21
-10.000000
  0
LINE
  8
0
 10
-278.373566
 20
-11.000000
 11
-278.373566
 21
-10.000000
  0
LINE
  8
0
 10
-282.940552
 20
-11.000000
 11
-282.940552
 21
-10.000000
  0
LINE
  8
0
 10
-278.806580
 20
-11.000000
 11
-278.806580
 21
-10.000000
  0
LINE
  8
0
 10
-285.873566
 20
-82.000000
 11
-285.873566
 21
-11.000000
  0
LINE
  8
0
 10
-269.873566
 20
2.000000
 11
-241.873566
 21
2.000000
  0
LINE
  8
0
 10
-241.873566
 20
-82.000008
 11
-241.873566
 21
1.999992
  0
LINE
  8
0
 10
-285.123566
 20
-4.000000
 11
-275.873566
 21
-4.000000
  0
LINE
  8
0
 10
-284.873566
 20
-10.000000
 11
-284.873566
 21
-4.000000
  0
LINE
  8
0
 10
-285.873566
 20
-11.000000
 11
-276.789642
 21
-11.000000
  0
LINE
  8
0
 10
-284.873566
 20
-10.000000
 11
-276.873566
 21
-10.000000
  0
LINE
  8
0
 10
-275.873688
 20
-3.999897
 11
-269.873688
 21
2.000099
  0
LINE
  8
0
 10
-241.873459
 20
1.000052
 11
-239.873459
 21
-0.999952
  0
LINE
  8
0
  6
CENTER
 10
-280.873566
 20
-16.000000
 11
-280.873566
 21
1.433857
  0
LINE
  8
0
 10
-276.623566
 20
-4.000000
 11
-276.623566
 21
0.500000
  0
LINE
  8
0
 10
-285.123566
 20
-4.000000
 11
-285.123566
 21
0.500000
  0
LINE
  8
0
 10
-284.623566
 20
1.000000
 11
-277.123566
 21
1.000000
  0
LINE
  8
0
 10
-285.123566
 20
0.500000
 11
-276.623566
 21
0.500000
  0
LINE
  8
0
 10
-285.123474
 20
0.499957
 11
-284.623505
 21
0.999947
  0
LINE
  8
0
 10
-276.623474
 20
0.500022
 11
-277.123505
 21
1.000033
  0
LINE
  8
0
  6
CENTER
 10
-270.873566
 20
-1.000004
 11
-270.873566
 21
-19.000004
  0
LINE
  8
0
  6
CENTER
 10
-252.873566
 20
-1.000004
 11
-252.873566
 21
-19.000004
  0
LINE
  8
0
 10
-239.873505
 20
-1.000011
 11
-239.873505
 21
-30.499952
  0
LINE
  8
0
 10
-240.373535
 20
-31.000006
 11
-240.373535
 21
-49.000031
  0
LINE
  8
0
  6
CENTER
 10
-234.873566
 20
-40.000000
 11
-290.873566
 21
-40.000000
  0
LINE
  8
0
 10
-240.373505
 20
-48.999996
 11
-239.873505
 21
-49.499989
  0
LINE
  8
0
 10
-239.873566
 20
-79.000000
 11
-239.873566
 21
-49.500008
  0
LINE
  8
0
 10
-240.373520
 20
-31.000025
 11
-239.873505
 21
-30.500011
  0
LINE
  8
0
 10
-265.873627
 20
-64.443398
 11
-263.373627
 21
-65.886772
  0
LINE
  8
0
 10
-263.373566
 20
-65.886749
 11
-260.873596
 21
-64.443375
  0
LINE
  8
0
 10
-260.873535
 20
-64.443390
 11
-260.873535
 21
-61.556644
  0
LINE
  8
0
 10
-260.873596
 20
-61.556618
 11
-263.373596
 21
-60.113243
  0
LINE
  8
0
 10
-263.373627
 20
-60.113220
 11
-265.873627
 21
-61.556595
  0
LINE
  8
0
 10
-265.873566
 20
-61.556629
 11
-265.873566
 21
-64.443375
  0
LINE
  8
0
 10
-277.873596
 20
-60.113232
 11
-280.373596
 21
-61.556606
  0
LINE
  8
0
 10
-280.373566
 20
-61.556625
 11
-280.373566
 21
-64.443375
  0
LINE
  8
0
 10
-280.373596
 20
-64.443436
 11
-277.873596
 21
-65.886810
  0
LINE
  8
0
 10
-277.873566
 20
-65.886742
 11
-275.373566
 21
-64.443367
  0
LINE
  8
0
 10
-275.373535
 20
-64.443390
 11
-275.373535
 21
-61.556641
  0
LINE
  8
0
 10
-275.373535
 20
-61.556644
 11
-277.873535
 21
-60.113270
  0
ARC
  8
0
 62
     5
 10
273.035400
 20
-235.045654
 40
2.211884
 50
0.000000
 51
90.000000
  0
ARC
  8
0
 62
     5
 10
291.283569
 20
-246.934647
 40
2.211899
 50
270.000000
 51
0.000000
  0
ARC
  8
0
 62
     5
 10
290.177551
 20
-236.151566
 40
3.317841
 50
0.000000
 51
90.000000
  0
ARC
  8
0
 62
     5
 10
310.361115
 20
-236.812775
 40
2.211890
 50
294.999969
 51
0.000000
  0
ARC
  8
0
 62
     5
 10
310.361115
 20
-235.045654
 40
2.211884
 50
0.000000
 51
90.000000
  0
ARC
  8
0
 62
     5
 10
327.503357
 20
-232.833755
 40
3.317840
 50
291.688385
 51
0.000000
  0
ARC
  8
0
 62
     5
 10
326.397308
 20
-232.083389
 40
1.105946
 50
291.688965
 51
0.000000
  0
ARC
  8
0
 10
-82.373566
 20
-20.999992
 40
2.500000
 50
0.000000
 51
179.999954
  0
CIRCLE
  8
0
 10
-63.373566
 20
-57.999989
 40
2.067000
  0
CIRCLE
  8
0
 10
-82.373566
 20
-57.999992
 40
2.500000
  0
ARC
  8
0
 10
-82.373566
 20
-22.999992
 40
2.500000
 50
180.000000
 51
0.000000
  0
CIRCLE
  8
0
 10
-121.873566
 20
-22.499998
 40
2.750000
  0
CIRCLE
  8
0
 10
-121.873566
 20
-22.499998
 40
4.750000
  0
CIRCLE
  8
0
 10
-121.873566
 20
-57.500000
 40
2.750000
  0
CIRCLE
  8
0
 10
-121.873566
 20
-57.500000
 40
4.750000
  0
CIRCLE
  8
0
 10
107.126434
 20
-57.499962
 40
4.750000
  0
CIRCLE
  8
0
 10
107.126434
 20
-57.499962
 40
2.750000
  0
CIRCLE
  8
0
 10
107.126434
 20
-22.499964
 40
2.750000
  0
CIRCLE
  8
0
 10
107.126434
 20
-22.499964
 40
4.750000
  0
CIRCLE
  8
0
 10
113.126434
 20
-77.499962
 40
4.250000
  0
ARC
  8
0
 10
113.126434
 20
-77.499962
 40
4.500000
 50
0.000000
 51
180.000000
  0
CIRCLE
  8
0
 10
-101.373566
 20
-21.999994
 40
2.500000
  0
CIRCLE
  8
0
 10
-101.373566
 20
-21.999994
 40
2.067000
  0
CIRCLE
  8
0
 10
-63.373566
 20
-21.999989
 40
2.500000
  0
CIRCLE
  8
0
 10
-63.373566
 20
-21.999989
 40
2.067000
  0
CIRCLE
  8
0
 10
-101.373566
 20
-57.999992
 40
2.500000
  0
CIRCLE
  8
0
 10
-101.373566
 20
-57.999992
 40
2.067000
  0
CIRCLE
  8
0
 10
-63.373566
 20
-57.999989
 40
2.500000
  0
ARC
  8
0
 10
-50.674042
 20
125.794205
 40
4.600479
 50
325.615753
 51
0.000000
  0
ARC
  8
0
 10
-50.674049
 20
110.205750
 40
4.600475
 50
359.999908
 51
34.384182
  0
ARC
  8
0
 10
-63.269730
 20
117.999969
 40
17.196161
 50
342.412048
 51
17.587969
  0
CIRCLE
  8
0
 10
-127.873566
 20
128.000046
 40
4.250000
  0
CIRCLE
  8
0
 10
113.126434
 20
127.999969
 40
4.250000
  0
ARC
  8
0
 10
-32.677414
 20
117.999962
 40
17.196161
 50
162.412064
 51
197.587967
  0
ARC
  8
0
 10
-45.273087
 20
125.794205
 40
4.600475
 50
180.000000
 51
214.384293
  0
ARC
  8
0
 10
-45.273094
 20
110.205750
 40
4.600477
 50
145.615601
 51
179.999908
  0
CIRCLE
  8
0
 10
270.873566
 20
-9.999994
 40
5.053000
  0
CIRCLE
  8
0
 10
270.873566
 20
-9.999994
 40
6.000000
  0
CIRCLE
  8
0
 10
252.873566
 20
-70.000000
 40
4.250000
  0
CIRCLE
  8
0
 10
252.873566
 20
-9.999998
 40
6.000000
  0
CIRCLE
  8
0
 10
112.626434
 20
-194.999969
 40
4.864000
  0
CIRCLE
  8
0
 10
-127.373566
 20
-180.500000
 40
4.864000
  0
CIRCLE
  8
0
 10
-127.373566
 20
-180.500000
 40
4.283000
  0
CIRCLE
  8
0
 10
-127.373566
 20
-195.000000
 40
4.864000
  0
CIRCLE
  8
0
 10
-127.373566
 20
-195.000000
 40
4.283000
  0
CIRCLE
  8
0
 10
112.626434
 20
-194.999969
 40
4.283000
  0
CIRCLE
  8
0
 10
-277.873566
 20
-63.000000
 40
4.283000
  0
CIRCLE
  8
0
 10
-252.873566
 20
-10.000006
 40
6.000000
  0
CIRCLE
  8
0
 10
-252.873566
 20
-70.000008
 40
6.000000
  0
CIRCLE
  8
0
 10
-270.873566
 20
-10.000002
 40
6.000000
  0
CIRCLE
  8
0
 10
-270.873566
 20
-10.000002
 40
5.053000
  0
CIRCLE
  8
0
 10
-277.873566
 20
-63.000000
 40
4.864000
  0
CIRCLE
  8
0
 10
-263.373566
 20
-63.000004
 40
4.864000
  0
CIRCLE
  8
0
 10
-263.373566
 20
-63.000004
 40
4.283000
  0
TEXT
  8
0
 10
226.462494
 20
233.607468
 40
8.500000
  1
DATE : JUN ,1991
 50
0.000000
 41
1.052631
 51
0.000000
  7
STANDARD
  0
TEXT
  8
0
 10
-366.896820
 20
232.257462
 40
10.000000
  1
RODLESS CYLINDER
 50
0.000000
 41
0.937799
 51
0.000000
  7
STANDARD
  0
TEXT
  8
0
 10
-347.052124
 20
187.956390
 40
10.000000
  1
MODEL : MRG* 20xSt-K(150)
 50
0.000000
 41
1.052632
 51
0.000000
  7
STANDARD
  0
TEXT
  8
0
 10
-203.083557
 20
-139.299988
 40
7.000000
  1
5-Rc1/8
 50
0.000000
 41
1.052632
 51
0.000000
  7
STANDARD
  0
TEXT
  8
0
 10
-36.720165
 20
21.700008
 40
7.000000
  1
4-M5x0.8
 50
0.000000
 41
1.052632
 51
0.000000
  7
STANDARD
  0
TEXT
  8
0
 10
-122.180710
 20
-178.380005
 40
3.200000
  1
A
 50
0.000000
 41
1.052632
 51
0.000000
  7
STANDARD
  0
TEXT
  8
0
 10
-122.180710
 20
-192.880005
 40
3.200000
  1
B
 50
0.000000
 41
1.052632
 51
0.000000
  7
STANDARD
  0
TEXT
  8
0
 10
103.819275
 20
-192.879974
 40
3.200000
  1
B
 50
0.000000
 41
1.052632
 51
0.000000
  7
STANDARD
  0
TEXT
  8
0
 10
-260.253571
 20
-55.192863
 40
3.200000
  1
A
 50
-90.000000
 41
1.052632
 51
0.000000
  7
STANDARD
  0
TEXT
  8
0
 10
-274.753571
 20
-55.192860
 40
3.200000
  1
B
 50
-90.000000
 41
1.052632
 51
0.000000
  7
STANDARD
  0
ENDSEC
  0
EOF
