  0
SECTION
  2
HEADER
  0
ENDSEC
  0
SECTION
  2
TABLES
  0
TABLE
  2
LTYPE
 70
     4
  0
LTYPE
  2
CONTINUOUS
 70
    64
  3
Solid line
 72
    65
 73
     0
 40
0.000000
  0
LTYPE
  2
DASHED
 70
    64
  3
__ __ __ __ __ __ __ __ __ __ __ __ __ __ __
 72
    65
 73
     2
 40
3.500000
 49
2.000000
 49
-1.500000
  0
LTYPE
  2
CENTER
 70
    64
  3
____ _ ____ _ ____ _ ____ _ ____ _ ____ _ ____
 72
    65
 73
     4
 40
17.500000
 49
13.000000
 49
-1.500000
 49
1.500000
 49
-1.500000
  0
LTYPE
  2
PHANTOM
 70
    64
  3
_____ _ _ _____ _ _ _____ _ _ _____ _ _ ____  
 72
    65
 73
     6
 40
15.500000
 49
8.000000
 49
-1.500000
 49
1.500000
 49
-1.500000
 49
1.500000
 49
-1.500000
  0
LTYPE
  2
DASHED1
 70
    64
  3
__ __ __ __ __ __ __ __ __ __ __ __ __ __ __
 72
    65
 73
     2
 40
1.500000
 49
1.000000
 49
-0.500000
  0
LTYPE
  2
DASHED2
 70
    64
  3
__ __ __ __ __ __ __ __ __ __ __ __ __ __ __
 72
    65
 73
     2
 40
3.500000
 49
2.500000
 49
-1.000000
  0
LTYPE
  2
DASHED3
 70
    64
  3
__ __ __ __ __ __ __ __ __ __ __ __ __ __ __
 72
    65
 73
     2
 40
6.000000
 49
4.000000
 49
-2.000000
  0
LTYPE
  2
DASHED4
 70
    64
  3
__ __ __ __ __ __ __ __ __ __ __ __ __ __ __
 72
    65
 73
     2
 40
12.000000
 49
10.000000
 49
-2.000000
  0
LTYPE
  2
DASHED5
 70
    64
  3
__ __ __ __ __ __ __ __ __ __ __ __ __ __ __
 72
    65
 73
     2
 40
17.000000
 49
15.000000
 49
-2.000000
  0
LTYPE
  2
DASHED6
 70
    64
  3
__ __ __ __ __ __ __ __ __ __ __ __ __ __ __
 72
    65
 73
     2
 40
29.000000
 49
27.000000
 49
-2.000000
  0
LTYPE
  2
PHANTOM1
 70
    64
  3
_____ _ _ _____ _ _ _____ _ _ _____ _ _ ____  
 72
    65
 73
     6
 40
31.000000
 49
25.000000
 49
-1.500000
 49
1.000000
 49
-1.000000
 49
1.000000
 49
-1.500000
  0
LTYPE
  2
PHANTOM2
 70
    64
  3
_____ _ _ _____ _ _ _____ _ _ _____ _ _ ____  
 72
    65
 73
     6
 40
36.000000
 49
27.000000
 49
-1.500000
 49
2.500000
 49
-1.000000
 49
2.500000
 49
-1.500000
  0
LTYPE
  2
PHANTOM3
 70
    64
  3
_____ _ _ _____ _ _ _____ _ _ _____ _ _ ____  
 72
    65
 73
     6
 40
78.000000
 49
64.000000
 49
-2.000000
 49
4.000000
 49
-2.000000
 49
4.000000
 49
-2.000000
  0
LTYPE
  2
CENTER1
 70
    64
  3
____ _ ____ _ ____ _ ____ _ ____ _ ____ _ ____
 72
    65
 73
     4
 40
19.000000
 49
14.000000
 49
-1.000000
 49
3.000000
 49
-1.000000
  0
LTYPE
  2
CENTER2
 70
    64
  3
____ _ ____ _ ____ _ ____ _ ____ _ ____ _ ____
 72
    65
 73
     4
 40
28.500000
 49
25.000000
 49
-1.000000
 49
1.500000
 49
-1.000000
  0
LTYPE
  2
CENTER3
 70
    64
  3
____ _ ____ _ ____ _ ____ _ ____ _ ____ _ ____
 72
    65
 73
     4
 40
31.500000
 49
27.000000
 49
-1.000000
 49
2.500000
 49
-1.000000
  0
LTYPE
  2
CENTER4
 70
    64
  3
____ _ ____ _ ____ _ ____ _ ____ _ ____ _ ____
 72
    65
 73
     4
 40
50.000000
 49
45.000000
 49
-1.000000
 49
3.000000
 49
-1.000000
  0
LTYPE
  2
CENTER5
 70
    64
  3
____ _ ____ _ ____ _ ____ _ ____ _ ____ _ ____
 72
    65
 73
     4
 40
100.000000
 49
92.000000
 49
-2.000000
 49
4.000000
 49
-2.000000
  0
LTYPE
  2
SBK1
 70
    64
  3
______ _ _ _ ______ _ _ _ ______ _ _ _ _____  
 72
    65
 73
     8
 40
60.500000
 49
45.000000
 49
-2.000000
 49
2.500000
 49
-2.000000
 49
2.500000
 49
-2.000000
 49
2.500000
 49
-2.000000
  0
LTYPE
  2
SBK2
 70
    64
  3
______ _ _ _ ______ _ _ _ ______ _ _ _ _____  
 72
    65
 73
     8
 40
84.000000
 49
64.000000
 49
-2.000000
 49
4.000000
 49
-2.000000
 49
4.000000
 49
-2.000000
 49
4.000000
 49
-2.000000
  0
LTYPE
  2
STCH
 70
    64
  3
__ __ __ __ __ __ __ __ __ __ __ __ __ __ __
 72
    65
 73
     2
 40
3.000000
 49
1.000000
 49
-2.000000
  0
LTYPE
  2
MTCH
 70
    64
  3
_____ _ _ _____ _ _ _____ _ _ _____ _ _ ____  
 72
    65
 73
     6
 40
80.000000
 49
66.000000
 49
-2.000000
 49
4.000000
 49
-2.000000
 49
4.000000
 49
-2.000000
  0
ENDTAB
  0
TABLE
  2
LAYER
 70
     1
  0
LAYER
  2
0
 70
     0
 62
     7
  6
CONTINUOUS
  0
ENDTAB
  0
TABLE
  2
STYLE
 70
     1
  0
STYLE
  2
STANDARD
 70
     0
 40
0.000000
 41
1.000000
 50
0.000000
 71
     0
 42
0.200000
  3
txt
  4
BIGFONT
  0
ENDTAB
  0
TABLE
  2
VIEW
 70
     0
  0
ENDTAB
  0
ENDSEC
  0
SECTION
  2
BLOCKS
  0
ENDSEC
  0
SECTION
  2
ENTITIES
  0
POINT
  8
0
 10
-290.873505
 20
-39.999981
  0
POINT
  8
0
 10
-160.873505
 20
-39.999977
  0
POINT
  8
0
 10
-160.873611
 20
140.000046
  0
POINT
  8
0
 10
-160.873672
 20
-210.000092
  0
POINT
  8
0
 10
238.126328
 20
-40.000034
  0
POINT
  8
0
 10
153.126495
 20
-39.999977
  0
POINT
  8
0
 10
153.126389
 20
140.000046
  0
POINT
  8
0
 10
288.126343
 20
-40.000034
  0
POINT
  8
0
 10
153.126328
 20
-210.000092
  0
POINT
  8
0
 10
-240.873505
 20
-39.999981
  0
LINE
  8
0
 62
     3
 10
218.329163
 20
-225.956436
 11
370.873566
 21
-225.956436
  0
LINE
  8
0
 62
     3
 10
-218.329163
 20
225.956390
 11
-218.329163
 21
254.558487
  0
LINE
  8
0
 62
     3
 10
-370.873566
 20
225.956390
 11
-218.329163
 21
225.956390
  0
LINE
  8
0
 62
     3
 10
-370.873566
 20
254.558487
 11
370.873566
 21
254.558487
  0
LINE
  8
0
 62
     3
 10
-370.873566
 20
-254.558487
 11
370.873566
 21
-254.558487
  0
LINE
  8
0
 62
     3
 10
370.873566
 20
254.558487
 11
370.873566
 21
-254.558487
  0
LINE
  8
0
 62
     3
 10
-370.873566
 20
-254.558487
 11
-370.873566
 21
254.558487
  0
LINE
  8
0
 62
     3
 10
218.329163
 20
-225.956436
 11
218.329163
 21
-254.558487
  0
LINE
  8
0
 62
     3
 10
218.329163
 20
254.558487
 11
218.329163
 21
225.956390
  0
LINE
  8
0
 62
     3
 10
218.329163
 20
225.956390
 11
370.873566
 21
225.956390
  0
LINE
  8
0
 62
     5
 10
258.381622
 20
-232.833740
 11
258.381622
 21
-236.151566
  0
LINE
  8
0
 62
     5
 10
258.381622
 20
-236.151566
 11
270.823547
 21
-236.151566
  0
LINE
  8
0
 62
     5
 10
258.381622
 20
-249.146469
 11
275.247345
 21
-249.146469
  0
LINE
  8
0
 62
     5
 10
258.381622
 20
-245.828644
 11
270.823547
 21
-245.828644
  0
LINE
  8
0
 62
     5
 10
258.381622
 20
-232.833740
 11
273.035400
 21
-232.833740
  0
LINE
  8
0
 62
     5
 10
270.823547
 20
-236.151566
 11
270.823547
 21
-245.828644
  0
LINE
  8
0
 62
     5
 10
275.247345
 20
-235.045654
 11
275.247345
 21
-249.146469
  0
LINE
  8
0
 62
     5
 10
258.381622
 20
-245.828644
 11
258.381622
 21
-249.146469
  0
LINE
  8
0
 62
     5
 10
293.495392
 20
-236.151566
 11
293.495392
 21
-246.934647
  0
LINE
  8
0
 62
     5
 10
277.735657
 20
-232.833740
 11
277.735657
 21
-236.151566
  0
LINE
  8
0
 62
     5
 10
293.937836
 20
-232.584961
 11
295.513824
 21
-232.584961
  0
LINE
  8
0
 62
     5
 10
293.937836
 20
-230.373016
 11
295.513824
 21
-230.373016
  0
LINE
  8
0
 62
     5
 10
295.513824
 20
-230.373016
 11
295.513824
 21
-232.584961
  0
LINE
  8
0
 62
     5
 10
293.937836
 20
-230.373016
 11
293.937836
 21
-232.584961
  0
LINE
  8
0
 62
     5
 10
293.108276
 20
-230.373016
 11
293.108276
 21
-232.584961
  0
LINE
  8
0
 62
     5
 10
282.766052
 20
-230.373016
 11
286.200897
 21
-230.373016
  0
LINE
  8
0
 62
     5
 10
285.541260
 20
-232.833466
 11
286.200562
 21
-230.372711
  0
LINE
  8
0
 62
     5
 10
282.106689
 20
-232.833710
 11
282.766022
 21
-230.372986
  0
LINE
  8
0
 62
     5
 10
285.541565
 20
-232.833740
 11
290.177551
 21
-232.833740
  0
LINE
  8
0
 62
     5
 10
284.652557
 20
-236.151566
 11
289.071625
 21
-236.151566
  0
LINE
  8
0
 62
     5
 10
286.642853
 20
-249.146469
 11
291.283569
 21
-249.146469
  0
LINE
  8
0
 62
     5
 10
285.753693
 20
-245.828583
 11
286.642731
 21
-249.146347
  0
LINE
  8
0
 62
     5
 10
285.753754
 20
-245.828644
 11
289.071625
 21
-245.828644
  0
LINE
  8
0
 62
     5
 10
281.170746
 20
-249.146637
 11
284.652679
 21
-236.151733
  0
LINE
  8
0
 62
     5
 10
277.735657
 20
-236.151566
 11
281.217682
 21
-236.151566
  0
LINE
  8
0
 62
     5
 10
277.735413
 20
-249.146210
 11
281.217468
 21
-236.151337
  0
LINE
  8
0
 62
     5
 10
277.735657
 20
-249.146469
 11
281.170593
 21
-249.146469
  0
LINE
  8
0
 62
     5
 10
277.735657
 20
-232.833740
 11
282.106689
 21
-232.833740
  0
LINE
  8
0
 62
     5
 10
289.071625
 20
-236.151566
 11
289.071625
 21
-245.828644
  0
LINE
  8
0
 62
     5
 10
291.532288
 20
-230.373016
 11
293.108276
 21
-230.373016
  0
LINE
  8
0
 62
     5
 10
291.532288
 20
-232.584961
 11
293.108276
 21
-232.584961
  0
LINE
  8
0
 62
     5
 10
291.532288
 20
-230.373016
 11
291.532288
 21
-232.584961
  0
LINE
  8
0
 62
     5
 10
301.513550
 20
-230.373016
 11
305.937286
 21
-230.373016
  0
LINE
  8
0
 62
     5
 10
308.342316
 20
-240.195053
 11
311.296204
 21
-238.817642
  0
LINE
  8
0
 62
     5
 10
305.937286
 20
-242.734406
 11
305.937286
 21
-249.146469
  0
LINE
  8
0
 62
     5
 10
301.513550
 20
-243.379044
 11
301.513550
 21
-249.146469
  0
LINE
  8
0
 62
     5
 10
305.937286
 20
-232.833740
 11
310.361115
 21
-232.833740
  0
LINE
  8
0
 62
     5
 10
305.937286
 20
-230.373016
 11
305.937286
 21
-232.833740
  0
LINE
  8
0
 62
     5
 10
301.513550
 20
-230.373016
 11
301.513550
 21
-232.833740
  0
LINE
  8
0
 62
     5
 10
312.572998
 20
-235.045654
 11
312.572998
 21
-236.812775
  0
LINE
  8
0
 62
     5
 10
308.342377
 20
-240.195038
 11
312.573395
 21
-242.168030
  0
LINE
  8
0
 62
     5
 10
305.937256
 20
-242.734329
 11
312.573059
 21
-245.828613
  0
LINE
  8
0
 62
     5
 10
296.260284
 20
-242.167801
 11
296.260284
 21
-245.828644
  0
LINE
  8
0
 62
     5
 10
296.260742
 20
-242.168167
 11
309.162567
 21
-236.151932
  0
LINE
  8
0
 62
     5
 10
296.260254
 20
-245.828598
 11
301.513580
 21
-243.378937
  0
LINE
  8
0
 62
     5
 10
312.572998
 20
-242.167801
 11
312.572998
 21
-245.828644
  0
LINE
  8
0
 62
     5
 10
296.260284
 20
-232.833740
 11
296.260284
 21
-236.151566
  0
LINE
  8
0
 62
     5
 10
301.513550
 20
-249.146469
 11
305.937286
 21
-249.146469
  0
LINE
  8
0
 62
     5
 10
296.260284
 20
-236.151566
 11
309.162079
 21
-236.151566
  0
LINE
  8
0
 62
     5
 10
296.260284
 20
-232.833740
 11
301.513550
 21
-232.833740
  0
LINE
  8
0
 62
     5
 10
327.503998
 20
-236.404739
 11
328.730042
 21
-235.917068
  0
LINE
  8
0
 62
     5
 10
327.503357
 20
-236.404404
 11
327.503357
 21
-249.146469
  0
LINE
  8
0
 62
     5
 10
323.079498
 20
-249.146469
 11
327.503357
 21
-249.146469
  0
LINE
  8
0
 62
     5
 10
313.955292
 20
-241.792511
 11
323.079376
 21
-238.163742
  0
LINE
  8
0
 62
     5
 10
313.955536
 20
-238.221954
 11
326.806152
 21
-233.111084
  0
LINE
  8
0
 62
     5
 10
323.079498
 20
-238.163773
 11
323.079498
 21
-249.146469
  0
LINE
  8
0
 62
     5
 10
327.503357
 20
-231.368408
 11
327.503357
 21
-232.083389
  0
LINE
  8
0
 62
     5
 10
330.821106
 20
-231.368408
 11
330.821106
 21
-232.833755
  0
LINE
  8
0
 62
     5
 10
313.955444
 20
-238.221893
 11
313.955444
 21
-241.792496
  0
LINE
  8
0
 62
     5
 10
327.503357
 20
-231.368408
 11
330.821106
 21
-231.368408
  0
LINE
  8
0
 10
-155.805557
 20
-180.787659
 11
-178.199631
 21
-141.999969
  0
LINE
  8
0
 10
-155.805557
 20
-180.787659
 11
-157.229065
 21
-175.475067
  0
LINE
  8
0
 10
-155.805557
 20
-180.787643
 11
-159.694641
 21
-176.898560
  0
LINE
  8
0
 10
-230.482452
 20
-141.999969
 11
-178.199631
 21
-141.999969
  0
LINE
  8
0
 10
-82.373581
 20
-16.401915
 11
-57.315468
 21
27.000011
  0
LINE
  8
0
 10
-82.373581
 20
-16.401915
 11
-80.950073
 21
-11.089323
  0
LINE
  8
0
 10
-82.373581
 20
-16.401917
 11
-78.484497
 21
-12.512829
  0
LINE
  8
0
 10
-57.315468
 20
27.000011
 11
-12.345970
 21
27.000011
  0
LINE
  8
0
  6
CENTER
 10
-165.873505
 20
-39.999977
 11
158.126495
 21
-39.999977
  0
LINE
  8
0
 10
-160.873505
 20
-86.999977
 11
-160.873505
 21
7.000023
  0
LINE
  8
0
 10
-139.873505
 20
-86.999977
 11
-139.873505
 21
7.000023
  0
LINE
  8
0
 10
-160.873505
 20
7.000023
 11
-139.873505
 21
7.000023
  0
LINE
  8
0
 10
-160.873505
 20
-86.999977
 11
-139.873505
 21
-86.999977
  0
LINE
  8
0
  6
CENTER
 10
-154.373505
 20
-19.999977
 11
-139.373505
 21
-19.999977
  0
LINE
  8
0
  6
CENTER
 10
-146.873505
 20
-12.499977
 11
-146.873505
 21
-27.499977
  0
LINE
  8
0
  6
CENTER
 10
-146.873505
 20
-67.499977
 11
-146.873505
 21
-52.499977
  0
LINE
  8
0
  6
CENTER
 10
-154.373505
 20
-59.999977
 11
-139.373505
 21
-59.999977
  0
LINE
  8
0
 10
153.126495
 20
-86.999977
 11
153.126495
 21
7.000023
  0
LINE
  8
0
 10
132.126495
 20
-86.999977
 11
132.126495
 21
7.000023
  0
LINE
  8
0
 10
153.126495
 20
7.000023
 11
132.126495
 21
7.000023
  0
LINE
  8
0
 10
153.126495
 20
-86.999977
 11
132.126495
 21
-86.999977
  0
LINE
  8
0
  6
CENTER
 10
146.626495
 20
-19.999977
 11
131.626495
 21
-19.999977
  0
LINE
  8
0
  6
CENTER
 10
139.126495
 20
-12.499977
 11
139.126495
 21
-27.499977
  0
LINE
  8
0
  6
CENTER
 10
139.126495
 20
-67.499977
 11
139.126495
 21
-52.499977
  0
LINE
  8
0
  6
CENTER
 10
146.626495
 20
-59.999977
 11
131.626495
 21
-59.999977
  0
LINE
  8
0
  6
CENTER
 10
160.126495
 20
-5.999977
 11
-71.873505
 21
-5.999977
  0
LINE
  8
0
 10
157.126495
 20
-12.187977
 11
157.126495
 21
0.188023
  0
LINE
  8
0
 10
156.314484
 20
1.000023
 11
153.126495
 21
1.000023
  0
LINE
  8
0
 10
156.314514
 20
-12.999977
 11
153.126495
 21
-12.999977
  0
LINE
  8
0
 10
157.126495
 20
-12.187977
 11
153.126495
 21
-12.187977
  0
LINE
  8
0
 10
157.126495
 20
0.188023
 11
153.126495
 21
0.188023
  0
LINE
  8
0
 10
157.126480
 20
0.187992
 11
156.314468
 21
0.999996
  0
LINE
  8
0
 10
157.126541
 20
-12.187989
 11
156.314529
 21
-12.999993
  0
LINE
  8
0
 10
156.314484
 20
1.000023
 11
156.314484
 21
-12.999977
  0
LINE
  8
0
 10
141.376495
 20
-81.999977
 11
141.376495
 21
-86.999977
  0
LINE
  8
0
 10
150.876495
 20
-81.999977
 11
150.876495
 21
-86.999977
  0
LINE
  8
0
  6
CENTER
 10
146.126495
 20
-74.999977
 11
146.126495
 21
-88.999977
  0
LINE
  8
0
  6
CENTER
 10
139.126495
 20
-81.999977
 11
153.126495
 21
-81.999977
  0
LINE
  8
0
 10
144.126495
 20
-83.154663
 11
146.126480
 21
-84.309357
  0
LINE
  8
0
 10
146.126526
 20
-84.309395
 11
148.126511
 21
-83.154701
  0
LINE
  8
0
 10
148.126495
 20
-83.154671
 11
148.126495
 21
-80.845284
  0
LINE
  8
0
 10
148.126480
 20
-80.845268
 11
146.126480
 21
-79.690575
  0
LINE
  8
0
 10
146.126526
 20
-79.690659
 11
144.126526
 21
-80.845352
  0
LINE
  8
0
 10
144.126495
 20
-80.845299
 11
144.126495
 21
-83.154686
  0
LINE
  8
0
  6
CENTER
 10
-103.873505
 20
-90.999977
 11
-103.873505
 21
11.000023
  0
LINE
  8
0
 10
-68.873505
 20
-85.999977
 11
-68.873505
 21
6.000023
  0
LINE
  8
0
 10
-138.873505
 20
-85.999977
 11
-138.873505
 21
6.000023
  0
LINE
  8
0
 10
-138.873505
 20
6.000023
 11
-68.873505
 21
6.000023
  0
LINE
  8
0
 10
-138.873505
 20
-85.999977
 11
-68.873505
 21
-85.999977
  0
LINE
  8
0
 10
-70.473503
 20
-85.999977
 11
-70.473503
 21
6.000023
  0
LINE
  8
0
 10
-137.273499
 20
-85.999977
 11
-137.273499
 21
6.000023
  0
LINE
  8
0
  6
CENTER
 10
-128.873505
 20
-18.999977
 11
-118.873505
 21
-18.999977
  0
LINE
  8
0
  6
CENTER
 10
-123.873505
 20
-13.999977
 11
-123.873505
 21
-23.999977
  0
LINE
  8
0
  6
CENTER
 10
-123.873505
 20
-65.999977
 11
-123.873505
 21
-55.999977
  0
LINE
  8
0
  6
CENTER
 10
-128.873505
 20
-60.999977
 11
-118.873505
 21
-60.999977
  0
LINE
  8
0
  6
CENTER
 10
-83.873505
 20
-13.999977
 11
-83.873505
 21
-23.999977
  0
LINE
  8
0
  6
CENTER
 10
-78.873505
 20
-18.999977
 11
-88.873505
 21
-18.999977
  0
LINE
  8
0
  6
CENTER
 10
-83.873505
 20
-65.999977
 11
-83.873505
 21
-55.999977
  0
LINE
  8
0
  6
CENTER
 10
-78.873505
 20
-60.999977
 11
-88.873505
 21
-60.999977
  0
LINE
  8
0
 10
-106.873505
 20
-19.999977
 11
-106.873505
 21
-17.999977
  0
LINE
  8
0
 10
-100.873505
 20
-19.999977
 11
-100.873505
 21
-17.999977
  0
LINE
  8
0
  6
CENTER
 10
-108.873505
 20
-60.999977
 11
-98.873505
 21
-60.999977
  0
LINE
  8
0
  6
CENTER
 10
-108.873505
 20
-18.999977
 11
-98.873505
 21
-18.999977
  0
LINE
  8
0
 10
-137.273499
 20
-29.999977
 11
-70.473503
 21
-29.999977
  0
LINE
  8
0
 10
-137.273499
 20
-49.999977
 11
-70.473503
 21
-49.999977
  0
LINE
  8
0
 10
-139.873505
 20
-53.199978
 11
-138.873505
 21
-53.199978
  0
LINE
  8
0
 10
-139.873505
 20
-26.799976
 11
-138.873505
 21
-26.799976
  0
LINE
  8
0
 10
-68.873505
 20
-26.799976
 11
132.126495
 21
-26.799976
  0
LINE
  8
0
 10
-68.873505
 20
-53.199978
 11
132.126495
 21
-53.199978
  0
LINE
  8
0
  6
CENTER
 10
-71.873505
 20
-73.999977
 11
156.126495
 21
-73.999977
  0
LINE
  8
0
 10
-139.873505
 20
-81.999977
 11
-138.873505
 21
-81.999977
  0
LINE
  8
0
 10
-139.873505
 20
-65.999977
 11
-138.873505
 21
-65.999977
  0
LINE
  8
0
 10
132.126495
 20
2.000023
 11
-68.873505
 21
2.000023
  0
LINE
  8
0
 10
132.126495
 20
-13.999977
 11
-68.873505
 21
-13.999977
  0
LINE
  8
0
 10
-138.873505
 20
2.000023
 11
-139.873505
 21
2.000023
  0
LINE
  8
0
 10
-138.873505
 20
-13.999977
 11
-139.873505
 21
-13.999977
  0
LINE
  8
0
 10
-68.873505
 20
-65.999977
 11
132.126495
 21
-65.999977
  0
LINE
  8
0
 10
-68.873505
 20
-81.999977
 11
132.126495
 21
-81.999977
  0
LINE
  8
0
  6
CENTER
 10
-167.873505
 20
-5.999977
 11
-136.873505
 21
-5.999977
  0
LINE
  8
0
 10
-164.873505
 20
-12.187977
 11
-164.873505
 21
0.188023
  0
LINE
  8
0
 10
-164.061508
 20
1.000023
 11
-160.873505
 21
1.000023
  0
LINE
  8
0
 10
-164.061523
 20
-12.999977
 11
-160.873505
 21
-12.999977
  0
LINE
  8
0
 10
-164.873505
 20
-12.187977
 11
-160.873505
 21
-12.187977
  0
LINE
  8
0
 10
-164.873505
 20
0.188023
 11
-160.873505
 21
0.188023
  0
LINE
  8
0
 10
-164.873489
 20
0.188019
 11
-164.061508
 21
1.000013
  0
LINE
  8
0
 10
-164.873505
 20
-12.187972
 11
-164.061508
 21
-12.999971
  0
LINE
  8
0
 10
-164.061508
 20
1.000023
 11
-164.061508
 21
-12.999977
  0
LINE
  8
0
 10
-64.073502
 20
4.500023
 11
-64.073502
 21
2.000023
  0
LINE
  8
0
 10
-64.073502
 20
-16.499977
 11
-68.873505
 21
-16.499977
  0
LINE
  8
0
 10
-64.073502
 20
4.500023
 11
-68.873505
 21
4.500023
  0
LINE
  8
0
 10
-64.073502
 20
-13.999977
 11
-64.073502
 21
-16.499977
  0
LINE
  8
0
  6
CENTER
 10
-167.873611
 20
124.000046
 11
-48.673615
 21
124.000046
  0
LINE
  8
0
 10
-164.873611
 20
130.188049
 11
-164.873611
 21
117.812042
  0
LINE
  8
0
 10
-164.061615
 20
117.000046
 11
-160.873611
 21
117.000046
  0
LINE
  8
0
 10
-164.061630
 20
131.000046
 11
-160.873611
 21
131.000046
  0
LINE
  8
0
 10
-164.873611
 20
130.188049
 11
-160.873611
 21
130.188049
  0
LINE
  8
0
 10
-164.873611
 20
117.812042
 11
-160.873611
 21
117.812042
  0
LINE
  8
0
 10
-164.873596
 20
117.812050
 11
-164.061615
 21
117.000061
  0
LINE
  8
0
 10
-164.873581
 20
130.188019
 11
-164.061584
 21
131.000015
  0
LINE
  8
0
 10
-164.061615
 20
117.000046
 11
-164.061615
 21
131.000046
  0
LINE
  8
0
 10
-160.873611
 20
140.000046
 11
-139.873611
 21
140.000046
  0
LINE
  8
0
 10
-160.873611
 20
92.000046
 11
-160.873611
 21
140.000046
  0
LINE
  8
0
 10
-139.873611
 20
92.000046
 11
-139.873611
 21
140.000046
  0
LINE
  8
0
 10
-160.873611
 20
92.000046
 11
-139.873611
 21
92.000046
  0
LINE
  8
0
  6
CENTER
 10
160.126389
 20
124.000046
 11
129.126389
 21
124.000046
  0
LINE
  8
0
 10
156.314377
 20
117.000046
 11
153.126389
 21
117.000046
  0
LINE
  8
0
 10
156.314407
 20
131.000046
 11
153.126389
 21
131.000046
  0
LINE
  8
0
 10
157.126389
 20
130.188049
 11
153.126389
 21
130.188049
  0
LINE
  8
0
 10
157.126389
 20
117.812042
 11
153.126389
 21
117.812042
  0
LINE
  8
0
 10
157.126358
 20
117.812065
 11
156.314377
 21
117.000069
  0
LINE
  8
0
 10
157.126358
 20
130.188034
 11
156.314362
 21
131.000031
  0
LINE
  8
0
 10
156.314377
 20
117.000046
 11
156.314377
 21
131.000046
  0
LINE
  8
0
 10
153.126389
 20
140.000046
 11
132.126389
 21
140.000046
  0
LINE
  8
0
 10
153.126389
 20
92.000046
 11
153.126389
 21
140.000046
  0
LINE
  8
0
 10
132.126389
 20
92.000046
 11
132.126389
 21
140.000046
  0
LINE
  8
0
 10
153.126389
 20
92.000046
 11
132.126389
 21
92.000046
  0
LINE
  8
0
 10
157.126389
 20
130.188049
 11
157.126389
 21
117.812042
  0
LINE
  8
0
 10
-138.873611
 20
91.000046
 11
-138.873611
 21
138.000046
  0
LINE
  8
0
 10
-68.873611
 20
91.000046
 11
-68.873611
 21
138.000046
  0
LINE
  8
0
 10
-70.473610
 20
90.000046
 11
-70.473610
 21
138.000046
  0
LINE
  8
0
 10
-137.273621
 20
90.000046
 11
-137.273621
 21
138.000046
  0
LINE
  8
0
 10
-137.273621
 20
90.000046
 11
-70.473610
 21
90.000046
  0
LINE
  8
0
 10
-138.873611
 20
91.000046
 11
-137.273621
 21
91.000046
  0
LINE
  8
0
 10
-70.473610
 20
91.000046
 11
-68.873611
 21
91.000046
  0
LINE
  8
0
  6
CENTER
 10
-165.873611
 20
104.000046
 11
158.126389
 21
104.000046
  0
LINE
  8
0
 10
-139.873611
 20
112.000046
 11
-138.873611
 21
112.000046
  0
LINE
  8
0
 10
-139.873611
 20
96.000046
 11
-138.873611
 21
96.000046
  0
LINE
  8
0
 10
-68.873611
 20
96.000046
 11
132.126389
 21
96.000046
  0
LINE
  8
0
 10
-64.939636
 20
112.000046
 11
132.126389
 21
112.000046
  0
LINE
  8
0
 10
-139.873611
 20
138.000046
 11
132.126389
 21
138.000046
  0
LINE
  8
0
 10
-139.873611
 20
115.000046
 11
-137.273621
 21
115.000046
  0
LINE
  8
0
  6
CENTER
 10
-159.873611
 20
135.500046
 11
-147.873611
 21
135.500046
  0
LINE
  8
0
  6
CENTER
 10
-153.873611
 20
141.500046
 11
-153.873611
 21
129.500046
  0
LINE
  8
0
 10
-155.873627
 20
134.345337
 11
-153.873627
 21
133.190643
  0
LINE
  8
0
 10
-153.873627
 20
133.190659
 11
-151.873611
 21
134.345367
  0
LINE
  8
0
 10
-151.873611
 20
134.345337
 11
-151.873611
 21
136.654739
  0
LINE
  8
0
 10
-151.873596
 20
136.654755
 11
-153.873596
 21
137.809464
  0
LINE
  8
0
 10
-153.873642
 20
137.809509
 11
-155.873642
 21
136.654816
  0
LINE
  8
0
 10
-155.873627
 20
136.654755
 11
-155.873627
 21
134.345352
  0
LINE
  8
0
 10
-160.873611
 20
139.000046
 11
-156.284531
 21
139.000046
  0
LINE
  8
0
 10
-151.462692
 20
139.000046
 11
-139.873611
 21
139.000046
  0
LINE
  8
0
 10
-160.873611
 20
125.000046
 11
-139.873611
 21
125.000046
  0
LINE
  8
0
 10
-160.873611
 20
130.500046
 11
-139.873611
 21
130.500046
  0
LINE
  8
0
 10
153.126389
 20
130.500046
 11
132.126389
 21
130.500046
  0
LINE
  8
0
  6
CENTER
 10
152.126389
 20
135.500046
 11
140.126389
 21
135.500046
  0
LINE
  8
0
  6
CENTER
 10
146.126389
 20
141.500046
 11
146.126389
 21
129.500046
  0
LINE
  8
0
 10
148.126389
 20
134.345322
 11
146.126389
 21
133.190643
  0
LINE
  8
0
 10
146.126373
 20
133.190613
 11
144.126373
 21
134.345337
  0
LINE
  8
0
 10
144.126389
 20
134.345337
 11
144.126389
 21
136.654739
  0
LINE
  8
0
 10
144.126373
 20
136.654739
 11
146.126389
 21
137.809448
  0
LINE
  8
0
 10
146.126373
 20
137.809464
 11
148.126358
 21
136.654755
  0
LINE
  8
0
 10
148.126389
 20
136.654755
 11
148.126389
 21
134.345352
  0
LINE
  8
0
 10
153.126389
 20
139.000046
 11
148.537308
 21
139.000046
  0
LINE
  8
0
 10
143.715469
 20
139.000046
 11
132.126389
 21
139.000046
  0
LINE
  8
0
 10
153.126389
 20
125.000046
 11
132.126389
 21
125.000046
  0
LINE
  8
0
 10
-139.873611
 20
129.000046
 11
-68.873611
 21
129.000046
  0
LINE
  8
0
 10
-138.873611
 20
93.000046
 11
-68.873611
 21
93.000046
  0
LINE
  8
0
 10
-139.873611
 20
127.200043
 11
-138.873611
 21
127.200043
  0
LINE
  8
0
 10
-63.673615
 20
127.200043
 11
132.126389
 21
127.200043
  0
LINE
  8
0
 10
-63.673615
 20
117.812042
 11
-63.673615
 21
130.188049
  0
LINE
  8
0
 10
-51.673615
 20
121.500046
 11
-51.673615
 21
126.500046
  0
LINE
  8
0
 10
-63.673615
 20
121.500046
 11
-51.673615
 21
121.500046
  0
LINE
  8
0
 10
-63.673615
 20
126.500046
 11
-51.673615
 21
126.500046
  0
LINE
  8
0
 10
-64.073608
 20
113.500031
 11
-64.073608
 21
134.500046
  0
LINE
  8
0
 10
-63.673618
 20
130.188049
 11
-64.073608
 21
130.588043
  0
LINE
  8
0
 10
-63.673607
 20
117.812035
 11
-64.073601
 21
117.412041
  0
LINE
  8
0
 10
-63.673615
 20
129.000046
 11
132.126389
 21
129.000046
  0
LINE
  8
0
 10
-67.935783
 20
136.124405
 11
-65.011436
 21
136.124405
  0
LINE
  8
0
 10
-67.935783
 20
130.062225
 11
-65.011436
 21
130.062225
  0
LINE
  8
0
 10
-67.935783
 20
117.937866
 11
-65.011436
 21
117.937866
  0
LINE
  8
0
 10
-64.073616
 20
134.500061
 11
-65.011436
 21
136.124405
  0
LINE
  8
0
 10
-64.073616
 20
113.500031
 11
-65.011436
 21
111.875694
  0
LINE
  8
0
 10
-68.873596
 20
113.500015
 11
-67.935776
 21
111.875679
  0
LINE
  8
0
 10
-68.873619
 20
134.500076
 11
-67.935799
 21
136.124420
  0
LINE
  8
0
 10
-67.935783
 20
111.875694
 11
-65.011429
 21
111.875694
  0
LINE
  8
0
  6
CENTER
 10
293.126343
 20
-40.000034
 11
233.126328
 21
-40.000034
  0
LINE
  8
0
 10
288.126343
 20
-87.000031
 11
288.126343
 21
-6.500034
  0
LINE
  8
0
 10
238.126328
 20
-83.000031
 11
238.126328
 21
-50.000034
  0
LINE
  8
0
 10
273.126343
 20
6.999966
 11
240.126328
 21
6.999966
  0
LINE
  8
0
 10
288.126343
 20
-87.000031
 11
252.626328
 21
-87.000031
  0
LINE
  8
0
 10
240.126328
 20
-87.000031
 11
240.126328
 21
6.999966
  0
LINE
  8
0
 10
238.126358
 20
-83.000053
 11
240.126328
 21
-85.000046
  0
LINE
  8
0
 10
238.126373
 20
2.999987
 11
240.126328
 21
4.999979
  0
LINE
  8
0
 10
238.626328
 20
-49.500038
 11
238.626328
 21
-30.500031
  0
LINE
  8
0
 10
238.126328
 20
-30.000034
 11
238.126328
 21
2.999966
  0
LINE
  8
0
 10
238.126312
 20
-30.000055
 11
238.626312
 21
-30.500057
  0
LINE
  8
0
 10
238.126312
 20
-50.000019
 11
238.626312
 21
-49.500015
  0
LINE
  8
0
 10
287.126343
 20
-5.500034
 11
279.108459
 21
-5.500034
  0
LINE
  8
0
 10
288.126343
 20
-6.500034
 11
279.108459
 21
-6.500034
  0
LINE
  8
0
  6
CENTER
 10
272.126343
 20
3.999966
 11
272.126343
 21
-16.000034
  0
LINE
  8
0
 10
275.126373
 20
-7.732084
 11
272.126373
 21
-9.464122
  0
LINE
  8
0
 10
275.126282
 20
-4.267963
 11
275.126282
 21
-7.732075
  0
LINE
  8
0
 10
269.126343
 20
-4.268020
 11
272.126343
 21
-2.535960
  0
LINE
  8
0
 10
272.126373
 20
-2.535887
 11
275.126373
 21
-4.267947
  0
LINE
  8
0
  6
CENTER
 10
282.126343
 20
-6.000034
 11
242.126328
 21
-6.000034
  0
LINE
  8
0
 10
269.126343
 20
-7.732090
 11
269.126343
 21
-4.267994
  0
LINE
  8
0
 10
272.126404
 20
-9.464087
 11
269.126404
 21
-7.732039
  0
LINE
  8
0
  6
CENTER
 10
252.126328
 20
3.999966
 11
252.126328
 21
-16.000034
  0
LINE
  8
0
 10
255.126358
 20
-7.732071
 11
252.126358
 21
-9.464127
  0
LINE
  8
0
 10
255.126297
 20
-4.267963
 11
255.126297
 21
-7.732075
  0
LINE
  8
0
 10
249.126358
 20
-4.268024
 11
252.126358
 21
-2.535965
  0
LINE
  8
0
 10
252.126358
 20
-2.535861
 11
255.126358
 21
-4.267913
  0
LINE
  8
0
 10
249.126328
 20
-7.732090
 11
249.126328
 21
-4.267994
  0
LINE
  8
0
 10
252.126373
 20
-9.464103
 11
249.126373
 21
-7.732055
  0
LINE
  8
0
 10
287.876343
 20
1.499966
 11
278.626343
 21
1.499966
  0
LINE
  8
0
 10
287.126343
 20
-5.500034
 11
287.126343
 21
1.499966
  0
LINE
  8
0
 10
273.126312
 20
6.999963
 11
278.626312
 21
1.499954
  0
LINE
  8
0
  6
CENTER
 10
283.626343
 20
-9.500034
 11
283.626343
 21
11.414642
  0
LINE
  8
0
 10
286.126343
 20
-6.500034
 11
286.126343
 21
-5.500034
  0
LINE
  8
0
 10
281.126343
 20
-6.500034
 11
281.126343
 21
-5.500034
  0
LINE
  8
0
 10
285.693298
 20
-6.500034
 11
285.693298
 21
-5.500034
  0
LINE
  8
0
 10
281.559326
 20
-6.500034
 11
281.559326
 21
-5.500034
  0
LINE
  8
0
 10
252.626328
 20
-78.472168
 11
252.626328
 21
-87.000031
  0
LINE
  8
0
 10
251.626328
 20
-78.472168
 11
251.626328
 21
-87.000031
  0
LINE
  8
0
 10
251.626328
 20
-87.000031
 11
240.126328
 21
-87.000031
  0
LINE
  8
0
  6
CENTER
 10
245.626328
 20
-74.000031
 11
258.626343
 21
-74.000031
  0
LINE
  8
0
  6
CENTER
 10
252.126328
 20
-67.500031
 11
252.126328
 21
-80.500031
  0
LINE
  8
0
 10
249.519226
 20
-77.667839
 11
255.794189
 21
-71.392883
  0
LINE
  8
0
 10
248.458542
 20
-76.607201
 11
254.733505
 21
-70.332245
  0
LINE
  8
0
 10
279.376343
 20
1.499966
 11
279.376343
 21
6.499966
  0
LINE
  8
0
 10
287.876343
 20
6.499966
 11
279.376343
 21
6.499966
  0
LINE
  8
0
 10
287.876343
 20
1.499966
 11
287.876343
 21
6.499966
  0
LINE
  8
0
  6
CENTER
 10
-167.873672
 20
-194.000092
 11
-136.873672
 21
-194.000092
  0
LINE
  8
0
 10
-164.873672
 20
-200.188095
 11
-164.873672
 21
-187.812088
  0
LINE
  8
0
 10
-164.061676
 20
-187.000092
 11
-160.873672
 21
-187.000092
  0
LINE
  8
0
 10
-164.061691
 20
-201.000092
 11
-160.873672
 21
-201.000092
  0
LINE
  8
0
 10
-164.873672
 20
-200.188095
 11
-160.873672
 21
-200.188095
  0
LINE
  8
0
 10
-164.873672
 20
-187.812088
 11
-160.873672
 21
-187.812088
  0
LINE
  8
0
 10
-164.873672
 20
-187.812088
 11
-164.061676
 21
-187.000092
  0
LINE
  8
0
 10
-164.873657
 20
-200.188080
 11
-164.061661
 21
-201.000076
  0
LINE
  8
0
 10
-164.061676
 20
-187.000092
 11
-164.061676
 21
-201.000092
  0
LINE
  8
0
  6
CENTER
 10
138.126328
 20
-201.500092
 11
153.126328
 21
-201.500092
  0
LINE
  8
0
  6
CENTER
 10
145.626328
 20
-194.000092
 11
145.626328
 21
-209.000092
  0
LINE
  8
0
 10
143.376328
 20
-202.799133
 11
145.626328
 21
-204.098175
  0
LINE
  8
0
 10
145.626358
 20
-204.098175
 11
147.876358
 21
-202.799133
  0
LINE
  8
0
 10
147.876358
 20
-202.799133
 11
147.876358
 21
-200.201050
  0
LINE
  8
0
 10
147.876358
 20
-200.201035
 11
145.626358
 21
-198.901993
  0
LINE
  8
0
 10
145.626389
 20
-198.901978
 11
143.376389
 21
-200.201019
  0
LINE
  8
0
 10
143.376328
 20
-200.201019
 11
143.376328
 21
-202.799103
  0
LINE
  8
0
 10
141.876328
 20
-167.500092
 11
141.876328
 21
-162.500092
  0
LINE
  8
0
 10
150.376328
 20
-167.500092
 11
150.376328
 21
-162.500092
  0
LINE
  8
0
 10
150.376328
 20
-162.500092
 11
141.876328
 21
-162.500092
  0
LINE
  8
0
 10
-160.873672
 20
-210.000092
 11
-139.873672
 21
-210.000092
  0
LINE
  8
0
 10
-160.873672
 20
-162.000092
 11
-160.873672
 21
-210.000092
  0
LINE
  8
0
 10
-139.873672
 20
-162.000092
 11
-139.873672
 21
-210.000092
  0
LINE
  8
0
 10
-160.873672
 20
-162.000092
 11
-139.873672
 21
-162.000092
  0
LINE
  8
0
  6
CENTER
 10
-160.373672
 20
-185.000092
 11
-146.373672
 21
-185.000092
  0
LINE
  8
0
  6
CENTER
 10
-153.373672
 20
-178.000092
 11
-153.373672
 21
-192.000092
  0
LINE
  8
0
  6
CENTER
 10
-160.373672
 20
-201.500092
 11
-146.373672
 21
-201.500092
  0
LINE
  8
0
  6
CENTER
 10
-153.373672
 20
-194.500092
 11
-153.373672
 21
-208.500092
  0
LINE
  8
0
  6
CENTER
 10
160.126328
 20
-194.000092
 11
129.126328
 21
-194.000092
  0
LINE
  8
0
 10
156.314316
 20
-187.000092
 11
153.126328
 21
-187.000092
  0
LINE
  8
0
 10
156.314346
 20
-201.000092
 11
153.126328
 21
-201.000092
  0
LINE
  8
0
 10
157.126328
 20
-200.188095
 11
153.126328
 21
-200.188095
  0
LINE
  8
0
 10
157.126328
 20
-187.812088
 11
153.126328
 21
-187.812088
  0
LINE
  8
0
 10
157.126328
 20
-187.812088
 11
156.314331
 21
-187.000092
  0
LINE
  8
0
 10
157.126297
 20
-200.188065
 11
156.314301
 21
-201.000046
  0
LINE
  8
0
 10
156.314316
 20
-187.000092
 11
156.314316
 21
-201.000092
  0
LINE
  8
0
 10
153.126328
 20
-210.000092
 11
132.126328
 21
-210.000092
  0
LINE
  8
0
 10
153.126328
 20
-162.000092
 11
153.126328
 21
-210.000092
  0
LINE
  8
0
 10
132.126328
 20
-162.000092
 11
132.126328
 21
-210.000092
  0
LINE
  8
0
 10
153.126328
 20
-162.000092
 11
132.126328
 21
-162.000092
  0
LINE
  8
0
 10
157.126328
 20
-200.188095
 11
157.126328
 21
-187.812088
  0
LINE
  8
0
 10
-138.873672
 20
-161.000092
 11
-138.873672
 21
-185.000092
  0
LINE
  8
0
 10
-68.873672
 20
-161.000092
 11
-68.873672
 21
-185.000092
  0
LINE
  8
0
 10
-70.473671
 20
-160.000092
 11
-70.473671
 21
-185.000092
  0
LINE
  8
0
 10
-137.273682
 20
-160.000092
 11
-137.273682
 21
-185.000092
  0
LINE
  8
0
 10
-137.273682
 20
-160.000092
 11
-70.473671
 21
-160.000092
  0
LINE
  8
0
 10
-138.873672
 20
-163.000092
 11
-68.873672
 21
-163.000092
  0
LINE
  8
0
 10
-138.873672
 20
-161.000092
 11
-137.273682
 21
-161.000092
  0
LINE
  8
0
 10
-70.473671
 20
-161.000092
 11
-68.873672
 21
-161.000092
  0
LINE
  8
0
 10
-138.873672
 20
-181.071899
 11
-68.873672
 21
-181.071899
  0
LINE
  8
0
 10
153.126328
 20
-173.500092
 11
132.126328
 21
-173.500092
  0
LINE
  8
0
 10
153.126328
 20
-174.500092
 11
132.126328
 21
-174.500092
  0
LINE
  8
0
 10
141.376328
 20
-162.000092
 11
141.376328
 21
-167.500092
  0
LINE
  8
0
 10
150.876328
 20
-162.000092
 11
150.876328
 21
-167.500092
  0
LINE
  8
0
 10
150.876328
 20
-167.500092
 11
141.376328
 21
-167.500092
  0
LINE
  8
0
  6
CENTER
 10
146.126328
 20
-159.000092
 11
146.126328
 21
-177.500092
  0
LINE
  8
0
 10
148.626328
 20
-173.500092
 11
148.626328
 21
-174.500092
  0
LINE
  8
0
 10
143.626328
 20
-173.500092
 11
143.626328
 21
-174.500092
  0
LINE
  8
0
 10
144.059311
 20
-173.500092
 11
144.059311
 21
-174.500092
  0
LINE
  8
0
 10
148.193344
 20
-173.500092
 11
148.193344
 21
-174.500092
  0
LINE
  8
0
  6
CENTER
 10
-165.873672
 20
-174.000092
 11
158.126328
 21
-174.000092
  0
LINE
  8
0
 10
-139.873672
 20
-182.000092
 11
-138.873672
 21
-182.000092
  0
LINE
  8
0
 10
-139.873672
 20
-166.000092
 11
-138.873672
 21
-166.000092
  0
LINE
  8
0
 10
-68.873672
 20
-166.000092
 11
132.126328
 21
-166.000092
  0
LINE
  8
0
 10
-68.873672
 20
-182.000092
 11
132.126328
 21
-182.000092
  0
LINE
  8
0
 10
-139.873672
 20
-208.000092
 11
132.126328
 21
-208.000092
  0
LINE
  8
0
 10
-139.873672
 20
-185.000092
 11
132.126328
 21
-185.000092
  0
LINE
  8
0
 10
-139.873672
 20
-189.500092
 11
132.126328
 21
-189.500092
  0
LINE
  8
0
 10
-139.873672
 20
-200.500092
 11
132.126328
 21
-200.500092
  0
LINE
  8
0
  6
CENTER
 10
-295.873505
 20
-39.999981
 11
-235.873505
 21
-39.999981
  0
LINE
  8
0
 10
-290.873505
 20
-86.999985
 11
-290.873505
 21
-6.499981
  0
LINE
  8
0
 10
-240.873505
 20
-82.999985
 11
-240.873505
 21
-49.999981
  0
LINE
  8
0
 10
-275.873505
 20
7.000019
 11
-242.873505
 21
7.000019
  0
LINE
  8
0
 10
-290.873505
 20
-86.999985
 11
-242.873505
 21
-86.999985
  0
LINE
  8
0
 10
-242.873505
 20
-86.999985
 11
-242.873505
 21
7.000019
  0
LINE
  8
0
 10
-240.873581
 20
-82.999977
 11
-242.873566
 21
-84.999969
  0
LINE
  8
0
 10
-240.873581
 20
3.000003
 11
-242.873581
 21
4.999995
  0
LINE
  8
0
 10
-241.373505
 20
-49.499985
 11
-241.373505
 21
-30.499977
  0
LINE
  8
0
 10
-240.873505
 20
-29.999981
 11
-240.873505
 21
3.000019
  0
LINE
  8
0
 10
-240.873489
 20
-29.999981
 11
-241.373489
 21
-30.499983
  0
LINE
  8
0
 10
-240.873489
 20
-49.999985
 11
-241.373489
 21
-49.499981
  0
LINE
  8
0
  6
CENTER
 10
-264.873505
 20
-73.999985
 11
-244.873505
 21
-73.999985
  0
LINE
  8
0
  6
CENTER
 10
-254.873505
 20
-63.999981
 11
-254.873505
 21
-83.999985
  0
LINE
  8
0
 10
-257.873505
 20
-75.732002
 11
-254.873505
 21
-77.464050
  0
LINE
  8
0
 10
-254.873535
 20
-77.464073
 11
-251.873520
 21
-75.732018
  0
LINE
  8
0
 10
-251.873505
 20
-75.732040
 11
-251.873505
 21
-72.267944
  0
LINE
  8
0
 10
-251.873520
 20
-72.267944
 11
-254.873535
 21
-70.535889
  0
LINE
  8
0
 10
-254.873535
 20
-70.535851
 11
-257.873535
 21
-72.267906
  0
LINE
  8
0
 10
-257.873474
 20
-72.267914
 11
-257.873474
 21
-75.732025
  0
LINE
  8
0
 10
-289.873505
 20
-5.499981
 11
-281.855621
 21
-5.499981
  0
LINE
  8
0
 10
-290.873505
 20
-6.499981
 11
-281.855621
 21
-6.499981
  0
LINE
  8
0
  6
CENTER
 10
-274.873505
 20
4.000019
 11
-274.873505
 21
-15.999981
  0
LINE
  8
0
 10
-277.873505
 20
-7.732018
 11
-274.873505
 21
-9.464066
  0
LINE
  8
0
 10
-277.873474
 20
-4.267910
 11
-277.873474
 21
-7.732021
  0
LINE
  8
0
 10
-271.873505
 20
-4.267941
 11
-274.873505
 21
-2.535886
  0
LINE
  8
0
 10
-274.873535
 20
-2.535848
 11
-277.873535
 21
-4.267903
  0
LINE
  8
0
  6
CENTER
 10
-284.873505
 20
-5.999981
 11
-244.873505
 21
-5.999981
  0
LINE
  8
0
 10
-271.873505
 20
-7.732037
 11
-271.873505
 21
-4.267941
  0
LINE
  8
0
 10
-274.873535
 20
-9.464065
 11
-271.873535
 21
-7.732017
  0
LINE
  8
0
  6
CENTER
 10
-254.873505
 20
4.000019
 11
-254.873505
 21
-15.999981
  0
LINE
  8
0
 10
-257.873505
 20
-7.732020
 11
-254.873505
 21
-9.464068
  0
LINE
  8
0
 10
-257.873474
 20
-4.267910
 11
-257.873474
 21
-7.732021
  0
LINE
  8
0
 10
-251.873489
 20
-4.267944
 11
-254.873505
 21
-2.535888
  0
LINE
  8
0
 10
-254.873505
 20
-2.535820
 11
-257.873505
 21
-4.267876
  0
LINE
  8
0
 10
-251.873505
 20
-7.732037
 11
-251.873505
 21
-4.267941
  0
LINE
  8
0
 10
-254.873535
 20
-9.464065
 11
-251.873535
 21
-7.732017
  0
LINE
  8
0
 10
-290.623505
 20
1.500019
 11
-281.373505
 21
1.500019
  0
LINE
  8
0
 10
-289.873505
 20
-5.499981
 11
-289.873505
 21
1.500019
  0
LINE
  8
0
 10
-275.873505
 20
7.000029
 11
-281.373505
 21
1.500023
  0
LINE
  8
0
  6
CENTER
 10
-286.373505
 20
-9.499981
 11
-286.373505
 21
11.414696
  0
LINE
  8
0
 10
-282.123505
 20
1.500019
 11
-282.123505
 21
6.500019
  0
LINE
  8
0
 10
-290.623505
 20
1.500019
 11
-290.623505
 21
6.500019
  0
LINE
  8
0
 10
-290.623505
 20
6.500019
 11
-282.123505
 21
6.500019
  0
LINE
  8
0
 10
-288.873505
 20
-6.499981
 11
-288.873505
 21
-5.499981
  0
LINE
  8
0
 10
-283.873505
 20
-6.499981
 11
-283.873505
 21
-5.499981
  0
LINE
  8
0
 10
-288.440491
 20
-6.499981
 11
-288.440491
 21
-5.499981
  0
LINE
  8
0
 10
-284.306519
 20
-6.499981
 11
-284.306519
 21
-5.499981
  0
LINE
  8
0
  6
CENTER
 10
-289.873505
 20
-64.999985
 11
-274.873505
 21
-64.999985
  0
LINE
  8
0
  6
CENTER
 10
-282.373505
 20
-57.499981
 11
-282.373505
 21
-72.499985
  0
LINE
  8
0
 10
-284.623535
 20
-66.299011
 11
-282.373535
 21
-67.598061
  0
LINE
  8
0
 10
-282.373535
 20
-67.598053
 11
-280.123535
 21
-66.299011
  0
LINE
  8
0
 10
-280.123474
 20
-66.299026
 11
-280.123474
 21
-63.700939
  0
LINE
  8
0
 10
-280.123474
 20
-63.700932
 11
-282.373505
 21
-62.401890
  0
LINE
  8
0
 10
-282.373505
 20
-62.401848
 11
-284.623535
 21
-63.700890
  0
LINE
  8
0
 10
-284.623505
 20
-63.700909
 11
-284.623505
 21
-66.298996
  0
LINE
  8
0
  6
CENTER
 10
-273.373505
 20
-64.999985
 11
-258.373505
 21
-64.999985
  0
LINE
  8
0
  6
CENTER
 10
-265.873505
 20
-57.499981
 11
-265.873505
 21
-72.499985
  0
LINE
  8
0
 10
-268.123535
 20
-66.299019
 11
-265.873535
 21
-67.598061
  0
LINE
  8
0
 10
-265.873505
 20
-67.598053
 11
-263.623505
 21
-66.299011
  0
LINE
  8
0
 10
-263.623474
 20
-66.299026
 11
-263.623474
 21
-63.700939
  0
LINE
  8
0
 10
-263.623444
 20
-63.700932
 11
-265.873474
 21
-62.401890
  0
LINE
  8
0
 10
-265.873505
 20
-62.401836
 11
-268.123505
 21
-63.700878
  0
LINE
  8
0
 10
-268.123505
 20
-63.700909
 11
-268.123505
 21
-66.298996
  0
ARC
  8
0
 62
     5
 10
273.035400
 20
-235.045654
 40
2.211884
 50
0.000000
 51
90.000000
  0
ARC
  8
0
 62
     5
 10
291.283569
 20
-246.934647
 40
2.211899
 50
270.000000
 51
0.000000
  0
ARC
  8
0
 62
     5
 10
290.177551
 20
-236.151566
 40
3.317841
 50
0.000000
 51
90.000000
  0
ARC
  8
0
 62
     5
 10
310.361115
 20
-236.812775
 40
2.211890
 50
294.999969
 51
0.000000
  0
ARC
  8
0
 62
     5
 10
310.361115
 20
-235.045654
 40
2.211884
 50
0.000000
 51
90.000000
  0
ARC
  8
0
 62
     5
 10
327.503357
 20
-232.833755
 40
3.317840
 50
291.688385
 51
0.000000
  0
ARC
  8
0
 62
     5
 10
326.397308
 20
-232.083389
 40
1.105946
 50
291.688965
 51
0.000000
  0
ARC
  8
0
 10
-103.873505
 20
-19.999977
 40
3.000000
 50
179.999969
 51
0.000000
  0
ARC
  8
0
 10
-103.873505
 20
-17.999977
 40
3.000000
 50
0.000000
 51
179.999969
  0
CIRCLE
  8
0
 10
-146.873505
 20
-19.999977
 40
3.300000
  0
CIRCLE
  8
0
 10
-146.873505
 20
-19.999977
 40
5.500000
  0
CIRCLE
  8
0
 10
-146.873505
 20
-59.999977
 40
5.500000
  0
CIRCLE
  8
0
 10
-146.873505
 20
-59.999977
 40
3.300000
  0
CIRCLE
  8
0
 10
139.126495
 20
-59.999977
 40
3.300000
  0
CIRCLE
  8
0
 10
139.126495
 20
-19.999977
 40
3.300000
  0
CIRCLE
  8
0
 10
139.126495
 20
-19.999977
 40
5.500000
  0
CIRCLE
  8
0
 10
139.126495
 20
-59.999977
 40
5.500000
  0
CIRCLE
  8
0
 10
146.126495
 20
-81.999977
 40
4.250000
  0
ARC
  8
0
 10
146.126495
 20
-81.999977
 40
4.750000
 50
0.000000
 51
180.000000
  0
CIRCLE
  8
0
 10
-123.873505
 20
-18.999977
 40
3.000000
  0
CIRCLE
  8
0
 10
-123.873505
 20
-18.999977
 40
2.458500
  0
CIRCLE
  8
0
 10
-123.873505
 20
-60.999977
 40
3.000000
  0
CIRCLE
  8
0
 10
-123.873505
 20
-60.999977
 40
2.458500
  0
CIRCLE
  8
0
 10
-83.873505
 20
-18.999977
 40
3.000000
  0
CIRCLE
  8
0
 10
-83.873505
 20
-18.999977
 40
2.458500
  0
CIRCLE
  8
0
 10
-83.873505
 20
-60.999977
 40
3.000000
  0
CIRCLE
  8
0
 10
-83.873505
 20
-60.999977
 40
2.458500
  0
CIRCLE
  8
0
 10
-103.873505
 20
-60.999977
 40
3.000000
  0
ARC
  8
0
 10
-48.811462
 20
124.000046
 40
20.062153
 50
162.412018
 51
197.588013
  0
ARC
  8
0
 10
-63.506409
 20
114.906784
 40
5.367194
 50
145.615692
 51
180.000076
  0
ARC
  8
0
 10
-63.506409
 20
133.093307
 40
5.367195
 50
180.000000
 51
214.384415
  0
CIRCLE
  8
0
 10
-153.873611
 20
135.500046
 40
4.250000
  0
CIRCLE
  8
0
 10
146.126389
 20
135.500046
 40
4.250000
  0
ARC
  8
0
 10
-69.440811
 20
133.093307
 40
5.367198
 50
325.615631
 51
0.000000
  0
ARC
  8
0
 10
-84.135757
 20
124.000046
 40
20.062145
 50
342.412018
 51
17.587988
  0
ARC
  8
0
 10
-69.440811
 20
114.906784
 40
5.367195
 50
359.999908
 51
34.384308
  0
CIRCLE
  8
0
 10
252.126328
 20
-74.000031
 40
4.500000
  0
CIRCLE
  8
0
 10
252.126328
 20
-6.000034
 40
6.188000
  0
CIRCLE
  8
0
 10
252.126328
 20
-6.000034
 40
7.000000
  0
CIRCLE
  8
0
 10
272.126343
 20
-6.000034
 40
6.188000
  0
CIRCLE
  8
0
 10
272.126343
 20
-6.000034
 40
7.000000
  0
CIRCLE
  8
0
 10
-153.373672
 20
-201.500092
 40
4.864000
  0
CIRCLE
  8
0
 10
145.626328
 20
-201.500092
 40
4.864000
  0
CIRCLE
  8
0
 10
145.626328
 20
-201.500092
 40
4.283000
  0
CIRCLE
  8
0
 10
-153.373672
 20
-185.000092
 40
4.864000
  0
CIRCLE
  8
0
 10
-153.373672
 20
-185.000092
 40
4.283000
  0
CIRCLE
  8
0
 10
-153.373672
 20
-201.500092
 40
4.283000
  0
CIRCLE
  8
0
 10
-265.873505
 20
-64.999985
 40
4.283000
  0
CIRCLE
  8
0
 10
-254.873505
 20
-73.999985
 40
7.000000
  0
CIRCLE
  8
0
 10
-254.873505
 20
-73.999985
 40
6.188000
  0
CIRCLE
  8
0
 10
-274.873505
 20
-5.999981
 40
6.188000
  0
CIRCLE
  8
0
 10
-274.873505
 20
-5.999981
 40
7.000000
  0
CIRCLE
  8
0
 10
-254.873505
 20
-5.999981
 40
6.188000
  0
CIRCLE
  8
0
 10
-254.873505
 20
-5.999981
 40
7.000000
  0
CIRCLE
  8
0
 10
-282.373505
 20
-64.999985
 40
4.864000
  0
CIRCLE
  8
0
 10
-282.373505
 20
-64.999985
 40
4.283000
  0
CIRCLE
  8
0
 10
-265.873505
 20
-64.999985
 40
4.864000
  0
TEXT
  8
0
 10
226.462494
 20
233.607468
 40
8.500000
  1
DATE : OCT ,1991
 50
0.000000
 41
1.052631
 51
0.000000
  7
STANDARD
  0
TEXT
  8
0
 10
-366.896820
 20
232.257462
 40
10.000000
  1
RODLESS CYLINDER
 50
0.000000
 41
0.937799
 51
0.000000
  7
STANDARD
  0
TEXT
  8
0
 10
-347.052124
 20
187.956390
 40
10.000000
  1
MODEL : MRG* 25xSt-K(200)
 50
0.000000
 41
1.052632
 51
0.000000
  7
STANDARD
  0
TEXT
  8
0
 10
-229.949631
 20
-142.299988
 40
7.000000
  1
5-Rc1/8
 50
0.000000
 41
1.052632
 51
0.000000
  7
STANDARD
  0
TEXT
  8
0
 10
-56.065464
 20
26.700006
 40
7.000000
  1
4-M6x1
 50
0.000000
 41
1.052632
 51
0.000000
  7
STANDARD
  0
TEXT
  8
0
 10
-149.730820
 20
-197.750092
 40
2.500000
  1
B
 50
0.000000
 41
1.052632
 51
0.000000
  7
STANDARD
  0
TEXT
  8
0
 10
139.269180
 20
-197.750092
 40
2.500000
  1
B
 50
0.000000
 41
1.052632
 51
0.000000
  7
STANDARD
  0
TEXT
  8
0
 10
-149.730820
 20
-181.250092
 40
2.500000
  1
A
 50
0.000000
 41
1.052632
 51
0.000000
  7
STANDARD
  0
TEXT
  8
0
 10
-278.623505
 20
-58.642838
 40
2.500000
  1
B
 50
-90.000000
 41
1.052632
 51
0.000000
  7
STANDARD
  0
TEXT
  8
0
 10
-262.123505
 20
-58.642838
 40
2.500000
  1
A
 50
-90.000000
 41
1.052632
 51
0.000000
  7
STANDARD
  0
ENDSEC
  0
EOF
