  0
SECTION
  2
HEADER
  0
ENDSEC
  0
SECTION
  2
TABLES
  0
TABLE
  2
LTYPE
 70
     4
  0
LTYPE
  2
CONTINUOUS
 70
    64
  3
Solid line
 72
    65
 73
     0
 40
0.000000
  0
LTYPE
  2
DASHED
 70
    64
  3
__ __ __ __ __ __ __ __ __ __ __ __ __ __ __
 72
    65
 73
     2
 40
3.500000
 49
2.000000
 49
-1.500000
  0
LTYPE
  2
CENTER
 70
    64
  3
____ _ ____ _ ____ _ ____ _ ____ _ ____ _ ____
 72
    65
 73
     4
 40
17.500000
 49
13.000000
 49
-1.500000
 49
1.500000
 49
-1.500000
  0
LTYPE
  2
PHANTOM
 70
    64
  3
_____ _ _ _____ _ _ _____ _ _ _____ _ _ ____  
 72
    65
 73
     6
 40
15.500000
 49
8.000000
 49
-1.500000
 49
1.500000
 49
-1.500000
 49
1.500000
 49
-1.500000
  0
LTYPE
  2
DASHED1
 70
    64
  3
__ __ __ __ __ __ __ __ __ __ __ __ __ __ __
 72
    65
 73
     2
 40
1.500000
 49
1.000000
 49
-0.500000
  0
LTYPE
  2
DASHED2
 70
    64
  3
__ __ __ __ __ __ __ __ __ __ __ __ __ __ __
 72
    65
 73
     2
 40
3.500000
 49
2.500000
 49
-1.000000
  0
LTYPE
  2
DASHED3
 70
    64
  3
__ __ __ __ __ __ __ __ __ __ __ __ __ __ __
 72
    65
 73
     2
 40
6.000000
 49
4.000000
 49
-2.000000
  0
LTYPE
  2
DASHED4
 70
    64
  3
__ __ __ __ __ __ __ __ __ __ __ __ __ __ __
 72
    65
 73
     2
 40
12.000000
 49
10.000000
 49
-2.000000
  0
LTYPE
  2
DASHED5
 70
    64
  3
__ __ __ __ __ __ __ __ __ __ __ __ __ __ __
 72
    65
 73
     2
 40
17.000000
 49
15.000000
 49
-2.000000
  0
LTYPE
  2
DASHED6
 70
    64
  3
__ __ __ __ __ __ __ __ __ __ __ __ __ __ __
 72
    65
 73
     2
 40
29.000000
 49
27.000000
 49
-2.000000
  0
LTYPE
  2
PHANTOM1
 70
    64
  3
_____ _ _ _____ _ _ _____ _ _ _____ _ _ ____  
 72
    65
 73
     6
 40
31.000000
 49
25.000000
 49
-1.500000
 49
1.000000
 49
-1.000000
 49
1.000000
 49
-1.500000
  0
LTYPE
  2
PHANTOM2
 70
    64
  3
_____ _ _ _____ _ _ _____ _ _ _____ _ _ ____  
 72
    65
 73
     6
 40
36.000000
 49
27.000000
 49
-1.500000
 49
2.500000
 49
-1.000000
 49
2.500000
 49
-1.500000
  0
LTYPE
  2
PHANTOM3
 70
    64
  3
_____ _ _ _____ _ _ _____ _ _ _____ _ _ ____  
 72
    65
 73
     6
 40
78.000000
 49
64.000000
 49
-2.000000
 49
4.000000
 49
-2.000000
 49
4.000000
 49
-2.000000
  0
LTYPE
  2
CENTER1
 70
    64
  3
____ _ ____ _ ____ _ ____ _ ____ _ ____ _ ____
 72
    65
 73
     4
 40
19.000000
 49
14.000000
 49
-1.000000
 49
3.000000
 49
-1.000000
  0
LTYPE
  2
CENTER2
 70
    64
  3
____ _ ____ _ ____ _ ____ _ ____ _ ____ _ ____
 72
    65
 73
     4
 40
28.500000
 49
25.000000
 49
-1.000000
 49
1.500000
 49
-1.000000
  0
LTYPE
  2
CENTER3
 70
    64
  3
____ _ ____ _ ____ _ ____ _ ____ _ ____ _ ____
 72
    65
 73
     4
 40
31.500000
 49
27.000000
 49
-1.000000
 49
2.500000
 49
-1.000000
  0
LTYPE
  2
CENTER4
 70
    64
  3
____ _ ____ _ ____ _ ____ _ ____ _ ____ _ ____
 72
    65
 73
     4
 40
50.000000
 49
45.000000
 49
-1.000000
 49
3.000000
 49
-1.000000
  0
LTYPE
  2
CENTER5
 70
    64
  3
____ _ ____ _ ____ _ ____ _ ____ _ ____ _ ____
 72
    65
 73
     4
 40
100.000000
 49
92.000000
 49
-2.000000
 49
4.000000
 49
-2.000000
  0
LTYPE
  2
SBK1
 70
    64
  3
______ _ _ _ ______ _ _ _ ______ _ _ _ _____  
 72
    65
 73
     8
 40
60.500000
 49
45.000000
 49
-2.000000
 49
2.500000
 49
-2.000000
 49
2.500000
 49
-2.000000
 49
2.500000
 49
-2.000000
  0
LTYPE
  2
SBK2
 70
    64
  3
______ _ _ _ ______ _ _ _ ______ _ _ _ _____  
 72
    65
 73
     8
 40
84.000000
 49
64.000000
 49
-2.000000
 49
4.000000
 49
-2.000000
 49
4.000000
 49
-2.000000
 49
4.000000
 49
-2.000000
  0
LTYPE
  2
STCH
 70
    64
  3
__ __ __ __ __ __ __ __ __ __ __ __ __ __ __
 72
    65
 73
     2
 40
3.000000
 49
1.000000
 49
-2.000000
  0
LTYPE
  2
MTCH
 70
    64
  3
_____ _ _ _____ _ _ _____ _ _ _____ _ _ ____  
 72
    65
 73
     6
 40
80.000000
 49
66.000000
 49
-2.000000
 49
4.000000
 49
-2.000000
 49
4.000000
 49
-2.000000
  0
ENDTAB
  0
TABLE
  2
LAYER
 70
     1
  0
LAYER
  2
0
 70
     0
 62
     7
  6
CONTINUOUS
  0
ENDTAB
  0
TABLE
  2
STYLE
 70
     1
  0
STYLE
  2
STANDARD
 70
     0
 40
0.000000
 41
1.000000
 50
0.000000
 71
     0
 42
0.200000
  3
txt
  4
BIGFONT
  0
ENDTAB
  0
TABLE
  2
VIEW
 70
     0
  0
ENDTAB
  0
ENDSEC
  0
SECTION
  2
BLOCKS
  0
ENDSEC
  0
SECTION
  2
ENTITIES
  0
POINT
  8
0
 10
-174.494400
 20
-291.999969
  0
POINT
  8
0
 10
-174.494400
 20
-39.999989
  0
POINT
  8
0
 10
-394.494324
 20
-39.999996
  0
POINT
  8
0
 10
-174.494400
 20
212.000015
  0
POINT
  8
0
 10
321.005585
 20
-40.000011
  0
POINT
  8
0
 10
178.505600
 20
-39.999989
  0
POINT
  8
0
 10
178.505600
 20
212.000015
  0
POINT
  8
0
 10
392.505585
 20
-40.000011
  0
POINT
  8
0
 10
178.505600
 20
-291.999969
  0
POINT
  8
0
 10
-322.994324
 20
-39.999996
  0
LINE
  8
0
 62
     3
 10
-524.494446
 20
-360.000092
 11
-524.494446
 21
360.000092
  0
LINE
  8
0
 62
     3
 10
524.494446
 20
360.000092
 11
524.494446
 21
-360.000092
  0
LINE
  8
0
 62
     3
 10
-524.494446
 20
-360.000092
 11
524.494446
 21
-360.000092
  0
LINE
  8
0
 62
     3
 10
-524.494446
 20
360.000092
 11
524.494446
 21
360.000092
  0
LINE
  8
0
 62
     3
 10
-524.494446
 20
319.550598
 11
-224.494446
 21
319.550598
  0
LINE
  8
0
 62
     3
 10
-224.494446
 20
319.550598
 11
-224.494446
 21
360.000092
  0
LINE
  8
0
 62
     3
 10
308.764069
 20
-319.550690
 11
524.494446
 21
-319.550690
  0
LINE
  8
0
 62
     5
 10
365.406830
 20
-329.276672
 11
386.130402
 21
-329.276672
  0
LINE
  8
0
 62
     5
 10
365.406830
 20
-347.654236
 11
383.002350
 21
-347.654236
  0
LINE
  8
0
 62
     5
 10
365.406830
 20
-352.346344
 11
389.258545
 21
-352.346344
  0
LINE
  8
0
 62
     5
 10
365.406830
 20
-333.968781
 11
383.002350
 21
-333.968781
  0
LINE
  8
0
 62
     5
 10
365.406830
 20
-329.276672
 11
365.406830
 21
-333.968781
  0
LINE
  8
0
 62
     5
 10
389.258545
 20
-332.404785
 11
389.258545
 21
-352.346344
  0
LINE
  8
0
 62
     5
 10
383.002350
 20
-333.968781
 11
383.002350
 21
-347.654236
  0
LINE
  8
0
 62
     5
 10
392.777557
 20
-329.276672
 11
392.777557
 21
-333.968781
  0
LINE
  8
0
 62
     5
 10
415.065186
 20
-333.968781
 11
415.065186
 21
-349.218353
  0
LINE
  8
0
 62
     5
 10
408.809052
 20
-333.968781
 11
408.809052
 21
-347.654236
  0
LINE
  8
0
 62
     5
 10
365.406830
 20
-347.654236
 11
365.406830
 21
-352.346344
  0
LINE
  8
0
 62
     5
 10
392.777557
 20
-329.276672
 11
398.959137
 21
-329.276672
  0
LINE
  8
0
 62
     5
 10
392.777557
 20
-352.346344
 11
397.635284
 21
-352.346344
  0
LINE
  8
0
 62
     5
 10
392.777435
 20
-352.346161
 11
397.701843
 21
-333.968719
  0
LINE
  8
0
 62
     5
 10
392.777557
 20
-333.968781
 11
397.701874
 21
-333.968781
  0
LINE
  8
0
 62
     5
 10
397.635559
 20
-352.346558
 11
402.559723
 21
-333.969055
  0
LINE
  8
0
 62
     5
 10
404.116852
 20
-347.654236
 11
408.809052
 21
-347.654236
  0
LINE
  8
0
 62
     5
 10
404.116730
 20
-347.654144
 11
405.373871
 21
-352.346191
  0
LINE
  8
0
 62
     5
 10
405.374237
 20
-352.346344
 11
411.937195
 21
-352.346344
  0
LINE
  8
0
 62
     5
 10
402.559540
 20
-333.968781
 11
408.809052
 21
-333.968781
  0
LINE
  8
0
 62
     5
 10
403.816772
 20
-329.276672
 11
410.373047
 21
-329.276672
  0
LINE
  8
0
 62
     5
 10
398.959198
 20
-329.276703
 11
399.891571
 21
-325.796783
  0
LINE
  8
0
 62
     5
 10
403.816467
 20
-329.276459
 11
404.748840
 21
-325.796417
  0
LINE
  8
0
 62
     5
 10
418.975342
 20
-329.276672
 11
426.404572
 21
-329.276672
  0
LINE
  8
0
 62
     5
 10
418.975342
 20
-333.968781
 11
437.221191
 21
-333.968781
  0
LINE
  8
0
 62
     5
 10
426.404572
 20
-352.346344
 11
432.660645
 21
-352.346344
  0
LINE
  8
0
 62
     5
 10
418.975342
 20
-329.276672
 11
418.975342
 21
-333.968781
  0
LINE
  8
0
 62
     5
 10
442.045044
 20
-342.477020
 11
442.045044
 21
-347.654236
  0
LINE
  8
0
 62
     5
 10
418.975037
 20
-347.654053
 11
426.404388
 21
-344.189636
  0
LINE
  8
0
 62
     5
 10
418.975769
 20
-342.477356
 11
437.221558
 21
-333.969116
  0
LINE
  8
0
 62
     5
 10
418.975342
 20
-342.477020
 11
418.975342
 21
-347.654236
  0
LINE
  8
0
 62
     5
 10
432.660492
 20
-343.278107
 11
442.044983
 21
-347.654083
  0
LINE
  8
0
 62
     5
 10
436.062103
 20
-339.687286
 11
442.045654
 21
-342.477448
  0
LINE
  8
0
 62
     5
 10
442.045044
 20
-332.404785
 11
442.045044
 21
-334.903870
  0
LINE
  8
0
 62
     5
 10
426.404572
 20
-325.796722
 11
426.404572
 21
-329.276672
  0
LINE
  8
0
 62
     5
 10
432.660645
 20
-325.796722
 11
432.660645
 21
-329.276672
  0
LINE
  8
0
 62
     5
 10
432.660645
 20
-329.276672
 11
438.916931
 21
-329.276672
  0
LINE
  8
0
 62
     5
 10
426.404572
 20
-344.189972
 11
426.404572
 21
-352.346344
  0
LINE
  8
0
 62
     5
 10
432.660645
 20
-343.278320
 11
432.660645
 21
-352.346344
  0
LINE
  8
0
 62
     5
 10
436.062073
 20
-339.687256
 11
440.239532
 21
-337.739288
  0
LINE
  8
0
 62
     5
 10
463.159668
 20
-327.204376
 11
467.851685
 21
-327.204376
  0
LINE
  8
0
 62
     5
 10
444.000122
 20
-336.896667
 11
444.000122
 21
-341.946259
  0
LINE
  8
0
 62
     5
 10
467.851685
 20
-327.204376
 11
467.851685
 21
-329.276672
  0
LINE
  8
0
 62
     5
 10
463.159668
 20
-327.204376
 11
463.159668
 21
-328.215485
  0
LINE
  8
0
 62
     5
 10
456.903442
 20
-336.814453
 11
456.903442
 21
-352.346344
  0
LINE
  8
0
 62
     5
 10
444.000275
 20
-336.896881
 11
462.173828
 21
-329.669067
  0
LINE
  8
0
 62
     5
 10
444.000092
 20
-341.946411
 11
456.903412
 21
-336.814545
  0
LINE
  8
0
 62
     5
 10
456.903442
 20
-352.346344
 11
463.159668
 21
-352.346344
  0
LINE
  8
0
 62
     5
 10
463.159668
 20
-334.326324
 11
463.159668
 21
-352.346344
  0
LINE
  8
0
 62
     5
 10
463.160126
 20
-334.326630
 11
464.894257
 21
-333.636902
  0
LINE
  8
0
 62
     5
 10
399.891602
 20
-325.796722
 11
404.749207
 21
-325.796722
  0
LINE
  8
0
 62
     5
 10
412.523682
 20
-325.796722
 11
414.517731
 21
-325.796722
  0
LINE
  8
0
 62
     5
 10
426.404572
 20
-325.796722
 11
432.660645
 21
-325.796722
  0
LINE
  8
0
 62
     5
 10
412.523682
 20
-328.924835
 11
414.517731
 21
-328.924835
  0
LINE
  8
0
 62
     5
 10
412.523682
 20
-325.796722
 11
412.523682
 21
-328.924835
  0
LINE
  8
0
 62
     5
 10
414.517731
 20
-325.796722
 11
414.517731
 21
-328.924835
  0
LINE
  8
0
 62
     5
 10
415.690887
 20
-325.796722
 11
415.690887
 21
-328.924835
  0
LINE
  8
0
 62
     5
 10
417.919678
 20
-325.796722
 11
417.919678
 21
-328.924835
  0
LINE
  8
0
 62
     5
 10
415.690887
 20
-325.796722
 11
417.919678
 21
-325.796722
  0
LINE
  8
0
 62
     5
 10
415.690887
 20
-328.924835
 11
417.919678
 21
-328.924835
  0
LINE
  8
0
 62
     3
 10
308.764069
 20
319.550598
 11
524.494446
 21
319.550598
  0
LINE
  8
0
 62
     3
 10
308.764069
 20
360.000092
 11
308.764069
 21
319.550598
  0
LINE
  8
0
 62
     3
 10
308.764069
 20
-319.550690
 11
308.764069
 21
-360.000092
  0
LINE
  8
0
 10
-167.783661
 20
-250.302856
 11
-201.444824
 21
-192.000015
  0
LINE
  8
0
 10
-167.783676
 20
-250.302872
 11
-169.724808
 21
-243.058426
  0
LINE
  8
0
 10
-167.783661
 20
-250.302841
 11
-173.086960
 21
-244.999542
  0
LINE
  8
0
 10
-275.425720
 20
-192.000015
 11
-201.444824
 21
-192.000015
  0
LINE
  8
0
 10
-68.494400
 20
-5.535893
 11
-30.657223
 21
60.000011
  0
LINE
  8
0
 10
-68.494400
 20
-5.535892
 11
-66.553253
 21
1.708551
  0
LINE
  8
0
 10
-68.494400
 20
-5.535892
 11
-63.191101
 21
-0.232591
  0
LINE
  8
0
 10
-30.657223
 20
60.000011
 11
66.150871
 21
60.000011
  0
LINE
  8
0
 10
-174.494400
 20
30.000011
 11
-174.494400
 21
-109.999985
  0
LINE
  8
0
  6
CENTER
 10
-179.494400
 20
-39.999989
 11
183.505600
 21
-39.999989
  0
LINE
  8
0
 10
-146.494400
 20
30.000011
 11
-146.494400
 21
-109.999985
  0
LINE
  8
0
 10
-174.494400
 20
30.000011
 11
-146.494400
 21
30.000011
  0
LINE
  8
0
 10
-174.494400
 20
-109.999985
 11
-146.494400
 21
-109.999985
  0
LINE
  8
0
  6
CENTER
 10
-155.494400
 20
-62.499985
 11
-155.494400
 21
-82.499985
  0
LINE
  8
0
  6
CENTER
 10
-165.494400
 20
-72.499985
 11
-145.494400
 21
-72.499985
  0
LINE
  8
0
  6
CENTER
 10
-155.494400
 20
-17.499992
 11
-155.494400
 21
2.500008
  0
LINE
  8
0
  6
CENTER
 10
-165.494400
 20
-7.499992
 11
-145.494400
 21
-7.499992
  0
LINE
  8
0
  6
CENTER
 10
159.505600
 20
-62.499985
 11
159.505600
 21
-82.499985
  0
LINE
  8
0
  6
CENTER
 10
169.505600
 20
-72.499985
 11
149.505600
 21
-72.499985
  0
LINE
  8
0
  6
CENTER
 10
159.505600
 20
-17.499992
 11
159.505600
 21
2.500008
  0
LINE
  8
0
  6
CENTER
 10
169.505600
 20
-7.499992
 11
149.505600
 21
-7.499992
  0
LINE
  8
0
  6
CENTER
 10
-179.494400
 20
-90.999985
 11
-141.494400
 21
-90.999985
  0
LINE
  8
0
 10
178.505600
 20
30.000011
 11
178.505600
 21
-109.999985
  0
LINE
  8
0
 10
182.505600
 20
20.188011
 11
182.505600
 21
1.812012
  0
LINE
  8
0
  6
CENTER
 10
187.505600
 20
11.000011
 11
-55.494400
 21
11.000011
  0
LINE
  8
0
 10
181.693588
 20
1.000011
 11
178.505600
 21
1.000011
  0
LINE
  8
0
 10
181.693588
 20
21.000011
 11
178.505600
 21
21.000011
  0
LINE
  8
0
 10
182.505600
 20
1.812012
 11
178.505600
 21
1.812012
  0
LINE
  8
0
 10
182.505600
 20
20.188011
 11
178.505600
 21
20.188011
  0
LINE
  8
0
 10
182.505539
 20
20.187998
 11
181.693542
 21
20.999992
  0
LINE
  8
0
 10
182.505646
 20
1.811999
 11
181.693649
 21
0.999994
  0
LINE
  8
0
 10
181.693588
 20
21.000011
 11
181.693588
 21
1.000011
  0
LINE
  8
0
 10
150.505600
 20
30.000011
 11
150.505600
 21
-109.999985
  0
LINE
  8
0
 10
178.505600
 20
-109.999985
 11
150.505600
 21
-109.999985
  0
LINE
  8
0
 10
178.505600
 20
30.000011
 11
150.505600
 21
30.000011
  0
LINE
  8
0
  6
CENTER
 10
183.505600
 20
-90.999985
 11
-55.494400
 21
-90.999985
  0
LINE
  8
0
 10
161.505600
 20
-102.999985
 11
161.505600
 21
-109.999985
  0
LINE
  8
0
 10
175.505600
 20
-102.999985
 11
175.505600
 21
-109.999985
  0
LINE
  8
0
  6
CENTER
 10
-97.994400
 20
34.000011
 11
-97.994400
 21
-113.999985
  0
LINE
  8
0
 10
-145.494400
 20
29.000011
 11
-145.494400
 21
-108.999985
  0
LINE
  8
0
 10
-50.494400
 20
29.000011
 11
-50.494400
 21
-108.999985
  0
LINE
  8
0
 10
-145.494400
 20
29.000011
 11
-50.494400
 21
29.000011
  0
LINE
  8
0
 10
-146.494400
 20
-108.999985
 11
150.505600
 21
-108.999985
  0
LINE
  8
0
 10
-143.194397
 20
29.000011
 11
-143.194397
 21
-108.999985
  0
LINE
  8
0
 10
-52.794403
 20
29.000011
 11
-52.794403
 21
-108.999985
  0
LINE
  8
0
 10
-146.494400
 20
-19.199989
 11
-145.494400
 21
-19.199989
  0
LINE
  8
0
 10
-146.494400
 20
-60.799988
 11
-145.494400
 21
-60.799988
  0
LINE
  8
0
 10
-50.494400
 20
-19.199989
 11
150.505600
 21
-19.199989
  0
LINE
  8
0
 10
-50.494400
 20
-60.799988
 11
150.505600
 21
-60.799988
  0
LINE
  8
0
 10
150.505600
 20
-1.499989
 11
-50.494400
 21
-1.499989
  0
LINE
  8
0
 10
150.505600
 20
23.500011
 11
-50.494400
 21
23.500011
  0
LINE
  8
0
 10
150.505600
 20
-78.499985
 11
-50.494400
 21
-78.499985
  0
LINE
  8
0
 10
150.505600
 20
-103.499985
 11
-50.494400
 21
-103.499985
  0
LINE
  8
0
 10
-146.494400
 20
-103.499985
 11
-145.494400
 21
-103.499985
  0
LINE
  8
0
 10
-146.494400
 20
-78.499985
 11
-145.494400
 21
-78.499985
  0
LINE
  8
0
 10
-146.494400
 20
-1.499989
 11
-145.494400
 21
-1.499989
  0
LINE
  8
0
 10
-146.494400
 20
23.500011
 11
-145.494400
 21
23.500011
  0
LINE
  8
0
  6
CENTER
 10
-132.994400
 20
-70.999985
 11
-117.994400
 21
-70.999985
  0
LINE
  8
0
  6
CENTER
 10
-125.494400
 20
-63.499985
 11
-125.494400
 21
-78.499985
  0
LINE
  8
0
  6
CENTER
 10
-125.494400
 20
-16.499992
 11
-125.494400
 21
-1.499992
  0
LINE
  8
0
  6
CENTER
 10
-132.994400
 20
-8.999992
 11
-117.994400
 21
-8.999992
  0
LINE
  8
0
  6
CENTER
 10
-70.494400
 20
-63.499985
 11
-70.494400
 21
-78.499985
  0
LINE
  8
0
  6
CENTER
 10
-62.994400
 20
-70.999985
 11
-77.994400
 21
-70.999985
  0
LINE
  8
0
  6
CENTER
 10
-70.494400
 20
-16.499992
 11
-70.494400
 21
-1.499992
  0
LINE
  8
0
  6
CENTER
 10
-62.994400
 20
-8.999992
 11
-77.994400
 21
-8.999992
  0
LINE
  8
0
 10
-101.994400
 20
-7.999992
 11
-101.994400
 21
-9.999992
  0
LINE
  8
0
 10
-93.994400
 20
-7.999992
 11
-93.994400
 21
-9.999992
  0
LINE
  8
0
  6
CENTER
 10
-105.494400
 20
-70.999985
 11
-90.494400
 21
-70.999985
  0
LINE
  8
0
  6
CENTER
 10
-105.494400
 20
-8.999992
 11
-90.494400
 21
-8.999992
  0
LINE
  8
0
 10
-143.194397
 20
-54.999989
 11
-52.794403
 21
-54.999989
  0
LINE
  8
0
 10
-143.194397
 20
-24.999989
 11
-52.794403
 21
-24.999989
  0
LINE
  8
0
 10
-178.494400
 20
20.188011
 11
-178.494400
 21
1.812012
  0
LINE
  8
0
  6
CENTER
 10
-183.494400
 20
11.000011
 11
-141.494400
 21
11.000011
  0
LINE
  8
0
 10
-177.682404
 20
1.000011
 11
-174.494400
 21
1.000011
  0
LINE
  8
0
 10
-177.682404
 20
21.000011
 11
-174.494400
 21
21.000011
  0
LINE
  8
0
 10
-178.494400
 20
1.812012
 11
-174.494400
 21
1.812012
  0
LINE
  8
0
 10
-178.494400
 20
20.188011
 11
-174.494400
 21
20.188011
  0
LINE
  8
0
 10
-178.494385
 20
20.188002
 11
-177.682388
 21
21.000002
  0
LINE
  8
0
 10
-178.494415
 20
1.812004
 11
-177.682419
 21
1.000004
  0
LINE
  8
0
 10
-177.682404
 20
21.000011
 11
-177.682404
 21
1.000011
  0
LINE
  8
0
  6
CENTER
 10
158.505600
 20
-102.999985
 11
178.505600
 21
-102.999985
  0
LINE
  8
0
 10
168.505646
 20
-99.535942
 11
165.505661
 21
-101.267982
  0
LINE
  8
0
 10
165.505600
 20
-101.267921
 11
165.505600
 21
-104.732010
  0
LINE
  8
0
 10
165.505585
 20
-104.732010
 11
168.505600
 21
-106.464066
  0
LINE
  8
0
 10
168.505600
 20
-106.464104
 11
171.505615
 21
-104.732048
  0
LINE
  8
0
 10
171.505600
 20
-104.732040
 11
171.505600
 21
-101.267944
  0
LINE
  8
0
 10
171.505615
 20
-101.267929
 11
168.505630
 21
-99.535889
  0
LINE
  8
0
  6
CENTER
 10
168.505600
 20
-92.999985
 11
168.505600
 21
-112.999985
  0
LINE
  8
0
 10
-43.694397
 20
26.000011
 11
-43.694397
 21
23.500011
  0
LINE
  8
0
 10
-43.694397
 20
-3.999989
 11
-50.494400
 21
-3.999989
  0
LINE
  8
0
 10
-43.694397
 20
26.000011
 11
-50.494400
 21
26.000011
  0
LINE
  8
0
 10
-43.694397
 20
-1.499989
 11
-43.694397
 21
-3.999989
  0
LINE
  8
0
  6
CENTER
 10
-174.494400
 20
203.000000
 11
-154.494400
 21
203.000000
  0
LINE
  8
0
  6
CENTER
 10
-164.494400
 20
213.000000
 11
-164.494400
 21
193.000000
  0
LINE
  8
0
 10
-167.494400
 20
201.267975
 11
-164.494400
 21
199.535919
  0
LINE
  8
0
 10
-164.494446
 20
199.535950
 11
-161.494446
 21
201.268005
  0
LINE
  8
0
 10
-161.494400
 20
201.267944
 11
-161.494400
 21
204.732040
  0
LINE
  8
0
 10
-161.494370
 20
204.732056
 11
-164.494370
 21
206.464111
  0
LINE
  8
0
 10
-164.494446
 20
206.464233
 11
-167.494446
 21
204.732178
  0
LINE
  8
0
 10
-167.494400
 20
204.732056
 11
-167.494400
 21
201.267975
  0
LINE
  8
0
 10
-178.494400
 20
178.812012
 11
-178.494400
 21
197.188019
  0
LINE
  8
0
  6
CENTER
 10
-183.494400
 20
188.000015
 11
-20.294403
 21
188.000015
  0
LINE
  8
0
 10
-177.682404
 20
198.000015
 11
-174.494400
 21
198.000015
  0
LINE
  8
0
 10
-177.682404
 20
178.000015
 11
-174.494400
 21
178.000015
  0
LINE
  8
0
 10
-178.494400
 20
197.188019
 11
-174.494400
 21
197.188019
  0
LINE
  8
0
 10
-178.494400
 20
178.812012
 11
-174.494400
 21
178.812012
  0
LINE
  8
0
 10
-178.494400
 20
178.812027
 11
-177.682419
 21
178.000015
  0
LINE
  8
0
 10
-178.494507
 20
197.188095
 11
-177.682510
 21
198.000107
  0
LINE
  8
0
 10
-177.682404
 20
178.000015
 11
-177.682404
 21
198.000015
  0
LINE
  8
0
  6
CENTER
 10
-179.494400
 20
160.000015
 11
183.505600
 21
160.000015
  0
LINE
  8
0
 10
-174.494400
 20
142.000015
 11
-174.494400
 21
212.000015
  0
LINE
  8
0
 10
-146.494400
 20
142.000015
 11
-146.494400
 21
212.000015
  0
LINE
  8
0
 10
-174.494400
 20
212.000015
 11
-146.494400
 21
212.000015
  0
LINE
  8
0
 10
-174.494400
 20
142.000015
 11
-146.494400
 21
142.000015
  0
LINE
  8
0
 10
182.505600
 20
178.812012
 11
182.505600
 21
197.188019
  0
LINE
  8
0
  6
CENTER
 10
187.505600
 20
188.000015
 11
145.505600
 21
188.000015
  0
LINE
  8
0
 10
181.693588
 20
198.000015
 11
178.505600
 21
198.000015
  0
LINE
  8
0
 10
182.505600
 20
197.188019
 11
178.505600
 21
197.188019
  0
LINE
  8
0
 10
182.505600
 20
178.812012
 11
178.505600
 21
178.812012
  0
LINE
  8
0
 10
182.505646
 20
178.812027
 11
181.693649
 21
178.000031
  0
LINE
  8
0
 10
182.505569
 20
197.187943
 11
181.693558
 21
197.999985
  0
LINE
  8
0
 10
178.505600
 20
142.000015
 11
178.505600
 21
212.000015
  0
LINE
  8
0
 10
178.505600
 20
212.000015
 11
150.505600
 21
212.000015
  0
LINE
  8
0
 10
178.505600
 20
142.000015
 11
150.505600
 21
142.000015
  0
LINE
  8
0
 10
150.505600
 20
142.000015
 11
150.505600
 21
212.000015
  0
LINE
  8
0
 10
-145.494400
 20
141.000015
 11
-145.494400
 21
209.000015
  0
LINE
  8
0
 10
-143.194397
 20
140.000015
 11
-143.194397
 21
209.000015
  0
LINE
  8
0
 10
-52.794403
 20
140.000015
 11
-52.794403
 21
209.000015
  0
LINE
  8
0
 10
-50.494400
 20
141.000015
 11
-50.494400
 21
209.000015
  0
LINE
  8
0
 10
-143.194397
 20
140.000015
 11
-52.794403
 21
140.000015
  0
LINE
  8
0
 10
-145.494400
 20
209.000015
 11
-50.494400
 21
209.000015
  0
LINE
  8
0
 10
-145.494400
 20
141.000015
 11
-143.194397
 21
141.000015
  0
LINE
  8
0
 10
-52.794403
 20
141.000015
 11
-50.494400
 21
141.000015
  0
LINE
  8
0
 10
-143.194397
 20
143.000015
 11
-52.794403
 21
143.000015
  0
LINE
  8
0
 10
-146.494400
 20
147.500015
 11
-145.494400
 21
147.500015
  0
LINE
  8
0
 10
-146.494400
 20
172.500015
 11
-145.494400
 21
172.500015
  0
LINE
  8
0
 10
-50.494400
 20
147.500015
 11
150.505600
 21
147.500015
  0
LINE
  8
0
 10
-43.983078
 20
172.500015
 11
150.505600
 21
172.500015
  0
LINE
  8
0
 10
-174.494400
 20
210.000000
 11
-146.494400
 21
210.000000
  0
LINE
  8
0
 10
-174.494400
 20
187.000015
 11
-146.494400
 21
187.000015
  0
LINE
  8
0
 10
-174.494400
 20
195.999969
 11
-146.494400
 21
195.999969
  0
LINE
  8
0
  6
CENTER
 10
178.505600
 20
203.000000
 11
158.505600
 21
203.000000
  0
LINE
  8
0
  6
CENTER
 10
168.505600
 20
213.000000
 11
168.505600
 21
193.000000
  0
LINE
  8
0
 10
171.505615
 20
201.268021
 11
168.505600
 21
199.535965
  0
LINE
  8
0
 10
168.505737
 20
199.536072
 11
165.505722
 21
201.268127
  0
LINE
  8
0
 10
165.505600
 20
201.267944
 11
165.505600
 21
204.732040
  0
LINE
  8
0
 10
165.505569
 20
204.732056
 11
168.505569
 21
206.464111
  0
LINE
  8
0
 10
168.505707
 20
206.464294
 11
171.505692
 21
204.732254
  0
LINE
  8
0
 10
171.505600
 20
204.732056
 11
171.505600
 21
201.267975
  0
LINE
  8
0
 10
178.505600
 20
195.999969
 11
150.505600
 21
195.999969
  0
LINE
  8
0
 10
178.505600
 20
187.000015
 11
150.505600
 21
187.000015
  0
LINE
  8
0
 10
178.505600
 20
210.000000
 11
150.505600
 21
210.000000
  0
LINE
  8
0
 10
181.693588
 20
178.000015
 11
178.505600
 21
178.000015
  0
LINE
  8
0
 10
-146.494400
 20
195.300018
 11
-145.494400
 21
195.300018
  0
LINE
  8
0
 10
-43.294403
 20
195.300018
 11
150.505600
 21
195.300018
  0
LINE
  8
0
 10
-145.494400
 20
194.000015
 11
-50.494400
 21
194.000015
  0
LINE
  8
0
 10
150.505600
 20
201.000015
 11
-43.694397
 21
201.000015
  0
LINE
  8
0
 10
-145.494400
 20
201.000015
 11
-146.494400
 21
201.000015
  0
LINE
  8
0
 10
-43.294403
 20
179.000015
 11
-43.294403
 21
197.000015
  0
LINE
  8
0
 10
-25.294403
 20
185.500015
 11
-25.294403
 21
190.500015
  0
LINE
  8
0
 10
-43.294403
 20
190.500015
 11
-25.294403
 21
190.500015
  0
LINE
  8
0
 10
-43.294403
 20
185.500015
 11
-25.294403
 21
185.500015
  0
LINE
  8
0
 10
-43.694397
 20
173.000015
 11
-43.694397
 21
203.000000
  0
LINE
  8
0
 10
-43.294418
 20
179.000031
 11
-43.694412
 21
178.600052
  0
LINE
  8
0
 10
-43.294388
 20
197.000061
 11
-43.694393
 21
197.400070
  0
LINE
  8
0
 10
-49.154640
 20
170.679504
 11
-45.034149
 21
170.679504
  0
LINE
  8
0
 10
-43.694443
 20
173.000076
 11
-45.034187
 21
170.679581
  0
LINE
  8
0
 10
-49.154648
 20
179.339767
 11
-45.034149
 21
179.339767
  0
LINE
  8
0
 10
-49.154648
 20
196.660278
 11
-45.034149
 21
196.660278
  0
LINE
  8
0
 10
-43.694386
 20
203.000046
 11
-45.034130
 21
205.320526
  0
LINE
  8
0
 10
-49.154633
 20
205.320526
 11
-45.034149
 21
205.320526
  0
LINE
  8
0
 10
-50.494408
 20
203.000031
 11
-49.154671
 21
205.320526
  0
LINE
  8
0
 10
-50.494377
 20
173.000046
 11
-49.154633
 21
170.679535
  0
LINE
  8
0
 10
181.693588
 20
198.000015
 11
181.693588
 21
178.000015
  0
LINE
  8
0
  6
CENTER
 10
397.505585
 20
-40.000011
 11
315.505585
 21
-40.000011
  0
LINE
  8
0
 10
392.505585
 20
9.999989
 11
392.505585
 21
-110.000015
  0
LINE
  8
0
 10
390.005585
 20
28.199986
 11
390.005585
 21
20.999992
  0
LINE
  8
0
 10
377.005585
 20
28.199986
 11
377.005585
 21
20.999992
  0
LINE
  8
0
 10
377.805603
 20
28.999989
 11
389.205597
 21
28.999989
  0
LINE
  8
0
 10
377.005585
 20
28.199986
 11
390.005585
 21
28.199986
  0
LINE
  8
0
 10
390.005585
 20
28.199972
 11
389.205597
 21
28.999973
  0
LINE
  8
0
 10
377.005524
 20
28.199997
 11
377.805542
 21
29.000017
  0
LINE
  8
0
 10
379.505585
 20
11.999989
 11
379.505585
 21
9.999989
  0
LINE
  8
0
 10
387.505585
 20
11.999989
 11
387.505585
 21
9.999989
  0
LINE
  8
0
 10
380.182098
 20
11.999989
 11
380.182098
 21
9.999989
  0
LINE
  8
0
 10
386.829071
 20
11.999989
 11
386.829071
 21
9.999989
  0
LINE
  8
0
 10
320.505585
 20
25.999989
 11
320.505585
 21
-25.000011
  0
LINE
  8
0
 10
367.505585
 20
29.999989
 11
322.505585
 21
29.999989
  0
LINE
  8
0
 10
392.505585
 20
-110.000015
 11
341.505585
 21
-110.000015
  0
LINE
  8
0
 10
322.505585
 20
29.999989
 11
322.505585
 21
-110.000015
  0
LINE
  8
0
 10
320.505554
 20
-106.000046
 11
322.505554
 21
-108.000046
  0
LINE
  8
0
 10
320.505524
 20
26.000021
 11
322.505554
 21
28.000036
  0
LINE
  8
0
 10
320.505585
 20
-55.000011
 11
320.505585
 21
-106.000015
  0
LINE
  8
0
 10
321.005585
 20
-25.500025
 11
321.005585
 21
-54.500008
  0
LINE
  8
0
 10
320.505554
 20
-55.000004
 11
321.005554
 21
-54.499992
  0
LINE
  8
0
 10
320.505646
 20
-25.000006
 11
321.005646
 21
-25.500008
  0
LINE
  8
0
  6
CENTER
 10
368.505585
 20
24.999989
 11
368.505585
 21
-3.000011
  0
LINE
  8
0
  6
CENTER
 10
382.505585
 20
10.999989
 11
326.505585
 21
10.999989
  0
LINE
  8
0
 10
373.505524
 20
8.113328
 11
368.505524
 21
5.226580
  0
LINE
  8
0
 10
368.505615
 20
5.226527
 11
363.505646
 21
8.113273
  0
LINE
  8
0
 10
363.505554
 20
8.113228
 11
363.505554
 21
13.886726
  0
LINE
  8
0
 10
363.505493
 20
13.886787
 11
368.505493
 21
16.773535
  0
LINE
  8
0
 10
368.505585
 20
16.773510
 11
373.505585
 21
13.886764
  0
LINE
  8
0
 10
373.505554
 20
13.886757
 11
373.505554
 21
8.113258
  0
LINE
  8
0
  6
CENTER
 10
340.505585
 20
24.999989
 11
340.505585
 21
-3.000011
  0
LINE
  8
0
 10
345.505554
 20
8.113326
 11
340.505524
 21
5.226563
  0
LINE
  8
0
 10
340.505585
 20
5.226490
 11
335.505615
 21
8.113251
  0
LINE
  8
0
 10
335.505554
 20
8.113228
 11
335.505554
 21
13.886726
  0
LINE
  8
0
 10
335.505524
 20
13.886749
 11
340.505524
 21
16.773497
  0
LINE
  8
0
 10
340.505524
 20
16.773458
 11
345.505524
 21
13.886712
  0
LINE
  8
0
 10
345.505554
 20
13.886757
 11
345.505554
 21
8.113258
  0
LINE
  8
0
 10
392.505585
 20
9.999989
 11
378.455444
 21
9.999989
  0
LINE
  8
0
 10
390.505585
 20
11.999989
 11
378.455444
 21
11.999989
  0
LINE
  8
0
 10
390.505585
 20
20.999989
 11
390.505585
 21
11.999989
  0
LINE
  8
0
 10
390.505585
 20
20.999989
 11
376.505585
 21
20.999989
  0
LINE
  8
0
 10
367.505554
 20
29.999975
 11
376.505554
 21
20.999962
  0
LINE
  8
0
  6
CENTER
 10
383.505585
 20
33.999989
 11
383.505585
 21
4.999989
  0
LINE
  8
0
  6
CENTER
 10
329.505585
 20
-91.000008
 11
351.505585
 21
-91.000008
  0
LINE
  8
0
  6
CENTER
 10
340.505585
 20
-80.000008
 11
340.505585
 21
-102.000008
  0
LINE
  8
0
 10
341.505585
 20
-98.433044
 11
341.505585
 21
-110.000015
  0
LINE
  8
0
 10
339.505585
 20
-98.433044
 11
339.505585
 21
-110.000015
  0
LINE
  8
0
 10
339.505585
 20
-110.000015
 11
322.505585
 21
-110.000015
  0
LINE
  8
0
  6
CENTER
 10
315.505585
 20
-103.000008
 11
346.505585
 21
-103.000008
  0
LINE
  8
0
 10
339.505585
 20
-107.000015
 11
341.505585
 21
-107.000015
  0
LINE
  8
0
 10
339.505585
 20
-99.000008
 11
341.505585
 21
-99.000008
  0
LINE
  8
0
 10
339.505585
 20
-106.323517
 11
341.505585
 21
-106.323517
  0
LINE
  8
0
 10
339.505585
 20
-99.676506
 11
341.505585
 21
-99.676506
  0
LINE
  8
0
 10
-178.494400
 20
-258.811951
 11
-178.494400
 21
-277.187958
  0
LINE
  8
0
  6
CENTER
 10
-183.494400
 20
-267.999969
 11
-141.494400
 21
-267.999969
  0
LINE
  8
0
 10
-177.682404
 20
-277.999969
 11
-174.494400
 21
-277.999969
  0
LINE
  8
0
 10
-177.682404
 20
-257.999969
 11
-174.494400
 21
-257.999969
  0
LINE
  8
0
 10
-178.494400
 20
-277.187958
 11
-174.494400
 21
-277.187958
  0
LINE
  8
0
 10
-178.494400
 20
-258.811951
 11
-174.494400
 21
-258.811951
  0
LINE
  8
0
 10
-178.494370
 20
-258.811920
 11
-177.682388
 21
-257.999939
  0
LINE
  8
0
 10
-178.494446
 20
-277.187988
 11
-177.682449
 21
-278.000000
  0
LINE
  8
0
 10
-177.682404
 20
-257.999969
 11
-177.682404
 21
-277.999969
  0
LINE
  8
0
  6
CENTER
 10
-179.494400
 20
-239.999954
 11
183.505600
 21
-239.999954
  0
LINE
  8
0
 10
-174.494400
 20
-221.999954
 11
-174.494400
 21
-291.999969
  0
LINE
  8
0
 10
-146.494400
 20
-221.999954
 11
-146.494400
 21
-291.999969
  0
LINE
  8
0
 10
-174.494400
 20
-291.999969
 11
-146.494400
 21
-291.999969
  0
LINE
  8
0
 10
-174.494400
 20
-221.999954
 11
-146.494400
 21
-221.999954
  0
LINE
  8
0
  6
CENTER
 10
-173.494400
 20
-255.999954
 11
-155.494400
 21
-255.999954
  0
LINE
  8
0
  6
CENTER
 10
-164.494400
 20
-246.999954
 11
-164.494400
 21
-264.999969
  0
LINE
  8
0
  6
CENTER
 10
-164.494400
 20
-270.999969
 11
-164.494400
 21
-288.999969
  0
LINE
  8
0
  6
CENTER
 10
-173.494400
 20
-279.999969
 11
-155.494400
 21
-279.999969
  0
LINE
  8
0
 10
182.505600
 20
-258.811951
 11
182.505600
 21
-277.187958
  0
LINE
  8
0
  6
CENTER
 10
187.505600
 20
-267.999969
 11
145.505600
 21
-267.999969
  0
LINE
  8
0
 10
181.693588
 20
-277.999969
 11
178.505600
 21
-277.999969
  0
LINE
  8
0
 10
181.693588
 20
-257.999969
 11
178.505600
 21
-257.999969
  0
LINE
  8
0
 10
182.505600
 20
-277.187958
 11
178.505600
 21
-277.187958
  0
LINE
  8
0
 10
182.505600
 20
-258.811951
 11
178.505600
 21
-258.811951
  0
LINE
  8
0
 10
182.505615
 20
-258.811951
 11
181.693634
 21
-257.999969
  0
LINE
  8
0
 10
182.505661
 20
-277.188049
 11
181.693695
 21
-278.000031
  0
LINE
  8
0
 10
181.693588
 20
-257.999969
 11
181.693588
 21
-277.999969
  0
LINE
  8
0
 10
178.505600
 20
-221.999954
 11
178.505600
 21
-291.999969
  0
LINE
  8
0
 10
178.505600
 20
-291.999969
 11
150.505600
 21
-291.999969
  0
LINE
  8
0
  6
CENTER
 10
177.505600
 20
-279.999969
 11
159.505600
 21
-279.999969
  0
LINE
  8
0
 10
178.505600
 20
-221.999954
 11
150.505600
 21
-221.999954
  0
LINE
  8
0
 10
150.505600
 20
-221.999954
 11
150.505600
 21
-291.999969
  0
LINE
  8
0
  6
CENTER
 10
168.505600
 20
-270.999969
 11
168.505600
 21
-288.999969
  0
LINE
  8
0
 10
150.505600
 20
-238.999954
 11
178.505600
 21
-238.999954
  0
LINE
  8
0
 10
150.505600
 20
-240.999954
 11
178.505600
 21
-240.999954
  0
LINE
  8
0
  6
CENTER
 10
168.505600
 20
-216.999954
 11
168.505600
 21
-245.999954
  0
LINE
  8
0
 10
161.505600
 20
-221.999954
 11
161.505600
 21
-230.999954
  0
LINE
  8
0
 10
175.505600
 20
-221.999954
 11
175.505600
 21
-230.999954
  0
LINE
  8
0
 10
175.505600
 20
-230.999954
 11
161.505600
 21
-230.999954
  0
LINE
  8
0
 10
-146.494400
 20
-280.999969
 11
150.505600
 21
-280.999969
  0
LINE
  8
0
 10
-146.494400
 20
-257.999969
 11
150.505600
 21
-257.999969
  0
LINE
  8
0
 10
-146.494400
 20
-261.499969
 11
150.505600
 21
-261.499969
  0
LINE
  8
0
 10
-146.494400
 20
-272.499969
 11
150.505600
 21
-272.499969
  0
LINE
  8
0
 10
-145.494400
 20
-220.999954
 11
-145.494400
 21
-257.999969
  0
LINE
  8
0
 10
-143.194397
 20
-219.999954
 11
-143.194397
 21
-257.999969
  0
LINE
  8
0
 10
-52.794403
 20
-219.999954
 11
-52.794403
 21
-257.999969
  0
LINE
  8
0
 10
-50.494400
 20
-220.999954
 11
-50.494400
 21
-257.999969
  0
LINE
  8
0
 10
-143.194397
 20
-219.999954
 11
-52.794403
 21
-219.999954
  0
LINE
  8
0
 10
-145.494400
 20
-280.999969
 11
-145.494400
 21
-288.999969
  0
LINE
  8
0
 10
-143.194397
 20
-280.999969
 11
-143.194397
 21
-288.999969
  0
LINE
  8
0
 10
-52.794403
 20
-280.999969
 11
-52.794403
 21
-288.999969
  0
LINE
  8
0
 10
-50.494400
 20
-280.999969
 11
-50.494400
 21
-288.999969
  0
LINE
  8
0
 10
-145.494400
 20
-288.999969
 11
-50.494400
 21
-288.999969
  0
LINE
  8
0
 10
-145.494400
 20
-220.999954
 11
-143.194397
 21
-220.999954
  0
LINE
  8
0
 10
-52.794403
 20
-220.999954
 11
-50.494400
 21
-220.999954
  0
LINE
  8
0
 10
-143.194397
 20
-222.999954
 11
-52.794403
 21
-222.999954
  0
LINE
  8
0
 10
-50.494400
 20
-253.494400
 11
-145.494400
 21
-253.494400
  0
LINE
  8
0
 10
-146.494400
 20
-227.499954
 11
-145.494400
 21
-227.499954
  0
LINE
  8
0
 10
-146.494400
 20
-252.499954
 11
-145.494400
 21
-252.499954
  0
LINE
  8
0
 10
-50.494400
 20
-227.499954
 11
150.505600
 21
-227.499954
  0
LINE
  8
0
 10
-50.494400
 20
-252.499954
 11
150.505600
 21
-252.499954
  0
LINE
  8
0
 10
162.005707
 20
-223.800018
 11
162.805679
 21
-223.000031
  0
LINE
  8
0
 10
171.829086
 20
-238.999954
 11
171.829086
 21
-240.999954
  0
LINE
  8
0
 10
165.182114
 20
-238.999954
 11
165.182114
 21
-240.999954
  0
LINE
  8
0
 10
164.505600
 20
-238.999954
 11
164.505600
 21
-240.999954
  0
LINE
  8
0
 10
172.505600
 20
-238.999954
 11
172.505600
 21
-240.999954
  0
LINE
  8
0
 10
175.005600
 20
-223.799957
 11
162.005600
 21
-223.799957
  0
LINE
  8
0
 10
175.005600
 20
-223.799957
 11
175.005600
 21
-230.999954
  0
LINE
  8
0
 10
175.005600
 20
-223.799942
 11
174.205582
 21
-222.999939
  0
LINE
  8
0
 10
174.205612
 20
-222.999954
 11
162.805588
 21
-222.999954
  0
LINE
  8
0
 10
162.005600
 20
-223.799957
 11
162.005600
 21
-230.999954
  0
LINE
  8
0
  6
CENTER
 10
-399.494324
 20
-39.999996
 11
-317.494324
 21
-39.999996
  0
LINE
  8
0
 10
-394.494324
 20
-110.000000
 11
-324.494324
 21
-110.000000
  0
LINE
  8
0
 10
-322.494354
 20
-106.000008
 11
-324.494354
 21
-108.000008
  0
LINE
  8
0
 10
-322.494324
 20
-54.999996
 11
-322.494324
 21
-106.000000
  0
LINE
  8
0
 10
-322.994324
 20
-25.500010
 11
-322.994324
 21
-54.499992
  0
LINE
  8
0
 10
-322.494293
 20
-54.999985
 11
-322.994293
 21
-54.499969
  0
LINE
  8
0
 10
-322.494293
 20
-25.000008
 11
-322.994263
 21
-25.500002
  0
LINE
  8
0
  6
CENTER
 10
-358.494324
 20
-70.999992
 11
-358.494324
 21
-90.999992
  0
LINE
  8
0
  6
CENTER
 10
-368.494324
 20
-80.999992
 11
-348.494324
 21
-80.999992
  0
LINE
  8
0
 10
-361.494354
 20
-82.732002
 11
-358.494324
 21
-84.464058
  0
LINE
  8
0
 10
-358.494354
 20
-84.464088
 11
-355.494354
 21
-82.732033
  0
LINE
  8
0
 10
-355.494293
 20
-82.732094
 11
-355.494293
 21
-79.267982
  0
LINE
  8
0
 10
-355.494324
 20
-79.267960
 11
-358.494354
 21
-77.535904
  0
LINE
  8
0
 10
-358.494385
 20
-77.535851
 11
-361.494385
 21
-79.267906
  0
LINE
  8
0
 10
-361.494263
 20
-79.267891
 11
-361.494263
 21
-82.732002
  0
LINE
  8
0
  6
CENTER
 10
-382.494324
 20
-70.999992
 11
-382.494324
 21
-90.999992
  0
LINE
  8
0
  6
CENTER
 10
-392.494324
 20
-80.999992
 11
-372.494324
 21
-80.999992
  0
LINE
  8
0
 10
-385.494385
 20
-82.731987
 11
-382.494354
 21
-84.464043
  0
LINE
  8
0
 10
-382.494354
 20
-84.464081
 11
-379.494354
 21
-82.732025
  0
LINE
  8
0
 10
-379.494293
 20
-82.732094
 11
-379.494293
 21
-79.267982
  0
LINE
  8
0
 10
-379.494293
 20
-79.267967
 11
-382.494293
 21
-77.535912
  0
LINE
  8
0
 10
-382.494324
 20
-77.535858
 11
-385.494324
 21
-79.267906
  0
LINE
  8
0
 10
-385.494263
 20
-79.267891
 11
-385.494263
 21
-82.732002
  0
LINE
  8
0
  6
CENTER
 10
-342.494324
 20
-76.999992
 11
-342.494324
 21
-105.000000
  0
LINE
  8
0
  6
CENTER
 10
-356.494324
 20
-90.999992
 11
-328.494324
 21
-90.999992
  0
LINE
  8
0
 10
-347.494354
 20
-93.886703
 11
-342.494354
 21
-96.773453
  0
LINE
  8
0
 10
-342.494385
 20
-96.773491
 11
-337.494385
 21
-93.886742
  0
LINE
  8
0
 10
-337.494293
 20
-93.886757
 11
-337.494293
 21
-88.113258
  0
LINE
  8
0
 10
-337.494324
 20
-88.113274
 11
-342.494324
 21
-85.226524
  0
LINE
  8
0
 10
-342.494324
 20
-85.226410
 11
-347.494324
 21
-88.113159
  0
LINE
  8
0
 10
-347.494293
 20
-88.113228
 11
-347.494293
 21
-93.886726
  0
LINE
  8
0
 10
-394.494324
 20
10.000004
 11
-394.494324
 21
-110.000000
  0
LINE
  8
0
 10
-391.994324
 20
28.200001
 11
-391.994324
 21
21.000008
  0
LINE
  8
0
 10
-378.994324
 20
28.200001
 11
-378.994324
 21
21.000008
  0
LINE
  8
0
 10
-379.794342
 20
29.000004
 11
-391.194336
 21
29.000004
  0
LINE
  8
0
 10
-378.994324
 20
28.200001
 11
-391.994324
 21
28.200001
  0
LINE
  8
0
 10
-391.994354
 20
28.200031
 11
-391.194366
 21
29.000044
  0
LINE
  8
0
 10
-378.994293
 20
28.200014
 11
-379.794312
 21
29.000019
  0
LINE
  8
0
 10
-381.494324
 20
12.000004
 11
-381.494324
 21
10.000004
  0
LINE
  8
0
 10
-389.494324
 20
12.000004
 11
-389.494324
 21
10.000004
  0
LINE
  8
0
 10
-382.170837
 20
12.000004
 11
-382.170837
 21
10.000004
  0
LINE
  8
0
 10
-388.817810
 20
12.000004
 11
-388.817810
 21
10.000004
  0
LINE
  8
0
 10
-322.494324
 20
26.000004
 11
-322.494324
 21
-24.999996
  0
LINE
  8
0
 10
-369.494324
 20
30.000004
 11
-324.494324
 21
30.000004
  0
LINE
  8
0
 10
-324.494324
 20
30.000004
 11
-324.494324
 21
-110.000000
  0
LINE
  8
0
 10
-322.494293
 20
26.000004
 11
-324.494293
 21
28.000019
  0
LINE
  8
0
  6
CENTER
 10
-370.494324
 20
25.000004
 11
-370.494324
 21
-2.999996
  0
LINE
  8
0
  6
CENTER
 10
-384.494324
 20
11.000004
 11
-328.494324
 21
11.000004
  0
LINE
  8
0
 10
-375.494354
 20
8.113276
 11
-370.494354
 21
5.226526
  0
LINE
  8
0
 10
-370.494354
 20
5.226504
 11
-365.494354
 21
8.113254
  0
LINE
  8
0
 10
-365.494293
 20
8.113243
 11
-365.494293
 21
13.886742
  0
LINE
  8
0
 10
-365.494324
 20
13.886751
 11
-370.494324
 21
16.773500
  0
LINE
  8
0
 10
-370.494354
 20
16.773594
 11
-375.494354
 21
13.886845
  0
LINE
  8
0
 10
-375.494293
 20
13.886772
 11
-375.494293
 21
8.113274
  0
LINE
  8
0
  6
CENTER
 10
-342.494324
 20
25.000004
 11
-342.494324
 21
-2.999996
  0
LINE
  8
0
 10
-347.494324
 20
8.113270
 11
-342.494354
 21
5.226521
  0
LINE
  8
0
 10
-342.494354
 20
5.226520
 11
-337.494354
 21
8.113269
  0
LINE
  8
0
 10
-337.494293
 20
8.113243
 11
-337.494293
 21
13.886742
  0
LINE
  8
0
 10
-337.494324
 20
13.886733
 11
-342.494324
 21
16.773483
  0
LINE
  8
0
 10
-342.494324
 20
16.773609
 11
-347.494324
 21
13.886860
  0
LINE
  8
0
 10
-347.494293
 20
13.886772
 11
-347.494293
 21
8.113274
  0
LINE
  8
0
 10
-394.494324
 20
10.000004
 11
-380.444183
 21
10.000004
  0
LINE
  8
0
 10
-392.494324
 20
12.000004
 11
-380.444183
 21
12.000004
  0
LINE
  8
0
 10
-392.494324
 20
21.000004
 11
-392.494324
 21
12.000004
  0
LINE
  8
0
 10
-392.494324
 20
21.000004
 11
-378.494324
 21
21.000004
  0
LINE
  8
0
 10
-369.494293
 20
29.999968
 11
-378.494293
 21
20.999958
  0
LINE
  8
0
  6
CENTER
 10
-385.494324
 20
34.000004
 11
-385.494324
 21
5.000004
  0
ARC
  8
0
 62
     5
 10
386.130402
 20
-332.404785
 40
3.128082
 50
0.000000
 51
90.000000
  0
ARC
  8
0
 62
     5
 10
411.937195
 20
-349.218353
 40
3.128082
 50
270.000000
 51
0.000000
  0
ARC
  8
0
 62
     5
 10
410.373047
 20
-333.968781
 40
4.692139
 50
0.000000
 51
90.000000
  0
ARC
  8
0
 62
     5
 10
438.916931
 20
-332.404785
 40
3.128082
 50
0.000000
 51
90.000000
  0
ARC
  8
0
 62
     5
 10
438.916931
 20
-334.903870
 40
3.128100
 50
294.999969
 51
0.000000
  0
ARC
  8
0
 62
     5
 10
463.159668
 20
-329.276672
 40
4.692149
 50
291.688202
 51
0.000000
  0
ARC
  8
0
 62
     5
 10
461.595520
 20
-328.215485
 40
1.564059
 50
291.688049
 51
0.000000
  0
ARC
  8
0
 10
-97.994400
 20
-9.999992
 40
4.000000
 50
179.999985
 51
0.000000
  0
CIRCLE
  8
0
 10
168.505600
 20
-102.999985
 40
6.500000
  0
ARC
  8
0
 10
-97.994400
 20
-7.999992
 40
4.000000
 50
0.000000
 51
179.999969
  0
CIRCLE
  8
0
 10
-155.494400
 20
-72.499985
 40
4.500000
  0
CIRCLE
  8
0
 10
-155.494400
 20
-72.499985
 40
7.000000
  0
CIRCLE
  8
0
 10
-155.494400
 20
-7.499992
 40
7.000000
  0
CIRCLE
  8
0
 10
-155.494400
 20
-7.499992
 40
4.500000
  0
CIRCLE
  8
0
 10
159.505600
 20
-72.499985
 40
7.000000
  0
CIRCLE
  8
0
 10
159.505600
 20
-72.499985
 40
4.500000
  0
CIRCLE
  8
0
 10
159.505600
 20
-7.499992
 40
7.000000
  0
CIRCLE
  8
0
 10
159.505600
 20
-7.499992
 40
4.500000
  0
ARC
  8
0
 10
168.505600
 20
-102.999985
 40
7.000000
 50
0.000000
 51
179.999939
  0
CIRCLE
  8
0
 10
-125.494400
 20
-70.999985
 40
4.000000
  0
CIRCLE
  8
0
 10
-125.494400
 20
-70.999985
 40
3.323500
  0
CIRCLE
  8
0
 10
-125.494400
 20
-8.999992
 40
4.000000
  0
CIRCLE
  8
0
 10
-125.494400
 20
-8.999992
 40
3.323500
  0
CIRCLE
  8
0
 10
-70.494400
 20
-70.999985
 40
4.000000
  0
CIRCLE
  8
0
 10
-70.494400
 20
-70.999985
 40
3.323500
  0
CIRCLE
  8
0
 10
-70.494400
 20
-8.999992
 40
4.000000
  0
CIRCLE
  8
0
 10
-70.494400
 20
-8.999992
 40
3.323500
  0
CIRCLE
  8
0
 10
-97.994400
 20
-70.999985
 40
4.000000
  0
ARC
  8
0
 10
-21.834152
 20
188.000031
 40
28.660244
 50
162.412048
 51
197.588013
  0
ARC
  8
0
 10
-42.826935
 20
175.009644
 40
7.667465
 50
145.615768
 51
180.000000
  0
ARC
  8
0
 10
-42.826935
 20
200.990387
 40
7.667465
 50
180.000107
 51
214.384369
  0
CIRCLE
  8
0
 10
-164.494400
 20
203.000000
 40
6.500000
  0
CIRCLE
  8
0
 10
168.505600
 20
203.000000
 40
6.500000
  0
ARC
  8
0
 10
-72.354645
 20
188.000031
 40
28.660242
 50
342.412018
 51
17.587950
  0
ARC
  8
0
 10
-51.361862
 20
175.009644
 40
7.667465
 50
0.000000
 51
34.384235
  0
ARC
  8
0
 10
-51.361862
 20
200.990387
 40
7.667462
 50
325.615753
 51
0.000000
  0
CIRCLE
  8
0
 10
340.505585
 20
10.999989
 40
9.188000
  0
CIRCLE
  8
0
 10
340.505585
 20
10.999989
 40
10.000000
  0
CIRCLE
  8
0
 10
340.505585
 20
-91.000008
 40
7.500000
  0
CIRCLE
  8
0
 10
368.505585
 20
10.999989
 40
10.000000
  0
CIRCLE
  8
0
 10
368.505585
 20
10.999989
 40
9.188000
  0
CIRCLE
  8
0
 10
168.505600
 20
-279.999969
 40
5.722500
  0
CIRCLE
  8
0
 10
168.505600
 20
-279.999969
 40
6.578500
  0
CIRCLE
  8
0
 10
-164.494400
 20
-255.999954
 40
6.578500
  0
CIRCLE
  8
0
 10
-164.494400
 20
-255.999954
 40
5.722500
  0
CIRCLE
  8
0
 10
-164.494400
 20
-279.999969
 40
6.578500
  0
CIRCLE
  8
0
 10
-164.494400
 20
-279.999969
 40
5.722500
  0
CIRCLE
  8
0
 10
-342.494324
 20
11.000004
 40
9.188000
  0
CIRCLE
  8
0
 10
-358.494324
 20
-80.999992
 40
6.578500
  0
CIRCLE
  8
0
 10
-358.494324
 20
-80.999992
 40
5.722500
  0
CIRCLE
  8
0
 10
-382.494324
 20
-80.999992
 40
6.578500
  0
CIRCLE
  8
0
 10
-382.494324
 20
-80.999992
 40
5.722500
  0
CIRCLE
  8
0
 10
-342.494324
 20
-90.999992
 40
10.000000
  0
CIRCLE
  8
0
 10
-342.494324
 20
-90.999992
 40
9.188000
  0
CIRCLE
  8
0
 10
-370.494324
 20
11.000004
 40
10.000000
  0
CIRCLE
  8
0
 10
-370.494324
 20
11.000004
 40
9.188000
  0
CIRCLE
  8
0
 10
-342.494324
 20
11.000004
 40
10.000000
  0
TEXT
  8
0
 10
320.176178
 20
329.975403
 40
12.000000
  1
DATE : SEP ,1991
 50
0.000000
 41
1.052631
 51
0.000000
  7
STANDARD
  0
TEXT
  8
0
 10
-488.244446
 20
328.175323
 40
14.000000
  1
RODLESS CYLINDER
 50
0.000000
 41
1.052632
 51
0.000000
  7
STANDARD
  0
TEXT
  8
0
 10
-493.244446
 20
267.950592
 40
14.000000
  1
MODEL : MRG* 40xSt-K(200)
 50
0.000000
 41
1.052632
 51
0.000000
  7
STANDARD
  0
TEXT
  8
0
 10
-274.623383
 20
-192.500031
 40
10.000000
  1
5-Rc1/4
 50
0.000000
 41
1.052632
 51
0.000000
  7
STANDARD
  0
TEXT
  8
0
 10
-29.335793
 20
59.500015
 40
10.000000
  1
4-M8x1.25
 50
0.000000
 41
1.052632
 51
0.000000
  7
STANDARD
  0
TEXT
  8
0
 10
-159.301544
 20
-274.879974
 40
3.200000
  1
B
 50
0.000000
 41
1.052632
 51
0.000000
  7
STANDARD
  0
TEXT
  8
0
 10
-159.301544
 20
-250.879959
 40
3.200000
  1
A
 50
0.000000
 41
1.052632
 51
0.000000
  7
STANDARD
  0
TEXT
  8
0
 10
-377.374329
 20
-72.192848
 40
3.200000
  1
B
 50
-90.000000
 41
1.052632
 51
0.000000
  7
STANDARD
  0
TEXT
  8
0
 10
-353.374329
 20
-72.192848
 40
3.200000
  1
A
 50
-90.000000
 41
1.052632
 51
0.000000
  7
STANDARD
  0
ENDSEC
  0
EOF
