  0
SECTION
  2
HEADER
  0
ENDSEC
  0
SECTION
  2
TABLES
  0
TABLE
  2
LTYPE
 70
     4
  0
LTYPE
  2
CONTINUOUS
 70
    64
  3
Solid line
 72
    65
 73
     0
 40
0.000000
  0
LTYPE
  2
DASHED
 70
    64
  3
__ __ __ __ __ __ __ __ __ __ __ __ __ __ __
 72
    65
 73
     2
 40
3.500000
 49
2.000000
 49
-1.500000
  0
LTYPE
  2
CENTER
 70
    64
  3
____ _ ____ _ ____ _ ____ _ ____ _ ____ _ ____
 72
    65
 73
     4
 40
17.500000
 49
13.000000
 49
-1.500000
 49
1.500000
 49
-1.500000
  0
LTYPE
  2
PHANTOM
 70
    64
  3
_____ _ _ _____ _ _ _____ _ _ _____ _ _ ____  
 72
    65
 73
     6
 40
15.500000
 49
8.000000
 49
-1.500000
 49
1.500000
 49
-1.500000
 49
1.500000
 49
-1.500000
  0
LTYPE
  2
DASHED1
 70
    64
  3
__ __ __ __ __ __ __ __ __ __ __ __ __ __ __
 72
    65
 73
     2
 40
1.500000
 49
1.000000
 49
-0.500000
  0
LTYPE
  2
DASHED2
 70
    64
  3
__ __ __ __ __ __ __ __ __ __ __ __ __ __ __
 72
    65
 73
     2
 40
3.500000
 49
2.500000
 49
-1.000000
  0
LTYPE
  2
DASHED3
 70
    64
  3
__ __ __ __ __ __ __ __ __ __ __ __ __ __ __
 72
    65
 73
     2
 40
6.000000
 49
4.000000
 49
-2.000000
  0
LTYPE
  2
DASHED4
 70
    64
  3
__ __ __ __ __ __ __ __ __ __ __ __ __ __ __
 72
    65
 73
     2
 40
12.000000
 49
10.000000
 49
-2.000000
  0
LTYPE
  2
DASHED5
 70
    64
  3
__ __ __ __ __ __ __ __ __ __ __ __ __ __ __
 72
    65
 73
     2
 40
17.000000
 49
15.000000
 49
-2.000000
  0
LTYPE
  2
DASHED6
 70
    64
  3
__ __ __ __ __ __ __ __ __ __ __ __ __ __ __
 72
    65
 73
     2
 40
29.000000
 49
27.000000
 49
-2.000000
  0
LTYPE
  2
PHANTOM1
 70
    64
  3
_____ _ _ _____ _ _ _____ _ _ _____ _ _ ____  
 72
    65
 73
     6
 40
31.000000
 49
25.000000
 49
-1.500000
 49
1.000000
 49
-1.000000
 49
1.000000
 49
-1.500000
  0
LTYPE
  2
PHANTOM2
 70
    64
  3
_____ _ _ _____ _ _ _____ _ _ _____ _ _ ____  
 72
    65
 73
     6
 40
36.000000
 49
27.000000
 49
-1.500000
 49
2.500000
 49
-1.000000
 49
2.500000
 49
-1.500000
  0
LTYPE
  2
PHANTOM3
 70
    64
  3
_____ _ _ _____ _ _ _____ _ _ _____ _ _ ____  
 72
    65
 73
     6
 40
78.000000
 49
64.000000
 49
-2.000000
 49
4.000000
 49
-2.000000
 49
4.000000
 49
-2.000000
  0
LTYPE
  2
CENTER1
 70
    64
  3
____ _ ____ _ ____ _ ____ _ ____ _ ____ _ ____
 72
    65
 73
     4
 40
19.000000
 49
14.000000
 49
-1.000000
 49
3.000000
 49
-1.000000
  0
LTYPE
  2
CENTER2
 70
    64
  3
____ _ ____ _ ____ _ ____ _ ____ _ ____ _ ____
 72
    65
 73
     4
 40
28.500000
 49
25.000000
 49
-1.000000
 49
1.500000
 49
-1.000000
  0
LTYPE
  2
CENTER3
 70
    64
  3
____ _ ____ _ ____ _ ____ _ ____ _ ____ _ ____
 72
    65
 73
     4
 40
31.500000
 49
27.000000
 49
-1.000000
 49
2.500000
 49
-1.000000
  0
LTYPE
  2
CENTER4
 70
    64
  3
____ _ ____ _ ____ _ ____ _ ____ _ ____ _ ____
 72
    65
 73
     4
 40
50.000000
 49
45.000000
 49
-1.000000
 49
3.000000
 49
-1.000000
  0
LTYPE
  2
CENTER5
 70
    64
  3
____ _ ____ _ ____ _ ____ _ ____ _ ____ _ ____
 72
    65
 73
     4
 40
100.000000
 49
92.000000
 49
-2.000000
 49
4.000000
 49
-2.000000
  0
LTYPE
  2
SBK1
 70
    64
  3
______ _ _ _ ______ _ _ _ ______ _ _ _ _____  
 72
    65
 73
     8
 40
60.500000
 49
45.000000
 49
-2.000000
 49
2.500000
 49
-2.000000
 49
2.500000
 49
-2.000000
 49
2.500000
 49
-2.000000
  0
LTYPE
  2
SBK2
 70
    64
  3
______ _ _ _ ______ _ _ _ ______ _ _ _ _____  
 72
    65
 73
     8
 40
84.000000
 49
64.000000
 49
-2.000000
 49
4.000000
 49
-2.000000
 49
4.000000
 49
-2.000000
 49
4.000000
 49
-2.000000
  0
LTYPE
  2
STCH
 70
    64
  3
__ __ __ __ __ __ __ __ __ __ __ __ __ __ __
 72
    65
 73
     2
 40
3.000000
 49
1.000000
 49
-2.000000
  0
LTYPE
  2
MTCH
 70
    64
  3
_____ _ _ _____ _ _ _____ _ _ _____ _ _ ____  
 72
    65
 73
     6
 40
80.000000
 49
66.000000
 49
-2.000000
 49
4.000000
 49
-2.000000
 49
4.000000
 49
-2.000000
  0
ENDTAB
  0
TABLE
  2
LAYER
 70
     1
  0
LAYER
  2
0
 70
     0
 62
     7
  6
CONTINUOUS
  0
ENDTAB
  0
TABLE
  2
STYLE
 70
     1
  0
STYLE
  2
STANDARD
 70
     0
 40
0.000000
 41
1.000000
 50
0.000000
 71
     0
 42
0.200000
  3
txt
  4
BIGFONT
  0
ENDTAB
  0
TABLE
  2
VIEW
 70
     0
  0
ENDTAB
  0
ENDSEC
  0
SECTION
  2
BLOCKS
  0
ENDSEC
  0
SECTION
  2
ENTITIES
  0
LINE
  8
0
  6
CENTER
 62
     2
 10
-73.676361
 20
-64.736710
 11
-73.676361
 21
-98.960480
  0
LINE
  8
0
 62
     4
 10
-73.670151
 20
-81.925934
 11
-73.670151
 21
-78.725937
  0
LINE
  8
0
 62
     4
 10
-67.670151
 20
-81.925934
 11
-67.670151
 21
-78.725937
  0
LINE
  8
0
 62
     4
 10
-52.670151
 20
-81.925934
 11
-52.670151
 21
-78.725937
  0
LINE
  8
0
 62
     4
 10
-51.170151
 20
-81.515938
 11
-51.170151
 21
-79.135941
  0
LINE
  8
0
 62
     4
 10
-52.670151
 20
-81.925941
 11
-51.170155
 21
-81.515938
  0
LINE
  8
0
 62
     4
 10
-52.670158
 20
-78.725945
 11
-51.170147
 21
-79.135948
  0
LINE
  8
0
 62
     4
 10
-51.170151
 20
-81.515938
 11
-45.114578
 21
-81.515938
  0
LINE
  8
0
 62
     4
 10
-51.170151
 20
-79.135941
 11
-45.114578
 21
-79.135941
  0
LINE
  8
0
 62
     4
 10
-71.450150
 20
-81.095932
 11
-69.900154
 21
-79.555931
  0
LINE
  8
0
 62
     4
 10
-71.450150
 20
-79.555939
 11
-69.900154
 21
-81.095932
  0
LINE
  8
0
 62
     4
 10
76.329849
 20
-81.925934
 11
76.329849
 21
-78.725937
  0
LINE
  8
0
 62
     4
 10
82.329849
 20
-81.925934
 11
82.329849
 21
-78.725937
  0
LINE
  8
0
 62
     4
 10
97.329849
 20
-81.925934
 11
97.329849
 21
-78.725937
  0
LINE
  8
0
 62
     4
 10
98.829849
 20
-81.515938
 11
98.829849
 21
-79.135941
  0
LINE
  8
0
 62
     4
 10
97.329849
 20
-81.925941
 11
98.829849
 21
-81.515945
  0
LINE
  8
0
 62
     4
 10
97.329849
 20
-78.725945
 11
98.829849
 21
-79.135941
  0
LINE
  8
0
 62
     4
 10
98.829849
 20
-81.515938
 11
104.885513
 21
-81.515938
  0
LINE
  8
0
 62
     4
 10
98.829849
 20
-79.135941
 11
104.885513
 21
-79.135941
  0
LINE
  8
0
 62
     4
 10
78.549843
 20
-81.095940
 11
80.099846
 21
-79.555946
  0
LINE
  8
0
 62
     4
 10
78.549850
 20
-79.555931
 11
80.099838
 21
-81.095932
  0
LINE
  8
0
 10
95.323639
 20
-74.566696
 11
98.823639
 21
-74.566696
  0
LINE
  8
0
 10
98.823639
 20
-74.566696
 11
98.823639
 21
-75.816696
  0
LINE
  8
0
 10
145.323639
 20
-69.316696
 11
145.323639
 21
-97.316696
  0
LINE
  8
0
 10
-142.676361
 20
-69.316696
 11
-142.676361
 21
-97.316696
  0
LINE
  8
0
 10
145.323639
 20
-69.316696
 11
156.323639
 21
-69.316696
  0
LINE
  8
0
 10
-153.676361
 20
-69.316696
 11
-142.676361
 21
-69.316696
  0
LINE
  8
0
 10
132.323639
 20
-69.316696
 11
132.323639
 21
-70.816696
  0
LINE
  8
0
 10
132.323639
 20
-69.316696
 11
139.323639
 21
-69.316696
  0
LINE
  8
0
 10
139.323639
 20
-69.316696
 11
139.323639
 21
-70.816696
  0
LINE
  8
0
 10
-136.676361
 20
-69.316696
 11
-136.676361
 21
-70.816696
  0
LINE
  8
0
 10
-136.676361
 20
-69.316696
 11
-129.676361
 21
-69.316696
  0
LINE
  8
0
 10
-129.676361
 20
-69.316696
 11
-129.676361
 21
-70.816696
  0
LINE
  8
0
 10
95.323639
 20
-74.566696
 11
95.323639
 21
-75.816696
  0
LINE
  8
0
 10
99.573639
 20
-73.816696
 11
99.573639
 21
-75.816696
  0
LINE
  8
0
 10
98.823624
 20
-74.566704
 11
99.573631
 21
-73.816696
  0
LINE
  8
0
 62
     2
 10
126.323639
 20
-74.566696
 11
98.823639
 21
-74.566696
  0
LINE
  8
0
 10
126.323639
 20
-73.816696
 11
99.573639
 21
-73.816696
  0
LINE
  8
0
 10
126.323639
 20
-70.816696
 11
126.323639
 21
-75.816696
  0
LINE
  8
0
 10
126.323639
 20
-70.816696
 11
145.323639
 21
-70.816696
  0
LINE
  8
0
 62
     2
 10
-123.676361
 20
-74.566696
 11
-118.676361
 21
-74.566696
  0
LINE
  8
0
 10
-123.676361
 20
-73.816696
 11
-118.676361
 21
-73.816696
  0
LINE
  8
0
 10
-123.676361
 20
-70.816696
 11
-123.676361
 21
-75.816696
  0
LINE
  8
0
 10
-142.676361
 20
-70.816696
 11
-123.676361
 21
-70.816696
  0
LINE
  8
0
 10
145.323639
 20
-88.816696
 11
156.323639
 21
-88.816696
  0
LINE
  8
0
 10
145.323639
 20
-77.816696
 11
156.323639
 21
-77.816696
  0
LINE
  8
0
 10
-142.676361
 20
-88.816696
 11
-153.676361
 21
-88.816696
  0
LINE
  8
0
 10
-142.676361
 20
-77.816696
 11
-153.676361
 21
-77.816696
  0
LINE
  8
0
 10
-31.676361
 20
-74.816696
 11
-31.676361
 21
-75.816696
  0
LINE
  8
0
 10
-65.676361
 20
-74.816696
 11
-65.676361
 21
-75.816696
  0
LINE
  8
0
 10
-81.676361
 20
-74.816696
 11
-81.676361
 21
-75.816696
  0
LINE
  8
0
 10
-115.676361
 20
-74.816696
 11
-115.676361
 21
-75.816696
  0
LINE
  8
0
 10
-28.676361
 20
-74.816696
 11
-118.676361
 21
-74.816696
  0
LINE
  8
0
 10
-118.676361
 20
-67.316696
 11
-118.676361
 21
-74.816696
  0
LINE
  8
0
 10
-28.676361
 20
-67.316696
 11
-28.676361
 21
-74.816696
  0
LINE
  8
0
 10
-118.676361
 20
-67.316696
 11
-28.676361
 21
-67.316696
  0
LINE
  8
0
 10
-142.676361
 20
-81.916695
 11
145.323639
 21
-81.916695
  0
LINE
  8
0
 10
-142.676361
 20
-78.716705
 11
145.323639
 21
-78.716705
  0
LINE
  8
0
 10
-142.676361
 20
-75.816696
 11
145.323639
 21
-75.816696
  0
LINE
  8
0
 10
156.323639
 20
-97.316696
 11
156.323639
 21
-69.316696
  0
LINE
  8
0
 10
-153.676361
 20
-97.316696
 11
156.323639
 21
-97.316696
  0
LINE
  8
0
 10
-153.676361
 20
-69.316696
 11
-153.676361
 21
-97.316696
  0
LINE
  8
0
  6
CENTER
 62
     2
 10
-148.676361
 20
-101.316696
 11
-148.676361
 21
-93.316696
  0
LINE
  8
0
  6
PHANTOM
 62
     3
 10
17.830276
 20
-115.332657
 11
17.830276
 21
-28.728943
  0
LINE
  8
0
  6
CENTER
 62
     2
 10
216.843628
 20
57.683289
 11
228.863617
 21
57.683289
  0
LINE
  8
0
  6
DASHED
 62
     2
 10
223.823624
 20
55.433289
 11
226.323624
 21
55.433289
  0
LINE
  8
0
  6
DASHED
 62
     2
 10
223.823624
 20
61.933289
 11
223.823624
 21
53.433289
  0
LINE
  8
0
  6
DASHED
 62
     2
 10
220.123627
 20
53.433289
 11
223.823624
 21
53.433289
  0
LINE
  8
0
  6
DASHED
 62
     2
 10
220.123627
 20
53.433289
 11
220.123627
 21
55.433289
  0
LINE
  8
0
  6
DASHED
 62
     2
 10
219.123627
 20
55.433289
 11
220.123627
 21
55.433289
  0
LINE
  8
0
  6
DASHED
 62
     2
 10
219.123627
 20
59.933289
 11
220.123627
 21
59.933289
  0
LINE
  8
0
  6
DASHED
 62
     2
 10
220.123627
 20
61.933289
 11
220.123627
 21
59.933289
  0
LINE
  8
0
  6
DASHED
 62
     2
 10
220.123627
 20
61.933289
 11
223.823624
 21
61.933289
  0
LINE
  8
0
  6
DASHED
 62
     2
 10
223.823624
 20
59.933289
 11
226.323624
 21
59.933289
  0
LINE
  8
0
  6
DASHED
 62
     2
 10
219.123627
 20
59.933289
 11
219.123627
 21
55.433289
  0
LINE
  8
0
  6
CENTER
 62
     2
 10
217.243622
 20
23.683289
 11
228.863617
 21
23.683289
  0
LINE
  8
0
  6
DASHED
 62
     2
 10
223.823624
 20
21.433289
 11
226.323624
 21
21.433289
  0
LINE
  8
0
  6
DASHED
 62
     2
 10
223.823624
 20
27.933289
 11
223.823624
 21
19.433289
  0
LINE
  8
0
  6
DASHED
 62
     2
 10
220.123627
 20
19.433289
 11
223.823624
 21
19.433289
  0
LINE
  8
0
  6
DASHED
 62
     2
 10
220.123627
 20
19.433289
 11
220.123627
 21
21.433289
  0
LINE
  8
0
  6
DASHED
 62
     2
 10
219.123627
 20
21.433289
 11
220.123627
 21
21.433289
  0
LINE
  8
0
  6
DASHED
 62
     2
 10
219.123627
 20
25.933289
 11
220.123627
 21
25.933289
  0
LINE
  8
0
  6
DASHED
 62
     2
 10
220.123627
 20
27.933289
 11
220.123627
 21
25.933289
  0
LINE
  8
0
  6
DASHED
 62
     2
 10
220.123627
 20
27.933289
 11
223.823624
 21
27.933289
  0
LINE
  8
0
  6
DASHED
 62
     2
 10
223.823624
 20
25.933289
 11
226.323624
 21
25.933289
  0
LINE
  8
0
  6
DASHED
 62
     2
 10
219.123627
 20
25.933289
 11
219.123627
 21
21.433289
  0
LINE
  8
0
  6
DASHED
 62
     2
 10
225.823624
 20
49.183289
 11
225.823624
 21
32.183289
  0
LINE
  8
0
  6
DASHED
 62
     2
 10
226.323624
 20
49.683296
 11
225.823624
 21
49.183296
  0
LINE
  8
0
  6
DASHED
 62
     2
 10
226.323624
 20
31.683298
 11
225.823624
 21
32.183300
  0
LINE
  8
0
  6
DASHED
 62
     2
 10
220.773621
 20
19.433289
 11
220.773621
 21
27.933289
  0
LINE
  8
0
  6
DASHED
 62
     2
 10
220.773621
 20
53.433289
 11
220.773621
 21
61.933289
  0
LINE
  8
0
 10
196.323624
 20
75.683289
 11
196.323624
 21
12.683289
  0
LINE
  8
0
 10
226.323624
 20
12.683289
 11
210.923630
 21
12.683289
  0
LINE
  8
0
 10
226.323624
 20
12.683289
 11
226.323624
 21
97.683289
  0
LINE
  8
0
 10
207.723633
 20
13.183289
 11
207.723633
 21
12.683289
  0
LINE
  8
0
 10
207.223633
 20
13.683302
 11
207.723633
 21
13.183301
  0
LINE
  8
0
 10
207.223633
 20
13.683289
 11
207.223633
 21
15.283295
  0
LINE
  8
0
 10
211.423630
 20
13.683289
 11
212.923630
 21
13.683289
  0
LINE
  8
0
 10
211.423630
 20
13.683298
 11
210.923630
 21
13.183296
  0
LINE
  8
0
 10
210.923630
 20
13.183289
 11
210.923630
 21
12.683289
  0
LINE
  8
0
 10
207.723633
 20
12.683289
 11
196.323624
 21
12.683289
  0
LINE
  8
0
 10
206.823624
 20
17.683289
 11
206.823624
 21
12.683289
  0
LINE
  8
0
 10
217.823624
 20
17.683289
 11
206.823624
 21
17.683289
  0
LINE
  8
0
  6
CENTER
 62
     2
 10
217.283630
 20
54.183289
 11
195.243637
 21
54.183289
  0
LINE
  8
0
 10
198.323624
 20
97.683289
 11
198.323624
 21
12.683289
  0
LINE
  8
0
 10
214.303619
 20
14.483292
 11
215.923630
 21
14.483292
  0
LINE
  8
0
 10
213.553619
 20
17.283295
 11
215.923630
 21
17.283295
  0
LINE
  8
0
 10
212.923630
 20
13.683294
 11
214.303635
 21
14.483297
  0
LINE
  8
0
 10
211.043625
 20
16.483292
 11
212.173630
 21
16.483292
  0
LINE
  8
0
 10
212.173630
 20
16.483288
 11
213.553635
 21
17.283291
  0
LINE
  8
0
 10
217.823624
 20
17.683289
 11
217.823624
 21
12.683289
  0
LINE
  8
0
 10
196.323624
 20
75.683289
 11
198.323624
 21
75.683289
  0
LINE
  8
0
  6
CENTER
 62
     2
 10
207.823624
 20
63.423294
 11
207.823624
 21
45.183289
  0
LINE
  8
0
 10
198.323624
 20
97.683289
 11
226.323624
 21
97.683289
  0
LINE
  8
0
 10
208.573624
 20
59.130249
 11
208.573624
 21
49.243301
  0
LINE
  8
0
 10
207.073624
 20
59.130157
 11
207.073624
 21
49.243393
  0
LINE
  8
0
 62
     4
 10
208.073624
 20
16.726776
 11
208.073624
 21
16.886780
  0
LINE
  8
0
 62
     4
 10
210.573624
 20
16.726318
 11
210.573624
 21
16.886780
  0
LINE
  8
0
  6
CENTER
 62
     1
 10
209.323624
 20
21.566772
 11
209.323624
 21
11.496780
  0
LINE
  8
0
  6
CENTER
 62
     1
 10
210.970062
 20
14.906769
 11
207.680634
 21
14.906769
  0
LINE
  8
0
 62
     4
 10
211.373627
 20
13.656791
 11
210.823608
 21
13.106782
  0
LINE
  8
0
 62
     4
 10
207.823624
 20
12.556778
 11
210.823624
 21
12.556778
  0
LINE
  8
0
 62
     1
 10
208.323624
 20
12.136780
 11
208.323624
 21
12.556778
  0
LINE
  8
0
 62
     4
 10
208.073624
 20
12.386780
 11
208.073624
 21
12.556778
  0
LINE
  8
0
 62
     4
 10
208.073624
 20
12.386773
 11
208.323624
 21
12.136781
  0
LINE
  8
0
 62
     4
 10
210.823624
 20
12.556778
 11
210.823624
 21
13.106781
  0
LINE
  8
0
 62
     1
 10
210.323624
 20
12.136780
 11
210.323624
 21
12.556778
  0
LINE
  8
0
 62
     4
 10
210.573624
 20
12.386780
 11
210.573624
 21
12.556778
  0
LINE
  8
0
 62
     4
 10
210.573624
 20
12.386785
 11
210.323624
 21
12.136776
  0
LINE
  8
0
 62
     4
 10
208.323624
 20
12.136780
 11
210.323624
 21
12.136780
  0
LINE
  8
0
 62
     4
 10
210.823624
 20
12.606781
 11
210.823624
 21
13.056778
  0
LINE
  8
0
  6
CENTER
 62
     1
 10
210.058914
 20
15.356781
 11
208.571213
 21
15.356781
  0
LINE
  8
0
  6
CENTER
 62
     1
 10
210.058914
 20
14.456772
 11
208.571213
 21
14.456772
  0
LINE
  8
0
 62
     4
 10
207.823624
 20
12.556778
 11
207.823624
 21
13.106781
  0
LINE
  8
0
 62
     4
 10
211.373627
 20
13.656769
 11
211.373627
 21
15.106781
  0
LINE
  8
0
 62
     4
 10
207.273636
 20
13.656769
 11
207.273636
 21
15.106781
  0
LINE
  8
0
 62
     4
 10
207.273621
 20
13.656780
 11
207.823624
 21
13.106783
  0
LINE
  8
0
 62
     1
 10
208.323624
 20
16.891495
 11
208.323624
 21
17.136780
  0
LINE
  8
0
 62
     4
 10
208.323624
 20
17.136780
 11
209.073395
 21
17.136780
  0
LINE
  8
0
 62
     4
 10
208.323624
 20
17.136761
 11
208.073624
 21
16.886770
  0
LINE
  8
0
 62
     4
 10
209.573868
 20
17.136780
 11
210.323624
 21
17.136780
  0
LINE
  8
0
 62
     1
 10
210.323624
 20
16.891159
 11
210.323624
 21
17.136780
  0
LINE
  8
0
 62
     4
 10
210.323624
 20
17.136782
 11
210.573624
 21
16.886774
  0
LINE
  8
0
  6
CENTER
 62
     2
 10
222.323624
 20
92.183289
 11
230.323624
 21
92.183289
  0
LINE
  8
0
 62
     4
 10
-215.175278
 20
12.556778
 11
-218.175262
 21
12.556778
  0
LINE
  8
0
 62
     4
 10
-218.725266
 20
13.656769
 11
-218.725266
 21
15.106781
  0
LINE
  8
0
 62
     4
 10
-214.625275
 20
13.656769
 11
-214.625275
 21
15.106781
  0
LINE
  8
0
 62
     4
 10
-215.175278
 20
12.556778
 11
-215.175278
 21
13.106781
  0
LINE
  8
0
 62
     4
 10
-218.175262
 20
12.556778
 11
-218.175262
 21
13.106781
  0
LINE
  8
0
 62
     4
 10
-214.625259
 20
13.656774
 11
-215.175262
 21
13.106776
  0
LINE
  8
0
 62
     4
 10
-218.725266
 20
13.656787
 11
-218.175262
 21
13.106789
  0
LINE
  8
0
 62
     4
 10
-214.625275
 20
14.356781
 11
-218.725266
 21
14.356781
  0
LINE
  8
0
 62
     4
 10
-214.775269
 20
14.456772
 11
-218.575272
 21
14.456772
  0
LINE
  8
0
 62
     4
 10
-218.675262
 20
14.556778
 11
-218.675262
 21
15.056778
  0
LINE
  8
0
 62
     4
 10
-214.675278
 20
14.556778
 11
-214.675278
 21
15.056778
  0
LINE
  8
0
 62
     4
 10
-214.775269
 20
15.156769
 11
-218.575272
 21
15.156769
  0
LINE
  8
0
 62
     1
 10
-217.675278
 20
12.136780
 11
-217.675278
 21
12.556778
  0
LINE
  8
0
 62
     1
 10
-215.675278
 20
12.136780
 11
-215.675278
 21
12.556778
  0
LINE
  8
0
 62
     4
 10
-215.675278
 20
12.136780
 11
-217.675278
 21
12.136780
  0
LINE
  8
0
 62
     4
 10
-215.675278
 20
17.136780
 11
-217.675278
 21
17.136780
  0
LINE
  8
0
 62
     4
 10
-215.425247
 20
12.386781
 11
-215.675278
 21
12.136768
  0
LINE
  8
0
 62
     4
 10
-217.675262
 20
17.136780
 11
-217.925262
 21
16.886787
  0
LINE
  8
0
 62
     4
 10
-217.925278
 20
12.386760
 11
-217.675278
 21
12.136767
  0
LINE
  8
0
 62
     4
 10
-215.675278
 20
17.136778
 11
-215.425262
 21
16.886778
  0
LINE
  8
0
 62
     4
 10
-215.425278
 20
15.156769
 11
-215.425278
 21
16.886780
  0
LINE
  8
0
 62
     1
 10
-215.675278
 20
15.156769
 11
-215.675278
 21
17.136780
  0
LINE
  8
0
 62
     1
 10
-217.675278
 20
15.156769
 11
-217.675278
 21
17.136780
  0
LINE
  8
0
 62
     4
 10
-217.925262
 20
15.156769
 11
-217.925262
 21
16.886780
  0
LINE
  8
0
 62
     4
 10
-215.425278
 20
12.386780
 11
-215.425278
 21
12.556778
  0
LINE
  8
0
 62
     1
 10
-215.675278
 20
14.356781
 11
-215.675278
 21
14.456772
  0
LINE
  8
0
 62
     1
 10
-217.675278
 20
14.356781
 11
-217.675278
 21
14.456772
  0
LINE
  8
0
 62
     4
 10
-217.925262
 20
12.386780
 11
-217.925262
 21
12.556778
  0
LINE
  8
0
 62
     4
 10
-215.425278
 20
14.356781
 11
-215.425278
 21
14.456772
  0
LINE
  8
0
 62
     4
 10
-217.925262
 20
14.356781
 11
-217.925262
 21
14.456772
  0
LINE
  8
0
 10
-214.426361
 20
59.130157
 11
-214.426361
 21
49.243393
  0
LINE
  8
0
 10
-215.926361
 20
59.130249
 11
-215.926361
 21
49.243301
  0
LINE
  8
0
 10
-205.676361
 20
97.683289
 11
-233.676361
 21
97.683289
  0
LINE
  8
0
  6
CENTER
 62
     2
 10
-215.176361
 20
63.423294
 11
-215.176361
 21
45.183289
  0
LINE
  8
0
  6
CENTER
 62
     2
 10
-219.176361
 20
85.911232
 11
-219.176361
 21
76.529602
  0
LINE
  8
0
  6
CENTER
 62
     2
 10
-223.676361
 20
80.683289
 11
-214.676361
 21
80.683289
  0
LINE
  8
0
 10
-203.676361
 20
75.683289
 11
-205.676361
 21
75.683289
  0
LINE
  8
0
 10
-225.176361
 20
17.683289
 11
-225.176361
 21
12.683289
  0
LINE
  8
0
 10
-219.526367
 20
16.483286
 11
-220.906372
 21
17.283289
  0
LINE
  8
0
 10
-218.396362
 20
16.483292
 11
-219.526367
 21
16.483292
  0
LINE
  8
0
 10
-220.276352
 20
13.683293
 11
-221.656357
 21
14.483296
  0
LINE
  8
0
 10
-220.906357
 20
17.283295
 11
-223.276367
 21
17.283295
  0
LINE
  8
0
 10
-221.656357
 20
14.483292
 11
-223.276367
 21
14.483292
  0
LINE
  8
0
  6
CENTER
 62
     2
 10
-228.176361
 20
62.183289
 11
-219.176361
 21
62.183289
  0
LINE
  8
0
  6
CENTER
 62
     2
 10
-223.676361
 20
67.391296
 11
-223.676361
 21
58.063492
  0
LINE
  8
0
 10
-205.676361
 20
97.683289
 11
-205.676361
 21
12.683289
  0
LINE
  8
0
  6
CENTER
 62
     2
 10
-224.636368
 20
54.183289
 11
-202.596375
 21
54.183289
  0
LINE
  8
0
 10
-225.176361
 20
17.683289
 11
-214.176361
 21
17.683289
  0
LINE
  8
0
 10
-214.176361
 20
17.683289
 11
-214.176361
 21
12.683289
  0
LINE
  8
0
  6
CENTER
 62
     1
 10
-216.676361
 20
18.463303
 11
-216.676361
 21
10.533295
  0
LINE
  8
0
 10
-215.076370
 20
12.683289
 11
-203.676361
 21
12.683289
  0
LINE
  8
0
 10
-218.276367
 20
13.183289
 11
-218.276367
 21
12.683289
  0
LINE
  8
0
 10
-218.776382
 20
13.683305
 11
-218.276382
 21
13.183304
  0
LINE
  8
0
 10
-218.776367
 20
13.683289
 11
-220.276367
 21
13.683289
  0
LINE
  8
0
 10
-214.576370
 20
13.683289
 11
-214.576370
 21
15.283295
  0
LINE
  8
0
 10
-214.576385
 20
13.683294
 11
-215.076385
 21
13.183293
  0
LINE
  8
0
 10
-215.076370
 20
13.183289
 11
-215.076370
 21
12.683289
  0
LINE
  8
0
 10
-233.676361
 20
12.683289
 11
-233.676361
 21
97.683289
  0
LINE
  8
0
 10
-233.676361
 20
12.683289
 11
-218.276367
 21
12.683289
  0
LINE
  8
0
 10
-203.676361
 20
75.683289
 11
-203.676361
 21
12.683289
  0
LINE
  8
0
  6
DASHED
 62
     2
 10
-228.126358
 20
53.433289
 11
-228.126358
 21
61.933289
  0
LINE
  8
0
  6
DASHED
 62
     2
 10
-228.126358
 20
19.433289
 11
-228.126358
 21
27.933289
  0
LINE
  8
0
  6
DASHED
 62
     2
 10
-233.676376
 20
31.683306
 11
-233.176376
 21
32.183308
  0
LINE
  8
0
  6
DASHED
 62
     2
 10
-233.676361
 20
49.683304
 11
-233.176361
 21
49.183304
  0
LINE
  8
0
  6
DASHED
 62
     2
 10
-233.176361
 20
49.183289
 11
-233.176361
 21
32.183289
  0
LINE
  8
0
  6
DASHED
 62
     2
 10
-226.476364
 20
25.933289
 11
-226.476364
 21
21.433289
  0
LINE
  8
0
  6
DASHED
 62
     2
 10
-231.176361
 20
25.933289
 11
-233.676361
 21
25.933289
  0
LINE
  8
0
  6
DASHED
 62
     2
 10
-227.476364
 20
27.933289
 11
-231.176361
 21
27.933289
  0
LINE
  8
0
  6
DASHED
 62
     2
 10
-227.476364
 20
27.933289
 11
-227.476364
 21
25.933289
  0
LINE
  8
0
  6
DASHED
 62
     2
 10
-226.476364
 20
25.933289
 11
-227.476364
 21
25.933289
  0
LINE
  8
0
  6
DASHED
 62
     2
 10
-226.476364
 20
21.433289
 11
-227.476364
 21
21.433289
  0
LINE
  8
0
  6
DASHED
 62
     2
 10
-227.476364
 20
19.433289
 11
-227.476364
 21
21.433289
  0
LINE
  8
0
  6
DASHED
 62
     2
 10
-227.476364
 20
19.433289
 11
-231.176361
 21
19.433289
  0
LINE
  8
0
  6
DASHED
 62
     2
 10
-231.176361
 20
27.933289
 11
-231.176361
 21
19.433289
  0
LINE
  8
0
  6
DASHED
 62
     2
 10
-231.176361
 20
21.433289
 11
-233.676361
 21
21.433289
  0
LINE
  8
0
  6
CENTER
 62
     2
 10
-224.596359
 20
23.683289
 11
-236.216354
 21
23.683289
  0
LINE
  8
0
  6
DASHED
 62
     2
 10
-226.476364
 20
59.933289
 11
-226.476364
 21
55.433289
  0
LINE
  8
0
  6
DASHED
 62
     2
 10
-231.176361
 20
59.933289
 11
-233.676361
 21
59.933289
  0
LINE
  8
0
  6
DASHED
 62
     2
 10
-227.476364
 20
61.933289
 11
-231.176361
 21
61.933289
  0
LINE
  8
0
  6
DASHED
 62
     2
 10
-227.476364
 20
61.933289
 11
-227.476364
 21
59.933289
  0
LINE
  8
0
  6
DASHED
 62
     2
 10
-226.476364
 20
59.933289
 11
-227.476364
 21
59.933289
  0
LINE
  8
0
  6
DASHED
 62
     2
 10
-226.476364
 20
55.433289
 11
-227.476364
 21
55.433289
  0
LINE
  8
0
  6
DASHED
 62
     2
 10
-227.476364
 20
53.433289
 11
-227.476364
 21
55.433289
  0
LINE
  8
0
  6
DASHED
 62
     2
 10
-227.476364
 20
53.433289
 11
-231.176361
 21
53.433289
  0
LINE
  8
0
  6
DASHED
 62
     2
 10
-231.176361
 20
61.933289
 11
-231.176361
 21
53.433289
  0
LINE
  8
0
  6
DASHED
 62
     2
 10
-231.176361
 20
55.433289
 11
-233.676361
 21
55.433289
  0
LINE
  8
0
  6
CENTER
 62
     2
 10
-224.196365
 20
57.683289
 11
-236.216354
 21
57.683289
  0
LINE
  8
0
  6
CENTER
 62
     2
 10
-237.676361
 20
92.183289
 11
-229.676361
 21
92.183289
  0
LINE
  8
0
  6
CENTER
 62
     1
 10
-77.176361
 20
64.686768
 11
-70.126373
 21
64.686768
  0
LINE
  8
0
  6
CENTER
 62
     1
 10
-77.236374
 20
62.686768
 11
-70.216370
 21
62.686768
  0
LINE
  8
0
 62
     4
 10
-75.676361
 20
64.686768
 11
-75.676361
 21
62.686768
  0
LINE
  8
0
 62
     4
 10
-71.676361
 20
64.686768
 11
-71.676361
 21
62.686768
  0
LINE
  8
0
 10
-134.676361
 20
63.326782
 11
-133.176361
 21
62.456783
  0
LINE
  8
0
 10
-133.176376
 20
65.916779
 11
-131.676361
 21
65.046768
  0
LINE
  8
0
 10
-133.176361
 20
62.456776
 11
-131.676361
 21
63.326775
  0
LINE
  8
0
 10
-134.676361
 20
65.046783
 11
-133.176361
 21
65.916779
  0
LINE
  8
0
 10
-131.676361
 20
65.046768
 11
-131.676361
 21
63.326782
  0
LINE
  8
0
 10
-134.676361
 20
65.046768
 11
-134.676361
 21
63.326782
  0
LINE
  8
0
 10
-130.176361
 20
43.826771
 11
-128.676361
 21
42.956776
  0
LINE
  8
0
 10
-128.676361
 20
46.416779
 11
-127.176361
 21
45.546780
  0
LINE
  8
0
 10
-128.676361
 20
42.956768
 11
-127.176369
 21
43.826767
  0
LINE
  8
0
 10
-130.176361
 20
45.546776
 11
-128.676361
 21
46.416775
  0
LINE
  8
0
 10
-127.176361
 20
45.546768
 11
-127.176361
 21
43.826782
  0
LINE
  8
0
 10
-130.176361
 20
45.546768
 11
-130.176361
 21
43.826782
  0
LINE
  8
0
 10
-139.176361
 20
43.826778
 11
-137.676361
 21
42.956779
  0
LINE
  8
0
 10
-137.676361
 20
46.416767
 11
-136.176361
 21
45.546768
  0
LINE
  8
0
 10
-137.676376
 20
42.956779
 11
-136.176376
 21
43.826778
  0
LINE
  8
0
 10
-139.176361
 20
45.546768
 11
-137.676361
 21
46.416771
  0
LINE
  8
0
 10
-136.176361
 20
45.546768
 11
-136.176361
 21
43.826782
  0
LINE
  8
0
 10
-139.176361
 20
45.546768
 11
-139.176361
 21
43.826782
  0
LINE
  8
0
 10
134.323456
 20
63.326874
 11
135.823532
 21
62.456829
  0
LINE
  8
0
 10
135.823624
 20
65.916779
 11
137.323486
 21
65.046852
  0
LINE
  8
0
 10
135.823624
 20
62.456760
 11
137.323624
 21
63.326759
  0
LINE
  8
0
 10
134.323639
 20
65.046753
 11
135.823639
 21
65.916756
  0
LINE
  8
0
 10
137.323639
 20
65.046768
 11
137.323639
 21
63.326782
  0
LINE
  8
0
 10
134.323639
 20
65.046768
 11
134.323639
 21
63.326782
  0
LINE
  8
0
 10
138.823563
 20
43.826817
 11
140.323441
 21
42.956894
  0
LINE
  8
0
 10
140.323517
 20
46.416832
 11
141.823593
 21
45.546787
  0
LINE
  8
0
 10
140.323624
 20
42.956757
 11
141.823624
 21
43.826759
  0
LINE
  8
0
 10
138.823639
 20
45.546753
 11
140.323624
 21
46.416752
  0
LINE
  8
0
 10
141.823639
 20
45.546768
 11
141.823639
 21
43.826782
  0
LINE
  8
0
 10
138.823639
 20
45.546768
 11
138.823639
 21
43.826782
  0
LINE
  8
0
 10
129.823456
 20
43.826870
 11
131.323532
 21
42.956825
  0
LINE
  8
0
 10
131.323624
 20
46.416779
 11
132.823502
 21
45.546860
  0
LINE
  8
0
 10
131.323624
 20
42.956757
 11
132.823624
 21
43.826756
  0
LINE
  8
0
 10
129.823624
 20
45.546764
 11
131.323624
 21
46.416763
  0
LINE
  8
0
 10
132.823639
 20
45.546768
 11
132.823639
 21
43.826782
  0
LINE
  8
0
 10
129.823639
 20
45.546768
 11
129.823639
 21
43.826782
  0
LINE
  8
0
 10
95.323639
 20
49.936768
 11
98.823639
 21
49.936768
  0
LINE
  8
0
 10
95.323639
 20
58.436768
 11
98.823639
 21
58.436768
  0
LINE
  8
0
 10
98.823639
 20
49.936768
 11
98.823639
 21
58.436768
  0
LINE
  8
0
 10
145.323639
 20
97.686768
 11
156.323639
 21
97.686768
  0
LINE
  8
0
 10
-142.676361
 20
97.686768
 11
-153.676361
 21
97.686768
  0
LINE
  8
0
 10
-53.176361
 20
86.186768
 11
145.323639
 21
86.186768
  0
LINE
  8
0
 10
-28.676361
 20
75.686768
 11
-118.676361
 21
75.686768
  0
LINE
  8
0
 10
-28.676361
 20
75.186768
 11
145.323639
 21
75.186768
  0
LINE
  8
0
 10
-142.676361
 20
75.186768
 11
-118.676361
 21
75.186768
  0
LINE
  8
0
 10
-142.676361
 20
86.186768
 11
-94.176361
 21
86.186768
  0
LINE
  8
0
 10
-53.176361
 20
93.186768
 11
-94.176361
 21
93.186768
  0
LINE
  8
0
 10
-94.176361
 20
93.186768
 11
-94.176361
 21
75.686768
  0
LINE
  8
0
 10
-53.176361
 20
93.186768
 11
-53.176361
 21
75.686768
  0
LINE
  8
0
  6
CENTER
 62
     2
 10
-112.676361
 20
63.686768
 11
-35.253677
 21
63.686768
  0
LINE
  8
0
  6
CENTER
 62
     2
 10
-147.496368
 20
80.686768
 11
148.273590
 21
80.686768
  0
LINE
  8
0
 10
-123.676361
 20
65.686768
 11
-118.676361
 21
65.686768
  0
LINE
  8
0
 10
-28.676361
 20
65.686768
 11
126.323639
 21
65.686768
  0
LINE
  8
0
  6
CENTER
 62
     2
 10
157.323639
 20
30.186768
 11
145.323639
 21
30.186768
  0
LINE
  8
0
  6
CENTER
 62
     2
 10
157.323639
 20
92.186768
 11
146.018219
 21
92.186768
  0
LINE
  8
0
  6
CENTER
 62
     2
 10
151.323639
 20
98.076767
 11
151.323639
 21
23.343491
  0
LINE
  8
0
  6
CENTER
 62
     2
 10
-154.676361
 20
30.186768
 11
-142.676361
 21
30.186768
  0
LINE
  8
0
  6
CENTER
 62
     2
 10
-154.676361
 20
92.186768
 11
-143.319580
 21
92.186768
  0
LINE
  8
0
  6
CENTER
 62
     2
 10
-148.676361
 20
98.186768
 11
-148.676361
 21
23.044403
  0
LINE
  8
0
 10
-123.676361
 20
42.436768
 11
-118.676361
 21
42.436768
  0
LINE
  8
0
 10
-123.676361
 20
46.936768
 11
-118.676361
 21
46.936768
  0
LINE
  8
0
 10
126.323639
 20
42.436768
 11
-28.676361
 21
42.436768
  0
LINE
  8
0
 10
126.323639
 20
46.936768
 11
-28.676361
 21
46.936768
  0
LINE
  8
0
 10
-28.676361
 20
48.586777
 11
126.323639
 21
48.586777
  0
LINE
  8
0
 10
-28.676361
 20
51.086777
 11
95.323639
 21
51.086777
  0
LINE
  8
0
 10
-28.676361
 20
57.286774
 11
95.323639
 21
57.286774
  0
LINE
  8
0
 10
-28.676361
 20
59.786774
 11
126.323639
 21
59.786774
  0
LINE
  8
0
  6
CENTER
 62
     2
 10
76.323639
 20
7.966782
 11
76.323639
 21
91.928032
  0
LINE
  8
0
  6
CENTER
 62
     2
 10
-38.676361
 20
67.186768
 11
-38.676361
 21
13.634750
  0
LINE
  8
0
  6
CENTER
 62
     2
 10
-112.176361
 20
17.686768
 11
-34.966934
 21
17.686768
  0
LINE
  8
0
  6
CENTER
 62
     2
 10
-108.676361
 20
67.186768
 11
-108.676361
 21
13.987732
  0
LINE
  8
0
 10
-28.676361
 20
19.186768
 11
145.323639
 21
19.186768
  0
LINE
  8
0
 10
-142.676361
 20
19.186768
 11
-118.676361
 21
19.186768
  0
LINE
  8
0
 10
85.323639
 20
55.686768
 11
85.323639
 21
52.686768
  0
LINE
  8
0
 10
85.323639
 20
52.686768
 11
95.323639
 21
52.686768
  0
LINE
  8
0
 10
85.323639
 20
55.686768
 11
95.323639
 21
55.686768
  0
LINE
  8
0
 10
95.323639
 20
49.936768
 11
95.323639
 21
58.436768
  0
LINE
  8
0
 10
126.323639
 20
28.186768
 11
-28.676361
 21
28.186768
  0
LINE
  8
0
 10
126.323639
 20
40.186768
 11
-28.676361
 21
40.186768
  0
LINE
  8
0
 10
98.823624
 20
49.936756
 11
99.573624
 21
49.186760
  0
LINE
  8
0
 10
99.573639
 20
59.186768
 11
99.573639
 21
49.186768
  0
LINE
  8
0
 10
98.823639
 20
58.436768
 11
99.573631
 21
59.186764
  0
LINE
  8
0
 10
145.323639
 20
60.186768
 11
126.323639
 21
60.186768
  0
LINE
  8
0
  6
CENTER
 62
     2
 10
157.163483
 20
54.186768
 11
82.973633
 21
54.186768
  0
LINE
  8
0
 10
145.323639
 20
25.186768
 11
126.323639
 21
25.186768
  0
LINE
  8
0
 10
126.323639
 20
68.186768
 11
126.323639
 21
25.186768
  0
LINE
  8
0
 10
126.323639
 20
68.186768
 11
145.323639
 21
68.186768
  0
LINE
  8
0
 10
126.323639
 20
49.186768
 11
99.573639
 21
49.186768
  0
LINE
  8
0
 62
     2
 10
126.323639
 20
49.936768
 11
98.823639
 21
49.936768
  0
LINE
  8
0
 10
126.323639
 20
59.186768
 11
99.573639
 21
59.186768
  0
LINE
  8
0
 62
     2
 10
126.323639
 20
58.436768
 11
98.823639
 21
58.436768
  0
LINE
  8
0
 10
-123.676361
 20
49.186768
 11
-118.676361
 21
49.186768
  0
LINE
  8
0
 62
     2
 10
-123.676361
 20
49.936768
 11
-118.676361
 21
49.936768
  0
LINE
  8
0
 62
     2
 10
-123.676361
 20
58.436768
 11
-118.676361
 21
58.436768
  0
LINE
  8
0
 10
-123.676361
 20
59.186768
 11
-118.676361
 21
59.186768
  0
LINE
  8
0
  6
DASHED
 10
-142.676361
 20
55.196777
 11
-142.676361
 21
49.936768
  0
LINE
  8
0
 10
-142.676361
 20
60.186768
 11
-123.676361
 21
60.186768
  0
LINE
  8
0
 10
-123.676361
 20
28.186768
 11
-118.676361
 21
28.186768
  0
LINE
  8
0
 10
-123.676361
 20
40.186768
 11
-118.676361
 21
40.186768
  0
LINE
  8
0
 10
-123.676361
 20
68.186768
 11
-142.676361
 21
68.186768
  0
LINE
  8
0
 10
-123.676361
 20
68.186768
 11
-123.676361
 21
25.186768
  0
LINE
  8
0
 10
-142.676361
 20
25.186768
 11
-123.676361
 21
25.186768
  0
LINE
  8
0
 10
-28.676361
 20
12.686768
 11
-28.676361
 21
75.686768
  0
LINE
  8
0
 10
-118.676361
 20
12.686768
 11
-118.676361
 21
75.686768
  0
LINE
  8
0
  6
CENTER
 62
     2
 10
-73.676361
 20
7.966782
 11
-73.676361
 21
99.756767
  0
LINE
  8
0
 10
145.323639
 20
12.686768
 11
145.323639
 21
97.686768
  0
LINE
  8
0
 10
-142.676361
 20
12.686768
 11
-142.676361
 21
97.686768
  0
LINE
  8
0
 10
156.323639
 20
12.686768
 11
156.323639
 21
97.686768
  0
LINE
  8
0
 10
-153.676361
 20
12.686768
 11
156.323639
 21
12.686768
  0
LINE
  8
0
 10
-153.676361
 20
12.686768
 11
-153.676361
 21
97.686768
  0
LINE
  8
0
  6
PHANTOM
 62
     3
 10
17.830276
 20
-28.725464
 11
17.830276
 21
105.177216
  0
LINE
  8
0
 10
-261.250000
 20
-159.000000
 11
-35.250000
 21
-159.000000
  0
LINE
  8
0
 10
-145.250000
 20
-159.000000
 11
-145.250000
 21
-175.000000
  0
LINE
  8
0
 10
-167.250000
 20
-159.000000
 11
-167.250000
 21
-175.000000
  0
LINE
  8
0
 10
-189.250000
 20
-159.000000
 11
-189.250000
 21
-175.000000
  0
LINE
  8
0
 10
-211.250000
 20
-159.000000
 11
-211.250000
 21
-175.000000
  0
LINE
  8
0
 10
-261.250000
 20
-167.000000
 11
-35.250000
 21
-167.000000
  0
LINE
  8
0
 10
-261.250000
 20
-175.000000
 11
-35.250000
 21
-175.000000
  0
LINE
  8
0
 10
-261.250000
 20
-159.000000
 11
-261.250000
 21
-175.000000
  0
LINE
  8
0
 10
-123.250000
 20
-159.000000
 11
-123.250000
 21
-175.000000
  0
LINE
  8
0
 10
-101.250000
 20
-159.000000
 11
-101.250000
 21
-175.000000
  0
LINE
  8
0
 10
-79.250000
 20
-159.000000
 11
-79.250000
 21
-175.000000
  0
LINE
  8
0
 10
-57.250000
 20
-159.000000
 11
-57.250000
 21
-175.000000
  0
LINE
  8
0
 10
-35.250000
 20
-159.000000
 11
-35.250000
 21
-175.000000
  0
LINE
  8
0
 10
-281.250000
 20
195.500000
 11
282.099854
 21
195.500000
  0
LINE
  8
0
 10
-281.250000
 20
195.500000
 11
-281.250000
 21
-195.000000
  0
LINE
  8
0
 10
282.099854
 20
195.500000
 11
282.099854
 21
-195.000000
  0
LINE
  8
0
 10
-281.250000
 20
-195.000000
 11
282.099854
 21
-195.000000
  0
LINE
  8
0
 10
162.099976
 20
-175.000000
 11
162.099976
 21
-195.000000
  0
LINE
  8
0
 10
162.099976
 20
-175.000000
 11
282.099854
 21
-175.000000
  0
LINE
  8
0
 10
162.099976
 20
175.500000
 11
282.099854
 21
175.500000
  0
LINE
  8
0
 10
-281.250000
 20
175.500000
 11
-161.250000
 21
175.500000
  0
LINE
  8
0
 10
162.099976
 20
195.500000
 11
162.099976
 21
175.500000
  0
LINE
  8
0
 10
-161.250000
 20
195.500000
 11
-161.250000
 21
175.500000
  0
ARC
  8
0
 62
     1
 10
104.127640
 20
-80.920944
 40
0.963535
 50
321.864777
 51
38.135212
  0
ARC
  8
0
 62
     1
 10
105.643387
 20
-79.730942
 40
0.963535
 50
141.864792
 51
218.135208
  0
ARC
  8
0
 62
     1
 10
-45.872055
 20
-80.920944
 40
0.963223
 50
321.850220
 51
38.149784
  0
ARC
  8
0
 62
     1
 10
-44.357101
 20
-79.730942
 40
0.963223
 50
141.850220
 51
218.149780
  0
CIRCLE
  8
0
 62
     4
 10
-70.670151
 20
-80.325943
 40
1.500000
  0
CIRCLE
  8
0
 62
     4
 10
79.329849
 20
-80.325943
 40
1.500000
  0
ARC
  8
0
 10
209.321289
 20
15.285934
 40
2.097662
 50
34.806805
 51
180.071823
  0
CIRCLE
  8
0
 10
207.823959
 20
54.186768
 40
5.000000
  0
CIRCLE
  8
0
 62
     2
 10
207.823959
 20
54.186768
 40
4.250000
  0
CIRCLE
  8
0
 10
207.823959
 20
54.186768
 40
6.500000
  0
ARC
  8
0
 10
215.923630
 20
15.883301
 40
1.400000
 50
270.000000
 51
90.000000
  0
ARC
  8
0
 62
     4
 10
209.323624
 20
15.102112
 40
2.050003
 50
0.000000
 51
179.999969
  0
CIRCLE
  8
0
 62
     4
 10
209.323624
 20
15.356781
 40
0.450000
  0
CIRCLE
  8
0
 62
     4
 10
209.323624
 20
14.456772
 40
0.450000
  0
CIRCLE
  8
0
 62
     4
 10
209.323624
 20
14.906769
 40
1.299999
  0
CIRCLE
  8
0
 62
     4
 10
209.323624
 20
15.356781
 40
0.250000
  0
CIRCLE
  8
0
 62
     4
 10
209.323624
 20
14.456772
 40
0.250000
  0
CIRCLE
  8
0
 10
-223.676361
 20
62.183289
 40
2.066999
  0
CIRCLE
  8
0
 10
-219.176361
 20
80.683289
 40
2.066999
  0
ARC
  8
0
 62
     4
 10
-218.577530
 20
15.059036
 40
0.097765
 50
88.676392
 51
181.325378
  0
ARC
  8
0
 62
     4
 10
-218.576767
 20
14.555283
 40
0.098522
 50
179.132553
 51
270.869690
  0
ARC
  8
0
 62
     4
 10
-216.680527
 20
15.104553
 40
2.044749
 50
127.499519
 51
179.937790
  0
ARC
  8
0
 62
     4
 10
-216.676132
 20
15.101532
 40
2.050864
 50
0.146298
 51
52.416515
  0
ARC
  8
0
 62
     4
 10
-214.777573
 20
14.559067
 40
0.102316
 50
271.281830
 51
358.717712
  0
ARC
  8
0
 62
     4
 10
-214.776825
 20
15.055222
 40
0.101559
 50
0.874328
 51
89.121925
  0
CIRCLE
  8
0
 62
     2
 10
-219.176682
 20
80.686768
 40
2.500000
  0
ARC
  8
0
 10
-223.276367
 20
15.883301
 40
1.400000
 50
90.000000
 51
270.000000
  0
CIRCLE
  8
0
 62
     2
 10
-223.676682
 20
62.186768
 40
2.500000
  0
CIRCLE
  8
0
 10
-215.176697
 20
54.186768
 40
6.500000
  0
CIRCLE
  8
0
 62
     2
 10
-215.176697
 20
54.186768
 40
4.250000
  0
CIRCLE
  8
0
 10
-215.176697
 20
54.186768
 40
5.000000
  0
ARC
  8
0
 10
-216.674026
 20
15.285934
 40
2.097658
 50
359.928131
 51
145.193146
  0
CIRCLE
  8
0
 10
-108.676361
 20
63.686768
 40
1.620999
  0
CIRCLE
  8
0
 10
-108.676361
 20
17.686768
 40
1.620999
  0
CIRCLE
  8
0
 10
-38.676361
 20
17.686768
 40
1.620999
  0
CIRCLE
  8
0
 10
-38.676361
 20
63.686768
 40
1.620999
  0
ARC
  8
0
 62
     4
 10
-73.676361
 20
64.686768
 40
2.000000
 50
0.000000
 51
180.000000
  0
ARC
  8
0
 62
     4
 10
-73.676361
 20
62.686768
 40
2.000000
 50
180.000000
 51
0.000000
  0
CIRCLE
  8
0
 62
     4
 10
-73.676361
 20
17.686768
 40
2.000000
  0
CIRCLE
  8
0
 10
-133.176361
 20
64.186783
 40
2.980385
  0
CIRCLE
  8
0
 10
-133.176361
 20
64.186768
 40
3.500000
  0
CIRCLE
  8
0
 10
-128.676361
 20
44.686783
 40
2.980385
  0
CIRCLE
  8
0
 10
-128.676361
 20
44.686768
 40
3.500000
  0
CIRCLE
  8
0
 10
-137.676361
 20
44.686783
 40
2.980385
  0
CIRCLE
  8
0
 10
-137.676361
 20
44.686768
 40
3.500000
  0
CIRCLE
  8
0
 10
135.823639
 20
64.186783
 40
2.980385
  0
CIRCLE
  8
0
 10
135.823639
 20
64.186768
 40
3.500000
  0
CIRCLE
  8
0
 10
140.323639
 20
44.686783
 40
2.980385
  0
CIRCLE
  8
0
 10
140.323639
 20
44.686768
 40
3.500000
  0
CIRCLE
  8
0
 10
131.323639
 20
44.686783
 40
2.980385
  0
CIRCLE
  8
0
 10
131.323639
 20
44.686768
 40
3.500000
  0
CIRCLE
  8
0
 10
-148.676666
 20
30.190247
 40
2.400000
  0
CIRCLE
  8
0
 10
151.323151
 20
30.190247
 40
2.400000
  0
CIRCLE
  8
0
 10
151.323151
 20
92.190247
 40
2.400000
  0
CIRCLE
  8
0
 10
-148.676666
 20
92.190247
 40
2.400000
  0
CIRCLE
  8
0
 10
151.323151
 20
30.190247
 40
4.000000
  0
CIRCLE
  8
0
 10
151.323151
 20
92.190247
 40
4.000000
  0
CIRCLE
  8
0
 10
-148.676666
 20
30.190247
 40
4.000000
  0
CIRCLE
  8
0
 10
-148.676666
 20
92.190247
 40
4.000000
  0
CIRCLE
  8
0
 62
     2
 10
-38.676697
 20
63.690247
 40
2.000000
  0
CIRCLE
  8
0
 62
     2
 10
-108.676682
 20
17.690247
 40
2.000000
  0
CIRCLE
  8
0
 62
     2
 10
-38.676697
 20
17.690247
 40
2.000000
  0
CIRCLE
  8
0
 62
     2
 10
-108.676682
 20
63.690247
 40
2.000000
  0
CIRCLE
  8
0
 10
135.823151
 20
64.190247
 40
3.500000
  0
TEXT
  8
0
 10
-55.642658
 20
-157.050003
 40
4.500000
  1
（ｍｍ）
 50
0.000000
 41
0.833333
 51
0.000000
  7
STANDARD
  0
TEXT
  8
0
 10
-269.839050
 20
146.430008
 40
6.300000
  1
(WITH SENSOR SWITCH)
 50
0.000000
 41
1.052632
 51
0.000000
  7
STANDARD
  0
TEXT
  8
0
 10
-252.392654
 20
-174.050003
 40
4.500000
  1
STRETCH
 50
0.000000
 41
1.052632
 51
0.000000
  7
STANDARD
  0
TEXT
  8
0
 10
-163.392654
 20
-174.050003
 40
4.500000
  1
100
 50
0.000000
 41
1.052632
 51
0.000000
  7
STANDARD
  0
TEXT
  8
0
 10
-183.142654
 20
-174.050003
 40
4.500000
  1
50
 50
0.000000
 41
1.052632
 51
0.000000
  7
STANDARD
  0
TEXT
  8
0
 10
-202.892654
 20
-174.050003
 40
4.500000
  1
0
 50
0.000000
 41
1.052632
 51
0.000000
  7
STANDARD
  0
TEXT
  8
0
 10
-163.392654
 20
-166.050003
 40
4.500000
  1
250
 50
0.000000
 41
1.052632
 51
0.000000
  7
STANDARD
  0
TEXT
  8
0
 10
-185.392654
 20
-166.050003
 40
4.500000
  1
200
 50
0.000000
 41
1.052632
 51
0.000000
  7
STANDARD
  0
TEXT
  8
0
 10
-207.392654
 20
-166.050003
 40
4.500000
  1
150
 50
0.000000
 41
1.052632
 51
0.000000
  7
STANDARD
  0
TEXT
  8
0
 10
-175.642654
 20
-157.050003
 40
4.500000
  1
STRETCH LIST
 50
0.000000
 41
1.052632
 51
0.000000
  7
STANDARD
  0
TEXT
  8
0
 10
-250.142654
 20
-166.050003
 40
4.500000
  1
STROKE
 50
0.000000
 41
1.052632
 51
0.000000
  7
STANDARD
  0
TEXT
  8
0
 10
-141.392654
 20
-166.050003
 40
4.500000
  1
300
 50
0.000000
 41
1.052632
 51
0.000000
  7
STANDARD
  0
TEXT
  8
0
 10
-141.392654
 20
-174.050003
 40
4.500000
  1
150
 50
0.000000
 41
1.052632
 51
0.000000
  7
STANDARD
  0
TEXT
  8
0
 10
-119.392654
 20
-166.050003
 40
4.500000
  1
350
 50
0.000000
 41
1.052632
 51
0.000000
  7
STANDARD
  0
TEXT
  8
0
 10
-119.392654
 20
-174.050003
 40
4.500000
  1
200
 50
0.000000
 41
1.052632
 51
0.000000
  7
STANDARD
  0
TEXT
  8
0
 10
-97.392654
 20
-166.050003
 40
4.500000
  1
400
 50
0.000000
 41
1.052632
 51
0.000000
  7
STANDARD
  0
TEXT
  8
0
 10
-97.392654
 20
-174.050003
 40
4.500000
  1
250
 50
0.000000
 41
1.052632
 51
0.000000
  7
STANDARD
  0
TEXT
  8
0
 10
-75.392654
 20
-166.050003
 40
4.500000
  1
500
 50
0.000000
 41
1.052632
 51
0.000000
  7
STANDARD
  0
TEXT
  8
0
 10
-75.392654
 20
-174.050003
 40
4.500000
  1
350
 50
0.000000
 41
1.052632
 51
0.000000
  7
STANDARD
  0
TEXT
  8
0
 10
-53.392658
 20
-166.050003
 40
4.500000
  1
600
 50
0.000000
 41
1.052632
 51
0.000000
  7
STANDARD
  0
TEXT
  8
0
 10
-53.392658
 20
-174.050003
 40
4.500000
  1
450
 50
0.000000
 41
1.052632
 51
0.000000
  7
STANDARD
  0
TEXT
  8
0
 62
     3
 10
-9.860171
 20
107.982025
 40
4.500000
  1
STRETCH LINE
 50
0.000000
 41
1.052632
 51
0.000000
  7
STANDARD
  0
TEXT
  8
0
 10
-272.299713
 20
180.830002
 40
6.300000
  1
RODLESS CYLINDER
 50
0.000000
 41
1.052632
 51
0.000000
  7
STANDARD
  0
TEXT
  8
0
 10
196.250259
 20
180.830002
 40
6.300000
  1
Ｖｅｒ．　１．０
 50
0.000000
 41
0.833333
 51
0.000000
  7
STANDARD
  0
TEXT
  8
0
 10
167.564667
 20
-192.100006
 40
9.000000
  1
KOGANEI CORP.
 50
0.000000
 41
1.052632
 51
0.000000
  7
STANDARD
  0
TEXT
  8
0
 10
-270.049713
 20
155.830002
 40
6.300000
  1
MODEL:MRS10*ST(150)
 50
0.000000
 41
1.052632
 51
0.000000
  7
STANDARD
  0
ENDSEC
  0
EOF
