  0
SECTION
  2
HEADER
  0
ENDSEC
  0
SECTION
  2
TABLES
  0
TABLE
  2
LTYPE
 70
     4
  0
LTYPE
  2
CONTINUOUS
 70
    64
  3
Solid line
 72
    65
 73
     0
 40
0.000000
  0
LTYPE
  2
DASHED
 70
    64
  3
__ __ __ __ __ __ __ __ __ __ __ __ __ __ __
 72
    65
 73
     2
 40
3.500000
 49
2.000000
 49
-1.500000
  0
LTYPE
  2
CENTER
 70
    64
  3
____ _ ____ _ ____ _ ____ _ ____ _ ____ _ ____
 72
    65
 73
     4
 40
17.500000
 49
13.000000
 49
-1.500000
 49
1.500000
 49
-1.500000
  0
LTYPE
  2
PHANTOM
 70
    64
  3
_____ _ _ _____ _ _ _____ _ _ _____ _ _ ____  
 72
    65
 73
     6
 40
15.500000
 49
8.000000
 49
-1.500000
 49
1.500000
 49
-1.500000
 49
1.500000
 49
-1.500000
  0
LTYPE
  2
DASHED1
 70
    64
  3
__ __ __ __ __ __ __ __ __ __ __ __ __ __ __
 72
    65
 73
     2
 40
1.500000
 49
1.000000
 49
-0.500000
  0
LTYPE
  2
DASHED2
 70
    64
  3
__ __ __ __ __ __ __ __ __ __ __ __ __ __ __
 72
    65
 73
     2
 40
3.500000
 49
2.500000
 49
-1.000000
  0
LTYPE
  2
DASHED3
 70
    64
  3
__ __ __ __ __ __ __ __ __ __ __ __ __ __ __
 72
    65
 73
     2
 40
6.000000
 49
4.000000
 49
-2.000000
  0
LTYPE
  2
DASHED4
 70
    64
  3
__ __ __ __ __ __ __ __ __ __ __ __ __ __ __
 72
    65
 73
     2
 40
12.000000
 49
10.000000
 49
-2.000000
  0
LTYPE
  2
DASHED5
 70
    64
  3
__ __ __ __ __ __ __ __ __ __ __ __ __ __ __
 72
    65
 73
     2
 40
17.000000
 49
15.000000
 49
-2.000000
  0
LTYPE
  2
DASHED6
 70
    64
  3
__ __ __ __ __ __ __ __ __ __ __ __ __ __ __
 72
    65
 73
     2
 40
29.000000
 49
27.000000
 49
-2.000000
  0
LTYPE
  2
PHANTOM1
 70
    64
  3
_____ _ _ _____ _ _ _____ _ _ _____ _ _ ____  
 72
    65
 73
     6
 40
31.000000
 49
25.000000
 49
-1.500000
 49
1.000000
 49
-1.000000
 49
1.000000
 49
-1.500000
  0
LTYPE
  2
PHANTOM2
 70
    64
  3
_____ _ _ _____ _ _ _____ _ _ _____ _ _ ____  
 72
    65
 73
     6
 40
36.000000
 49
27.000000
 49
-1.500000
 49
2.500000
 49
-1.000000
 49
2.500000
 49
-1.500000
  0
LTYPE
  2
PHANTOM3
 70
    64
  3
_____ _ _ _____ _ _ _____ _ _ _____ _ _ ____  
 72
    65
 73
     6
 40
78.000000
 49
64.000000
 49
-2.000000
 49
4.000000
 49
-2.000000
 49
4.000000
 49
-2.000000
  0
LTYPE
  2
CENTER1
 70
    64
  3
____ _ ____ _ ____ _ ____ _ ____ _ ____ _ ____
 72
    65
 73
     4
 40
19.000000
 49
14.000000
 49
-1.000000
 49
3.000000
 49
-1.000000
  0
LTYPE
  2
CENTER2
 70
    64
  3
____ _ ____ _ ____ _ ____ _ ____ _ ____ _ ____
 72
    65
 73
     4
 40
28.500000
 49
25.000000
 49
-1.000000
 49
1.500000
 49
-1.000000
  0
LTYPE
  2
CENTER3
 70
    64
  3
____ _ ____ _ ____ _ ____ _ ____ _ ____ _ ____
 72
    65
 73
     4
 40
31.500000
 49
27.000000
 49
-1.000000
 49
2.500000
 49
-1.000000
  0
LTYPE
  2
CENTER4
 70
    64
  3
____ _ ____ _ ____ _ ____ _ ____ _ ____ _ ____
 72
    65
 73
     4
 40
50.000000
 49
45.000000
 49
-1.000000
 49
3.000000
 49
-1.000000
  0
LTYPE
  2
CENTER5
 70
    64
  3
____ _ ____ _ ____ _ ____ _ ____ _ ____ _ ____
 72
    65
 73
     4
 40
100.000000
 49
92.000000
 49
-2.000000
 49
4.000000
 49
-2.000000
  0
LTYPE
  2
SBK1
 70
    64
  3
______ _ _ _ ______ _ _ _ ______ _ _ _ _____  
 72
    65
 73
     8
 40
60.500000
 49
45.000000
 49
-2.000000
 49
2.500000
 49
-2.000000
 49
2.500000
 49
-2.000000
 49
2.500000
 49
-2.000000
  0
LTYPE
  2
SBK2
 70
    64
  3
______ _ _ _ ______ _ _ _ ______ _ _ _ _____  
 72
    65
 73
     8
 40
84.000000
 49
64.000000
 49
-2.000000
 49
4.000000
 49
-2.000000
 49
4.000000
 49
-2.000000
 49
4.000000
 49
-2.000000
  0
LTYPE
  2
STCH
 70
    64
  3
__ __ __ __ __ __ __ __ __ __ __ __ __ __ __
 72
    65
 73
     2
 40
3.000000
 49
1.000000
 49
-2.000000
  0
LTYPE
  2
MTCH
 70
    64
  3
_____ _ _ _____ _ _ _____ _ _ _____ _ _ ____  
 72
    65
 73
     6
 40
80.000000
 49
66.000000
 49
-2.000000
 49
4.000000
 49
-2.000000
 49
4.000000
 49
-2.000000
  0
ENDTAB
  0
TABLE
  2
LAYER
 70
     1
  0
LAYER
  2
0
 70
     0
 62
     7
  6
CONTINUOUS
  0
ENDTAB
  0
TABLE
  2
STYLE
 70
     1
  0
STYLE
  2
STANDARD
 70
     0
 40
0.000000
 41
1.000000
 50
0.000000
 71
     0
 42
0.200000
  3
txt
  4
BIGFONT
  0
ENDTAB
  0
TABLE
  2
VIEW
 70
     0
  0
ENDTAB
  0
ENDSEC
  0
SECTION
  2
BLOCKS
  0
ENDSEC
  0
SECTION
  2
ENTITIES
  0
LINE
  8
0
 10
-152.666199
 20
-55.319595
 11
-152.666199
 21
-83.319595
  0
LINE
  8
0
 10
157.333801
 20
-83.319595
 11
157.333801
 21
-55.319595
  0
LINE
  8
0
 10
-141.666199
 20
-55.319595
 11
-141.666199
 21
-83.319595
  0
LINE
  8
0
 10
146.333801
 20
-55.319595
 11
146.333801
 21
-83.319595
  0
LINE
  8
0
 10
-141.666199
 20
-61.819595
 11
146.333801
 21
-61.819595
  0
LINE
  8
0
 10
-141.666199
 20
-64.719604
 11
146.333801
 21
-64.719604
  0
LINE
  8
0
 10
-141.666199
 20
-67.919594
 11
146.333801
 21
-67.919594
  0
LINE
  8
0
 10
-27.666199
 20
-60.819595
 11
-117.666199
 21
-60.819595
  0
LINE
  8
0
 10
-114.666199
 20
-60.819595
 11
-114.666199
 21
-61.819595
  0
LINE
  8
0
 10
-80.666199
 20
-60.819595
 11
-80.666199
 21
-61.819595
  0
LINE
  8
0
 10
-64.666199
 20
-60.819595
 11
-64.666199
 21
-61.819595
  0
LINE
  8
0
 10
-30.666199
 20
-60.819595
 11
-30.666199
 21
-61.819595
  0
LINE
  8
0
 10
-141.666199
 20
-63.819595
 11
-152.666199
 21
-63.819595
  0
LINE
  8
0
 10
-141.666199
 20
-74.829597
 11
-152.666199
 21
-74.829597
  0
LINE
  8
0
 10
146.333801
 20
-63.819595
 11
157.333801
 21
-63.819595
  0
LINE
  8
0
 10
146.333801
 20
-74.829597
 11
157.333801
 21
-74.829597
  0
LINE
  8
0
 10
-122.666199
 20
-59.819595
 11
-117.666199
 21
-59.819595
  0
LINE
  8
0
 62
     2
 10
-122.666199
 20
-60.569595
 11
-117.666199
 21
-60.569595
  0
LINE
  8
0
 10
127.333801
 20
-59.819595
 11
100.583801
 21
-59.819595
  0
LINE
  8
0
 62
     2
 10
127.333801
 20
-60.569595
 11
99.833801
 21
-60.569595
  0
LINE
  8
0
 10
99.833786
 20
-60.569599
 11
100.583794
 21
-59.819592
  0
LINE
  8
0
 10
100.583801
 20
-59.819595
 11
100.583801
 21
-61.819595
  0
LINE
  8
0
 10
-122.666199
 20
-58.319595
 11
-117.666199
 21
-58.319595
  0
LINE
  8
0
 10
-27.666199
 20
-58.319595
 11
127.333801
 21
-58.319595
  0
LINE
  8
0
 10
99.833801
 20
-60.569595
 11
99.833801
 21
-61.819595
  0
LINE
  8
0
 10
96.333801
 20
-60.569595
 11
96.333801
 21
-61.819595
  0
LINE
  8
0
 10
99.833801
 20
-60.569595
 11
96.333801
 21
-60.569595
  0
LINE
  8
0
 62
     4
 10
-72.659988
 20
-67.928833
 11
-72.659988
 21
-64.728836
  0
LINE
  8
0
 62
     4
 10
-66.659988
 20
-67.928833
 11
-66.659988
 21
-64.728836
  0
LINE
  8
0
 62
     4
 10
-51.659988
 20
-67.928833
 11
-51.659988
 21
-64.728836
  0
LINE
  8
0
 62
     4
 10
-50.159988
 20
-67.518837
 11
-50.159988
 21
-65.138840
  0
LINE
  8
0
 62
     4
 10
-51.659992
 20
-67.928841
 11
-50.159988
 21
-67.518837
  0
LINE
  8
0
 62
     4
 10
-51.659996
 20
-64.728844
 11
-50.159985
 21
-65.138847
  0
LINE
  8
0
 62
     4
 10
-50.159988
 20
-67.518837
 11
-44.159988
 21
-67.518837
  0
LINE
  8
0
 62
     4
 10
-50.159988
 20
-65.138840
 11
-44.159988
 21
-65.138840
  0
LINE
  8
0
 62
     4
 10
-70.439987
 20
-67.098831
 11
-68.889992
 21
-65.558830
  0
LINE
  8
0
 62
     4
 10
-70.439995
 20
-65.558838
 11
-68.889999
 21
-67.098831
  0
LINE
  8
0
 62
     4
 10
77.340012
 20
-67.928833
 11
77.340012
 21
-64.728836
  0
LINE
  8
0
 62
     4
 10
83.340012
 20
-67.928833
 11
83.340012
 21
-64.728836
  0
LINE
  8
0
 62
     4
 10
98.340012
 20
-67.928833
 11
98.340012
 21
-64.728836
  0
LINE
  8
0
 62
     4
 10
99.840012
 20
-67.518837
 11
99.840012
 21
-65.138840
  0
LINE
  8
0
 62
     4
 10
98.340019
 20
-67.928833
 11
99.840012
 21
-67.518845
  0
LINE
  8
0
 62
     4
 10
98.340004
 20
-64.728844
 11
99.840004
 21
-65.138840
  0
LINE
  8
0
 62
     4
 10
99.840012
 20
-67.518837
 11
105.895676
 21
-67.518837
  0
LINE
  8
0
 62
     4
 10
99.840012
 20
-65.138840
 11
105.895676
 21
-65.138840
  0
LINE
  8
0
 62
     4
 10
79.560005
 20
-67.098839
 11
81.110008
 21
-65.558846
  0
LINE
  8
0
 62
     4
 10
79.560013
 20
-65.558830
 11
81.110008
 21
-67.098831
  0
LINE
  8
0
 10
-117.666199
 20
-49.319595
 11
-27.666199
 21
-49.319595
  0
LINE
  8
0
 10
-141.666199
 20
-56.819595
 11
-122.666199
 21
-56.819595
  0
LINE
  8
0
 10
127.333801
 20
-56.819595
 11
146.333801
 21
-56.819595
  0
LINE
  8
0
 10
-128.666199
 20
-55.319595
 11
-128.666199
 21
-56.819595
  0
LINE
  8
0
 10
-135.666199
 20
-55.319595
 11
-128.666199
 21
-55.319595
  0
LINE
  8
0
 10
-135.666199
 20
-55.319595
 11
-135.666199
 21
-56.819595
  0
LINE
  8
0
 10
140.333801
 20
-55.319595
 11
140.333801
 21
-56.819595
  0
LINE
  8
0
 10
133.333801
 20
-55.319595
 11
140.333801
 21
-55.319595
  0
LINE
  8
0
 10
133.333801
 20
-55.319595
 11
133.333801
 21
-56.819595
  0
LINE
  8
0
 10
-152.666199
 20
-55.319595
 11
-141.666199
 21
-55.319595
  0
LINE
  8
0
 10
146.333801
 20
-55.319595
 11
157.333801
 21
-55.319595
  0
LINE
  8
0
 10
127.333801
 20
-56.819595
 11
127.333801
 21
-61.819595
  0
LINE
  8
0
 10
-122.666199
 20
-56.819595
 11
-122.666199
 21
-61.819595
  0
LINE
  8
0
 10
-117.666199
 20
-49.319595
 11
-117.666199
 21
-60.819595
  0
LINE
  8
0
 10
-27.666199
 20
-49.319595
 11
-27.666199
 21
-60.819595
  0
LINE
  8
0
 10
-152.666199
 20
-83.319595
 11
157.333801
 21
-83.319595
  0
LINE
  8
0
  6
CENTER
 62
     2
 10
-147.666199
 20
-87.319595
 11
-147.666199
 21
-79.319595
  0
LINE
  8
0
  6
PHANTOM
 62
     3
 10
31.820114
 20
-93.348640
 11
31.820114
 21
-16.071472
  0
LINE
  8
0
  6
CENTER
 62
     2
 10
-72.666199
 20
-46.359604
 11
-72.666199
 21
-87.359596
  0
LINE
  8
0
 10
213.173798
 20
63.120407
 11
213.173798
 21
53.210403
  0
LINE
  8
0
 10
214.473801
 20
63.120407
 11
214.473801
 21
53.210403
  0
LINE
  8
0
  6
CENTER
 62
     2
 10
213.823792
 20
67.350403
 11
213.823792
 21
49.170410
  0
LINE
  8
0
 10
198.323792
 20
79.670410
 11
204.323792
 21
79.670410
  0
LINE
  8
0
 10
223.823792
 20
21.670410
 11
223.823792
 21
16.670410
  0
LINE
  8
0
 10
218.173798
 20
20.470404
 11
219.563797
 21
21.270403
  0
LINE
  8
0
 10
217.043793
 20
20.470398
 11
218.173798
 21
20.470398
  0
LINE
  8
0
 10
218.923782
 20
17.670399
 11
220.313797
 21
18.470404
  0
LINE
  8
0
 10
219.563797
 20
21.270401
 11
221.923798
 21
21.270401
  0
LINE
  8
0
 10
220.313797
 20
18.470398
 11
221.923798
 21
18.470398
  0
LINE
  8
0
 10
204.323792
 20
104.670395
 11
204.323792
 21
16.670410
  0
LINE
  8
0
 10
204.323792
 20
104.670395
 11
232.323792
 21
104.670395
  0
LINE
  8
0
  6
CENTER
 62
     2
 10
223.283798
 20
58.170410
 11
201.253799
 21
58.170410
  0
LINE
  8
0
 10
223.823792
 20
21.670410
 11
212.823792
 21
21.670410
  0
LINE
  8
0
 10
212.823792
 20
21.670410
 11
212.823792
 21
16.670410
  0
LINE
  8
0
 10
213.723801
 20
16.670410
 11
198.323792
 21
16.670410
  0
LINE
  8
0
 10
216.923798
 20
17.170410
 11
216.923798
 21
16.670410
  0
LINE
  8
0
 10
217.423798
 20
17.670408
 11
216.923798
 21
17.170408
  0
LINE
  8
0
 10
217.423798
 20
17.670410
 11
218.923798
 21
17.670410
  0
LINE
  8
0
 10
213.223801
 20
17.670410
 11
213.223801
 21
19.270401
  0
LINE
  8
0
 10
213.223801
 20
17.670408
 11
213.723801
 21
17.170408
  0
LINE
  8
0
 10
213.723801
 20
17.170410
 11
213.723801
 21
16.670410
  0
LINE
  8
0
 10
232.323792
 20
16.670410
 11
232.323792
 21
104.670395
  0
LINE
  8
0
 10
232.323792
 20
16.670410
 11
216.923798
 21
16.670410
  0
LINE
  8
0
 10
198.323792
 20
79.670410
 11
198.323792
 21
16.670410
  0
LINE
  8
0
  6
DASHED
 62
     2
 10
226.773788
 20
57.420410
 11
226.773788
 21
65.920410
  0
LINE
  8
0
  6
DASHED
 62
     2
 10
226.773788
 20
23.420410
 11
226.773788
 21
31.920410
  0
LINE
  8
0
  6
DASHED
 62
     2
 10
232.323792
 20
35.670406
 11
231.823792
 21
36.170406
  0
LINE
  8
0
  6
DASHED
 62
     2
 10
232.323776
 20
53.670391
 11
231.823792
 21
53.170403
  0
LINE
  8
0
  6
DASHED
 62
     2
 10
231.823792
 20
53.170410
 11
231.823792
 21
36.170410
  0
LINE
  8
0
  6
DASHED
 62
     2
 10
225.123795
 20
29.920410
 11
225.123795
 21
25.420410
  0
LINE
  8
0
  6
DASHED
 62
     2
 10
229.823792
 20
29.920410
 11
232.323792
 21
29.920410
  0
LINE
  8
0
  6
DASHED
 62
     2
 10
226.123795
 20
31.920410
 11
229.823792
 21
31.920410
  0
LINE
  8
0
  6
DASHED
 62
     2
 10
226.123795
 20
31.920410
 11
226.123795
 21
29.920410
  0
LINE
  8
0
  6
DASHED
 62
     2
 10
225.123795
 20
29.920410
 11
226.123795
 21
29.920410
  0
LINE
  8
0
  6
DASHED
 62
     2
 10
225.123795
 20
25.420410
 11
226.123795
 21
25.420410
  0
LINE
  8
0
  6
DASHED
 62
     2
 10
226.123795
 20
23.420410
 11
226.123795
 21
25.420410
  0
LINE
  8
0
  6
DASHED
 62
     2
 10
226.123795
 20
23.420410
 11
229.823792
 21
23.420410
  0
LINE
  8
0
  6
DASHED
 62
     2
 10
229.823792
 20
31.920410
 11
229.823792
 21
23.420410
  0
LINE
  8
0
  6
DASHED
 62
     2
 10
229.823792
 20
25.420410
 11
232.323792
 21
25.420410
  0
LINE
  8
0
  6
CENTER
 62
     2
 10
223.243790
 20
27.670410
 11
234.863785
 21
27.670410
  0
LINE
  8
0
  6
DASHED
 62
     2
 10
225.123795
 20
63.920410
 11
225.123795
 21
59.420410
  0
LINE
  8
0
  6
DASHED
 62
     2
 10
229.823792
 20
63.920410
 11
232.323792
 21
63.920410
  0
LINE
  8
0
  6
DASHED
 62
     2
 10
226.123795
 20
65.920410
 11
229.823792
 21
65.920410
  0
LINE
  8
0
  6
DASHED
 62
     2
 10
226.123795
 20
65.920410
 11
226.123795
 21
63.920410
  0
LINE
  8
0
  6
DASHED
 62
     2
 10
225.123795
 20
63.920410
 11
226.123795
 21
63.920410
  0
LINE
  8
0
  6
DASHED
 62
     2
 10
225.123795
 20
59.420410
 11
226.123795
 21
59.420410
  0
LINE
  8
0
  6
DASHED
 62
     2
 10
226.123795
 20
57.420410
 11
226.123795
 21
59.420410
  0
LINE
  8
0
  6
DASHED
 62
     2
 10
226.123795
 20
57.420410
 11
229.823792
 21
57.420410
  0
LINE
  8
0
  6
DASHED
 62
     2
 10
229.823792
 20
65.920410
 11
229.823792
 21
57.420410
  0
LINE
  8
0
  6
DASHED
 62
     2
 10
229.823792
 20
59.420410
 11
232.323792
 21
59.420410
  0
LINE
  8
0
  6
CENTER
 62
     2
 10
222.843796
 20
61.670410
 11
234.863785
 21
61.670410
  0
LINE
  8
0
  6
CENTER
 62
     1
 10
215.323792
 20
15.826660
 11
215.323792
 21
21.833450
  0
LINE
  8
0
  6
CENTER
 62
     1
 10
216.970230
 20
18.890396
 11
213.680801
 21
18.890396
  0
LINE
  8
0
 62
     4
 10
213.823792
 20
16.540405
 11
216.823792
 21
16.540405
  0
LINE
  8
0
 62
     4
 10
216.573776
 20
16.370415
 11
216.323792
 21
16.120417
  0
LINE
  8
0
 62
     4
 10
214.073792
 20
16.370407
 11
214.323792
 21
16.120413
  0
LINE
  8
0
 62
     1
 10
214.323792
 20
16.120407
 11
214.323792
 21
16.540405
  0
LINE
  8
0
 62
     1
 10
216.323792
 20
16.120407
 11
216.323792
 21
16.540405
  0
LINE
  8
0
 62
     4
 10
214.323792
 20
16.120407
 11
216.323792
 21
16.120407
  0
LINE
  8
0
  6
CENTER
 62
     1
 10
216.059082
 20
19.340408
 11
214.571381
 21
19.340408
  0
LINE
  8
0
  6
CENTER
 62
     1
 10
216.059082
 20
18.440399
 11
214.571381
 21
18.440399
  0
LINE
  8
0
 62
     4
 10
217.373795
 20
17.640396
 11
217.373795
 21
19.090408
  0
LINE
  8
0
 62
     4
 10
216.823792
 20
16.540405
 11
216.823792
 21
17.090408
  0
LINE
  8
0
 62
     4
 10
216.573792
 20
16.370407
 11
216.573792
 21
16.540405
  0
LINE
  8
0
 62
     4
 10
217.373779
 20
17.640406
 11
216.823776
 21
17.090408
  0
LINE
  8
0
 62
     4
 10
213.273788
 20
17.640406
 11
213.823792
 21
17.090408
  0
LINE
  8
0
 62
     4
 10
213.823792
 20
16.540405
 11
213.823792
 21
17.090408
  0
LINE
  8
0
 62
     4
 10
214.073792
 20
16.370407
 11
214.073792
 21
16.540405
  0
LINE
  8
0
 62
     4
 10
214.073792
 20
20.710403
 11
214.073792
 21
20.870407
  0
LINE
  8
0
 62
     1
 10
214.323792
 20
20.875122
 11
214.323792
 21
21.120407
  0
LINE
  8
0
 62
     4
 10
214.323792
 20
21.120407
 11
215.073563
 21
21.120407
  0
LINE
  8
0
 62
     4
 10
214.323776
 20
21.120396
 11
214.073792
 21
20.870407
  0
LINE
  8
0
 62
     4
 10
215.574036
 20
21.120407
 11
216.323792
 21
21.120407
  0
LINE
  8
0
 62
     1
 10
216.323792
 20
20.874786
 11
216.323792
 21
21.120407
  0
LINE
  8
0
 62
     4
 10
216.323776
 20
21.120403
 11
216.573792
 21
20.870396
  0
LINE
  8
0
 62
     4
 10
216.573792
 20
20.709946
 11
216.573792
 21
20.870407
  0
LINE
  8
0
 62
     4
 10
213.273804
 20
17.640396
 11
213.273804
 21
19.090408
  0
LINE
  8
0
  6
CENTER
 62
     2
 10
228.323792
 20
100.170395
 11
236.323792
 21
100.170395
  0
LINE
  8
0
  6
CENTER
 62
     2
 10
-218.176193
 20
61.670410
 11
-230.196182
 21
61.670410
  0
LINE
  8
0
  6
DASHED
 62
     2
 10
-225.156189
 20
59.420410
 11
-227.656189
 21
59.420410
  0
LINE
  8
0
  6
DASHED
 62
     2
 10
-225.156189
 20
65.920410
 11
-225.156189
 21
57.420410
  0
LINE
  8
0
  6
DASHED
 62
     2
 10
-221.456192
 20
57.420410
 11
-225.156189
 21
57.420410
  0
LINE
  8
0
  6
DASHED
 62
     2
 10
-221.456192
 20
57.420410
 11
-221.456192
 21
59.420410
  0
LINE
  8
0
  6
DASHED
 62
     2
 10
-220.456192
 20
59.420410
 11
-221.456192
 21
59.420410
  0
LINE
  8
0
  6
DASHED
 62
     2
 10
-220.456192
 20
63.920410
 11
-221.456192
 21
63.920410
  0
LINE
  8
0
  6
DASHED
 62
     2
 10
-221.456192
 20
65.920410
 11
-221.456192
 21
63.920410
  0
LINE
  8
0
  6
DASHED
 62
     2
 10
-221.456192
 20
65.920410
 11
-225.156189
 21
65.920410
  0
LINE
  8
0
  6
DASHED
 62
     2
 10
-225.156189
 20
63.920410
 11
-227.656189
 21
63.920410
  0
LINE
  8
0
  6
DASHED
 62
     2
 10
-220.456192
 20
63.920410
 11
-220.456192
 21
59.420410
  0
LINE
  8
0
  6
CENTER
 62
     2
 10
-218.576187
 20
27.670410
 11
-230.196182
 21
27.670410
  0
LINE
  8
0
  6
DASHED
 62
     2
 10
-225.156189
 20
25.420410
 11
-227.656189
 21
25.420410
  0
LINE
  8
0
  6
DASHED
 62
     2
 10
-225.156189
 20
31.920410
 11
-225.156189
 21
23.420410
  0
LINE
  8
0
  6
DASHED
 62
     2
 10
-221.456192
 20
23.420410
 11
-225.156189
 21
23.420410
  0
LINE
  8
0
  6
DASHED
 62
     2
 10
-221.456192
 20
23.420410
 11
-221.456192
 21
25.420410
  0
LINE
  8
0
  6
DASHED
 62
     2
 10
-220.456192
 20
25.420410
 11
-221.456192
 21
25.420410
  0
LINE
  8
0
  6
DASHED
 62
     2
 10
-220.456192
 20
29.920410
 11
-221.456192
 21
29.920410
  0
LINE
  8
0
  6
DASHED
 62
     2
 10
-221.456192
 20
31.920410
 11
-221.456192
 21
29.920410
  0
LINE
  8
0
  6
DASHED
 62
     2
 10
-221.456192
 20
31.920410
 11
-225.156189
 21
31.920410
  0
LINE
  8
0
  6
DASHED
 62
     2
 10
-225.156189
 20
29.920410
 11
-227.656189
 21
29.920410
  0
LINE
  8
0
  6
DASHED
 62
     2
 10
-220.456192
 20
29.920410
 11
-220.456192
 21
25.420410
  0
LINE
  8
0
  6
DASHED
 62
     2
 10
-227.156189
 20
53.170410
 11
-227.156189
 21
36.170410
  0
LINE
  8
0
  6
DASHED
 62
     2
 10
-227.656189
 20
53.670391
 11
-227.156189
 21
53.170391
  0
LINE
  8
0
  6
DASHED
 62
     2
 10
-227.656189
 20
35.670395
 11
-227.156189
 21
36.170395
  0
LINE
  8
0
  6
DASHED
 62
     2
 10
-222.106186
 20
23.420410
 11
-222.106186
 21
31.920410
  0
LINE
  8
0
  6
DASHED
 62
     2
 10
-222.106186
 20
57.420410
 11
-222.106186
 21
65.920410
  0
LINE
  8
0
 10
-193.656189
 20
79.670410
 11
-193.656189
 21
16.670410
  0
LINE
  8
0
 10
-227.656189
 20
16.670410
 11
-212.256195
 21
16.670410
  0
LINE
  8
0
 10
-227.656189
 20
16.670410
 11
-227.656189
 21
104.670395
  0
LINE
  8
0
 10
-209.056198
 20
17.170410
 11
-209.056198
 21
16.670410
  0
LINE
  8
0
 10
-208.556198
 20
17.670408
 11
-209.056198
 21
17.170408
  0
LINE
  8
0
 10
-208.556198
 20
17.670410
 11
-208.556198
 21
19.270401
  0
LINE
  8
0
 10
-212.756195
 20
17.670410
 11
-214.256195
 21
17.670410
  0
LINE
  8
0
 10
-212.756180
 20
17.670397
 11
-212.256180
 21
17.170397
  0
LINE
  8
0
 10
-212.256195
 20
17.170410
 11
-212.256195
 21
16.670410
  0
LINE
  8
0
 10
-209.056198
 20
16.670410
 11
-193.656189
 21
16.670410
  0
LINE
  8
0
  6
CENTER
 62
     1
 10
-210.656189
 20
22.440399
 11
-210.656189
 21
14.520401
  0
LINE
  8
0
 10
-208.156189
 20
21.670410
 11
-208.156189
 21
16.670410
  0
LINE
  8
0
 10
-219.156189
 20
21.670410
 11
-208.156189
 21
21.670410
  0
LINE
  8
0
  6
CENTER
 62
     2
 10
-218.616196
 20
58.170410
 11
-196.586197
 21
58.170410
  0
LINE
  8
0
 10
-199.656189
 20
104.670395
 11
-227.656189
 21
104.670395
  0
LINE
  8
0
 10
-199.656189
 20
104.670395
 11
-199.656189
 21
16.670410
  0
LINE
  8
0
  6
CENTER
 62
     2
 10
-217.656189
 20
70.670410
 11
-217.656189
 21
60.020401
  0
LINE
  8
0
  6
CENTER
 62
     2
 10
-222.156189
 20
66.170410
 11
-213.156189
 21
66.170410
  0
LINE
  8
0
 10
-215.646194
 20
18.470398
 11
-217.256195
 21
18.470398
  0
LINE
  8
0
 10
-214.896194
 20
21.270401
 11
-217.256195
 21
21.270401
  0
LINE
  8
0
 10
-214.256180
 20
17.670401
 11
-215.646194
 21
18.470413
  0
LINE
  8
0
 10
-212.376190
 20
20.470398
 11
-213.506195
 21
20.470398
  0
LINE
  8
0
 10
-213.506195
 20
20.470409
 11
-214.896194
 21
21.270409
  0
LINE
  8
0
 10
-219.156189
 20
21.670410
 11
-219.156189
 21
16.670410
  0
LINE
  8
0
 10
-193.656189
 20
79.670410
 11
-199.656189
 21
79.670410
  0
LINE
  8
0
  6
CENTER
 62
     2
 10
-215.156189
 20
87.670395
 11
-206.156189
 21
87.670395
  0
LINE
  8
0
  6
CENTER
 62
     2
 10
-210.656189
 20
92.170395
 11
-210.656189
 21
79.020401
  0
LINE
  8
0
  6
CENTER
 62
     2
 10
-209.156189
 20
67.350403
 11
-209.156189
 21
49.170410
  0
LINE
  8
0
 10
-209.806198
 20
63.120407
 11
-209.806198
 21
53.210403
  0
LINE
  8
0
 10
-208.506195
 20
63.120407
 11
-208.506195
 21
53.210403
  0
LINE
  8
0
 62
     4
 10
-209.156189
 20
16.540405
 11
-212.156189
 21
16.540405
  0
LINE
  8
0
 62
     4
 10
-212.706192
 20
17.640396
 11
-212.706192
 21
19.090408
  0
LINE
  8
0
 62
     4
 10
-208.606201
 20
17.640396
 11
-208.606201
 21
19.090408
  0
LINE
  8
0
 62
     4
 10
-209.156189
 20
16.540405
 11
-209.156189
 21
17.090408
  0
LINE
  8
0
 62
     4
 10
-212.156189
 20
16.540405
 11
-212.156189
 21
17.090408
  0
LINE
  8
0
 62
     4
 10
-208.606186
 20
17.640400
 11
-209.156174
 21
17.090403
  0
LINE
  8
0
 62
     4
 10
-212.706192
 20
17.640411
 11
-212.156189
 21
17.090403
  0
LINE
  8
0
 62
     4
 10
-208.606201
 20
18.340408
 11
-212.706192
 21
18.340408
  0
LINE
  8
0
 62
     4
 10
-208.756195
 20
18.440399
 11
-212.556183
 21
18.440399
  0
LINE
  8
0
 62
     4
 10
-212.656189
 20
18.540405
 11
-212.656189
 21
19.040405
  0
LINE
  8
0
 62
     4
 10
-208.656189
 20
18.540405
 11
-208.656189
 21
19.040405
  0
LINE
  8
0
 62
     4
 10
-208.756195
 20
19.140396
 11
-212.556183
 21
19.140396
  0
LINE
  8
0
 62
     1
 10
-211.656189
 20
16.120407
 11
-211.656189
 21
16.540405
  0
LINE
  8
0
 62
     1
 10
-209.656189
 20
16.120407
 11
-209.656189
 21
16.540405
  0
LINE
  8
0
 62
     4
 10
-209.656189
 20
16.120407
 11
-211.656189
 21
16.120407
  0
LINE
  8
0
 62
     4
 10
-209.656189
 20
21.120407
 11
-211.656189
 21
21.120407
  0
LINE
  8
0
 62
     4
 10
-209.406189
 20
16.370415
 11
-209.656204
 21
16.120411
  0
LINE
  8
0
 62
     4
 10
-211.656189
 20
21.120403
 11
-211.906189
 21
20.870405
  0
LINE
  8
0
 62
     4
 10
-211.906189
 20
16.370415
 11
-211.656189
 21
16.120405
  0
LINE
  8
0
 62
     4
 10
-209.656174
 20
21.120394
 11
-209.406189
 21
20.870403
  0
LINE
  8
0
 62
     4
 10
-209.406189
 20
19.140396
 11
-209.406189
 21
20.870407
  0
LINE
  8
0
 62
     1
 10
-209.656189
 20
19.140396
 11
-209.656189
 21
21.120407
  0
LINE
  8
0
 62
     1
 10
-211.656189
 20
19.140396
 11
-211.656189
 21
21.120407
  0
LINE
  8
0
 62
     4
 10
-211.906189
 20
19.140396
 11
-211.906189
 21
20.870407
  0
LINE
  8
0
 62
     4
 10
-209.406189
 20
16.370407
 11
-209.406189
 21
16.540405
  0
LINE
  8
0
 62
     1
 10
-209.656189
 20
18.340408
 11
-209.656189
 21
18.440399
  0
LINE
  8
0
 62
     1
 10
-211.656189
 20
18.340408
 11
-211.656189
 21
18.440399
  0
LINE
  8
0
 62
     4
 10
-211.906189
 20
16.370407
 11
-211.906189
 21
16.540405
  0
LINE
  8
0
 62
     4
 10
-209.406189
 20
18.340408
 11
-209.406189
 21
18.440399
  0
LINE
  8
0
 62
     4
 10
-211.906189
 20
18.340408
 11
-211.906189
 21
18.440399
  0
LINE
  8
0
  6
CENTER
 62
     2
 10
-231.656189
 20
100.170395
 11
-223.656189
 21
100.170395
  0
LINE
  8
0
  6
CENTER
 62
     2
 10
149.263733
 20
58.170410
 11
83.205261
 21
58.170410
  0
LINE
  8
0
 10
-152.666199
 20
16.670410
 11
-152.666199
 21
104.670395
  0
LINE
  8
0
 10
-152.666199
 20
16.670410
 11
157.333801
 21
16.670410
  0
LINE
  8
0
 10
157.333801
 20
16.670410
 11
157.333801
 21
104.670395
  0
LINE
  8
0
 10
-141.666199
 20
16.670410
 11
-141.666199
 21
104.670395
  0
LINE
  8
0
 10
146.333801
 20
16.670410
 11
146.333801
 21
104.670395
  0
LINE
  8
0
 10
-117.666199
 20
16.670410
 11
-117.666199
 21
79.670410
  0
LINE
  8
0
 10
-27.666199
 20
16.670410
 11
-27.666199
 21
79.670410
  0
LINE
  8
0
 10
-141.666199
 20
29.170410
 11
-122.666199
 21
29.170410
  0
LINE
  8
0
 10
-122.666199
 20
72.170410
 11
-122.666199
 21
29.170410
  0
LINE
  8
0
 10
-122.666199
 20
72.170410
 11
-141.666199
 21
72.170410
  0
LINE
  8
0
 10
-122.666199
 20
44.170410
 11
-117.666199
 21
44.170410
  0
LINE
  8
0
 10
-122.666199
 20
32.170410
 11
-117.666199
 21
32.170410
  0
LINE
  8
0
 10
-141.666199
 20
64.170410
 11
-122.666199
 21
64.170410
  0
LINE
  8
0
 10
-122.666199
 20
63.170410
 11
-117.666199
 21
63.170410
  0
LINE
  8
0
 62
     2
 10
-122.666199
 20
62.420410
 11
-117.666199
 21
62.420410
  0
LINE
  8
0
 62
     2
 10
-122.666199
 20
53.920410
 11
-117.666199
 21
53.920410
  0
LINE
  8
0
 10
-122.666199
 20
53.170410
 11
-117.666199
 21
53.170410
  0
LINE
  8
0
 10
127.333801
 20
72.170410
 11
146.333801
 21
72.170410
  0
LINE
  8
0
 10
127.333801
 20
72.170410
 11
127.333801
 21
29.170410
  0
LINE
  8
0
 10
146.333801
 20
29.170410
 11
127.333801
 21
29.170410
  0
LINE
  8
0
 10
146.333801
 20
64.170410
 11
127.333801
 21
64.170410
  0
LINE
  8
0
 10
127.333801
 20
44.170410
 11
-27.666199
 21
44.170410
  0
LINE
  8
0
 10
127.333801
 20
32.170410
 11
-27.666199
 21
32.170410
  0
LINE
  8
0
 10
-141.666199
 20
23.170410
 11
-117.666199
 21
23.170410
  0
LINE
  8
0
 10
-27.666199
 20
23.170410
 11
146.333801
 21
23.170410
  0
LINE
  8
0
  6
CENTER
 62
     2
 10
-107.666199
 20
71.170410
 11
-107.666199
 21
17.974106
  0
LINE
  8
0
  6
CENTER
 62
     2
 10
-34.166199
 20
21.670410
 11
-110.916199
 21
21.670410
  0
LINE
  8
0
  6
CENTER
 62
     2
 10
-37.666199
 20
71.170410
 11
-37.666199
 21
17.974106
  0
LINE
  8
0
  6
PHANTOM
 62
     2
 10
77.333801
 20
11.940399
 11
77.333801
 21
101.360397
  0
LINE
  8
0
 10
-27.666199
 20
63.770401
 11
127.333801
 21
63.770401
  0
LINE
  8
0
 10
-27.666199
 20
61.270401
 11
96.333801
 21
61.270401
  0
LINE
  8
0
 10
-27.666199
 20
55.070404
 11
96.333801
 21
55.070404
  0
LINE
  8
0
 10
-27.666199
 20
52.570404
 11
127.333801
 21
52.570404
  0
LINE
  8
0
 10
127.333801
 20
50.920410
 11
-27.666199
 21
50.920410
  0
LINE
  8
0
 10
127.333801
 20
46.420410
 11
-27.666199
 21
46.420410
  0
LINE
  8
0
 10
-122.666199
 20
50.920410
 11
-117.666199
 21
50.920410
  0
LINE
  8
0
 10
-122.666199
 20
46.420410
 11
-117.666199
 21
46.420410
  0
LINE
  8
0
  6
CENTER
 62
     2
 10
-147.666199
 20
106.170395
 11
-147.666199
 21
26.431122
  0
LINE
  8
0
  6
CENTER
 62
     2
 10
-153.666199
 20
100.170395
 11
-141.666199
 21
100.170395
  0
LINE
  8
0
  6
CENTER
 62
     2
 10
-153.666199
 20
34.170410
 11
-141.666199
 21
34.170410
  0
LINE
  8
0
  6
CENTER
 62
     2
 10
152.333801
 20
108.170395
 11
152.333801
 21
27.289551
  0
LINE
  8
0
  6
CENTER
 62
     2
 10
158.333801
 20
100.170395
 11
146.333801
 21
100.170395
  0
LINE
  8
0
  6
CENTER
 62
     2
 10
158.333801
 20
34.170410
 11
146.333801
 21
34.170410
  0
LINE
  8
0
 10
-141.666199
 20
104.670395
 11
-152.666199
 21
104.670395
  0
LINE
  8
0
 10
146.333801
 20
104.670395
 11
157.333801
 21
104.670395
  0
LINE
  8
0
 10
-27.666199
 20
69.670410
 11
127.333801
 21
69.670410
  0
LINE
  8
0
 10
-122.666199
 20
69.670410
 11
-117.666199
 21
69.670410
  0
LINE
  8
0
  6
CENTER
 62
     2
 10
-145.223709
 20
87.670395
 11
150.483704
 21
87.670395
  0
LINE
  8
0
 10
-141.666199
 20
96.370392
 11
-102.166199
 21
96.370392
  0
LINE
  8
0
 10
-141.666199
 20
78.970398
 11
-117.666199
 21
78.970398
  0
LINE
  8
0
  6
CENTER
 62
     2
 10
-33.666199
 20
67.670410
 11
-110.826202
 21
67.670410
  0
LINE
  8
0
 10
-102.166199
 20
102.670395
 11
-43.166199
 21
102.670395
  0
LINE
  8
0
 10
-43.166199
 20
102.670395
 11
-43.166199
 21
79.670410
  0
LINE
  8
0
 10
-102.166199
 20
102.670395
 11
-102.166199
 21
79.670410
  0
LINE
  8
0
 10
-117.666199
 20
79.670410
 11
-27.666199
 21
79.670410
  0
LINE
  8
0
 10
-27.666199
 20
78.970398
 11
146.333801
 21
78.970398
  0
LINE
  8
0
 10
-43.166199
 20
96.370392
 11
146.333801
 21
96.370392
  0
LINE
  8
0
 10
139.839905
 20
49.531143
 11
139.839905
 21
47.811142
  0
LINE
  8
0
 10
142.839905
 20
49.531143
 11
142.839905
 21
47.811142
  0
LINE
  8
0
 10
139.840042
 20
49.531132
 11
141.340042
 21
50.401131
  0
LINE
  8
0
 10
141.340042
 20
46.941135
 11
142.840057
 21
47.811142
  0
LINE
  8
0
 10
141.339981
 20
50.401176
 11
142.839844
 21
49.531258
  0
LINE
  8
0
 10
139.840027
 20
47.811165
 11
141.339905
 21
46.941238
  0
LINE
  8
0
 10
130.839905
 20
49.531143
 11
130.839905
 21
47.811142
  0
LINE
  8
0
 10
133.839905
 20
49.531143
 11
133.839905
 21
47.811142
  0
LINE
  8
0
 10
130.840027
 20
49.531124
 11
132.340042
 21
50.401138
  0
LINE
  8
0
 10
132.340042
 20
46.941135
 11
133.840042
 21
47.811134
  0
LINE
  8
0
 10
132.339890
 20
50.401237
 11
133.839966
 21
49.531193
  0
LINE
  8
0
 10
130.839920
 20
47.811207
 11
132.339996
 21
46.941162
  0
LINE
  8
0
 10
135.339905
 20
69.031143
 11
135.339905
 21
67.311142
  0
LINE
  8
0
 10
138.339905
 20
69.031143
 11
138.339905
 21
67.311142
  0
LINE
  8
0
 10
135.340057
 20
69.031128
 11
136.840057
 21
69.901123
  0
LINE
  8
0
 10
136.840027
 20
66.441132
 11
138.340057
 21
67.311150
  0
LINE
  8
0
 10
136.839874
 20
69.901245
 11
138.339951
 21
69.031197
  0
LINE
  8
0
 10
135.339920
 20
67.311218
 11
136.839996
 21
66.441170
  0
LINE
  8
0
 10
-133.659958
 20
69.031143
 11
-133.659958
 21
67.311142
  0
LINE
  8
0
 10
-130.659973
 20
69.031143
 11
-130.659973
 21
67.311142
  0
LINE
  8
0
 10
-133.659958
 20
69.031151
 11
-132.159958
 21
69.901146
  0
LINE
  8
0
 10
-132.159973
 20
66.441147
 11
-130.659973
 21
67.311150
  0
LINE
  8
0
 10
-132.159958
 20
69.901146
 11
-130.659958
 21
69.031151
  0
LINE
  8
0
 10
-133.659973
 20
67.311157
 11
-132.159958
 21
66.441154
  0
LINE
  8
0
 10
-138.159958
 20
49.531143
 11
-138.159958
 21
47.811142
  0
LINE
  8
0
 10
-135.159958
 20
49.531143
 11
-135.159958
 21
47.811142
  0
LINE
  8
0
 10
-138.159943
 20
49.531151
 11
-136.659973
 21
50.401146
  0
LINE
  8
0
 10
-136.659958
 20
46.941147
 11
-135.159958
 21
47.811146
  0
LINE
  8
0
 10
-136.659973
 20
50.401150
 11
-135.159973
 21
49.531151
  0
LINE
  8
0
 10
-138.159973
 20
47.811146
 11
-136.659973
 21
46.941147
  0
LINE
  8
0
 10
-129.159973
 20
49.531143
 11
-129.159973
 21
47.811142
  0
LINE
  8
0
 10
-126.159973
 20
49.531143
 11
-126.159973
 21
47.811142
  0
LINE
  8
0
 10
-129.159973
 20
49.531139
 11
-127.659966
 21
50.401138
  0
LINE
  8
0
 10
-127.659981
 20
46.941151
 11
-126.159973
 21
47.811153
  0
LINE
  8
0
 10
-127.659973
 20
50.401150
 11
-126.159966
 21
49.531143
  0
LINE
  8
0
 10
-129.159958
 20
47.811157
 11
-127.659958
 21
46.941154
  0
LINE
  8
0
  6
CENTER
 62
     2
 10
-72.666199
 20
6.578735
 11
-72.666199
 21
111.554482
  0
LINE
  8
0
 62
     2
 10
127.333801
 20
62.420410
 11
99.833801
 21
62.420410
  0
LINE
  8
0
 10
127.333801
 20
63.170410
 11
100.583801
 21
63.170410
  0
LINE
  8
0
 62
     2
 10
127.333801
 20
53.920410
 11
99.833801
 21
53.920410
  0
LINE
  8
0
 10
127.333801
 20
53.170410
 11
100.583801
 21
53.170410
  0
LINE
  8
0
 10
99.833778
 20
62.420403
 11
100.583786
 21
63.170399
  0
LINE
  8
0
 10
100.583801
 20
63.170410
 11
100.583801
 21
53.170410
  0
LINE
  8
0
 10
99.833801
 20
53.920395
 11
100.583794
 21
53.170399
  0
LINE
  8
0
 10
99.833801
 20
53.920410
 11
99.833801
 21
62.420410
  0
LINE
  8
0
 10
86.333801
 20
59.670410
 11
96.333801
 21
59.670410
  0
LINE
  8
0
 10
86.333801
 20
56.670410
 11
96.333801
 21
56.670410
  0
LINE
  8
0
  6
DASHED
 10
146.333801
 20
53.920410
 11
146.333801
 21
57.520401
  0
LINE
  8
0
  6
CENTER
 62
     1
 10
-76.166199
 20
68.670410
 11
-69.116211
 21
68.670410
  0
LINE
  8
0
  6
CENTER
 62
     1
 10
-76.226212
 20
66.670410
 11
-69.206207
 21
66.670410
  0
LINE
  8
0
 62
     4
 10
-74.666199
 20
68.670410
 11
-74.666199
 21
66.670410
  0
LINE
  8
0
 62
     4
 10
-70.666199
 20
68.670410
 11
-70.666199
 21
66.670410
  0
LINE
  8
0
 10
96.333801
 20
53.920410
 11
96.333801
 21
62.420410
  0
LINE
  8
0
 10
86.333801
 20
56.670410
 11
86.333801
 21
59.670410
  0
LINE
  8
0
  6
DASHED
 10
146.333801
 20
58.820404
 11
146.333801
 21
62.420410
  0
LINE
  8
0
 10
99.833801
 20
62.420410
 11
96.333801
 21
62.420410
  0
LINE
  8
0
 10
99.833801
 20
53.920410
 11
96.333801
 21
53.920410
  0
LINE
  8
0
  6
DASHED
 10
-141.666199
 20
53.920410
 11
-141.666199
 21
57.520401
  0
LINE
  8
0
  6
DASHED
 10
-141.666199
 20
58.820404
 11
-141.666199
 21
62.420410
  0
LINE
  8
0
  6
PHANTOM
 62
     3
 10
31.820114
 20
-16.071472
 11
31.820114
 21
108.504662
  0
LINE
  8
0
 10
-35.250000
 20
-159.000000
 11
-35.250000
 21
-175.000000
  0
LINE
  8
0
 10
-57.250000
 20
-159.000000
 11
-57.250000
 21
-175.000000
  0
LINE
  8
0
 10
-79.250000
 20
-159.000000
 11
-79.250000
 21
-175.000000
  0
LINE
  8
0
 10
-101.250000
 20
-159.000000
 11
-101.250000
 21
-175.000000
  0
LINE
  8
0
 10
-123.250000
 20
-159.000000
 11
-123.250000
 21
-175.000000
  0
LINE
  8
0
 10
-261.250000
 20
-159.000000
 11
-261.250000
 21
-175.000000
  0
LINE
  8
0
 10
-261.250000
 20
-175.000000
 11
-35.250000
 21
-175.000000
  0
LINE
  8
0
 10
-261.250000
 20
-167.000000
 11
-35.250000
 21
-167.000000
  0
LINE
  8
0
 10
-211.250000
 20
-159.000000
 11
-211.250000
 21
-175.000000
  0
LINE
  8
0
 10
-189.250000
 20
-159.000000
 11
-189.250000
 21
-175.000000
  0
LINE
  8
0
 10
-167.250000
 20
-159.000000
 11
-167.250000
 21
-175.000000
  0
LINE
  8
0
 10
-145.250000
 20
-159.000000
 11
-145.250000
 21
-175.000000
  0
LINE
  8
0
 10
-261.250000
 20
-159.000000
 11
-35.250000
 21
-159.000000
  0
LINE
  8
0
 10
-281.250000
 20
195.500000
 11
282.099854
 21
195.500000
  0
LINE
  8
0
 10
-281.250000
 20
195.500000
 11
-281.250000
 21
-195.000000
  0
LINE
  8
0
 10
282.099854
 20
195.500000
 11
282.099854
 21
-195.000000
  0
LINE
  8
0
 10
-281.250000
 20
-195.000000
 11
282.099854
 21
-195.000000
  0
LINE
  8
0
 10
162.099976
 20
-175.000000
 11
162.099976
 21
-195.000000
  0
LINE
  8
0
 10
162.099976
 20
-175.000000
 11
282.099854
 21
-175.000000
  0
LINE
  8
0
 10
162.099976
 20
175.500000
 11
282.099854
 21
175.500000
  0
LINE
  8
0
 10
-281.250000
 20
175.500000
 11
-161.250000
 21
175.500000
  0
LINE
  8
0
 10
162.099976
 20
195.500000
 11
162.099976
 21
175.500000
  0
LINE
  8
0
 10
-161.250000
 20
195.500000
 11
-161.250000
 21
175.500000
  0
ARC
  8
0
 62
     1
 10
105.137802
 20
-66.923843
 40
0.963535
 50
321.864777
 51
38.135212
  0
ARC
  8
0
 62
     1
 10
106.653549
 20
-65.733841
 40
0.963535
 50
141.864792
 51
218.135208
  0
CIRCLE
  8
0
 62
     4
 10
-69.659988
 20
-66.328842
 40
1.500000
  0
CIRCLE
  8
0
 62
     4
 10
80.340012
 20
-66.328842
 40
1.500000
  0
ARC
  8
0
 10
215.326981
 20
87.664604
 40
15.000806
 50
137.181076
 51
212.202820
  0
ARC
  8
0
 10
221.923798
 20
19.870407
 40
1.400005
 50
270.000000
 51
90.000000
  0
CIRCLE
  8
0
 10
213.827576
 20
58.171143
 40
6.500000
  0
CIRCLE
  8
0
 62
     2
 10
213.827576
 20
58.171143
 40
4.250000
  0
CIRCLE
  8
0
 10
213.827576
 20
58.171143
 40
5.000000
  0
ARC
  8
0
 10
215.322540
 20
19.269562
 40
2.098748
 50
34.901909
 51
179.976822
  0
CIRCLE
  8
0
 62
     4
 10
215.323792
 20
18.890396
 40
1.299999
  0
CIRCLE
  8
0
 62
     4
 10
215.323792
 20
19.340408
 40
0.450000
  0
CIRCLE
  8
0
 62
     4
 10
215.323792
 20
18.440399
 40
0.450000
  0
CIRCLE
  8
0
 62
     4
 10
215.323792
 20
19.340408
 40
0.250000
  0
CIRCLE
  8
0
 62
     4
 10
215.323792
 20
18.440399
 40
0.250000
  0
ARC
  8
0
 62
     4
 10
215.323792
 20
19.085739
 40
2.050003
 50
0.000000
 51
179.999954
  0
CIRCLE
  8
0
 10
-217.656189
 20
66.170410
 40
2.066999
  0
CIRCLE
  8
0
 10
-210.656189
 20
87.670395
 40
2.066999
  0
ARC
  8
0
 10
-210.654938
 20
19.269562
 40
2.098740
 50
0.023119
 51
145.098083
  0
CIRCLE
  8
0
 10
-209.159973
 20
58.171143
 40
5.000000
  0
CIRCLE
  8
0
 62
     2
 10
-209.159973
 20
58.171143
 40
4.250000
  0
CIRCLE
  8
0
 10
-209.159973
 20
58.171143
 40
6.500000
  0
CIRCLE
  8
0
 62
     2
 10
-217.659973
 20
66.171143
 40
2.500000
  0
ARC
  8
0
 10
-217.256195
 20
19.870407
 40
1.400005
 50
90.000000
 51
270.000000
  0
ARC
  8
0
 10
-210.659378
 20
87.664604
 40
15.000804
 50
327.797119
 51
42.818897
  0
CIRCLE
  8
0
 62
     2
 10
-210.659973
 20
87.671143
 40
2.500000
  0
ARC
  8
0
 62
     4
 10
-212.558456
 20
19.042664
 40
0.097764
 50
88.676384
 51
181.324814
  0
ARC
  8
0
 62
     4
 10
-212.557678
 20
18.538910
 40
0.098522
 50
179.132553
 51
270.869690
  0
ARC
  8
0
 62
     4
 10
-210.661453
 20
19.088181
 40
2.044749
 50
127.499519
 51
179.937790
  0
ARC
  8
0
 62
     4
 10
-210.657043
 20
19.085159
 40
2.050864
 50
0.146271
 51
52.416515
  0
ARC
  8
0
 62
     4
 10
-208.758484
 20
18.542694
 40
0.102315
 50
271.281830
 51
358.717163
  0
ARC
  8
0
 62
     4
 10
-208.757751
 20
19.038849
 40
0.101559
 50
0.873790
 51
89.121925
  0
CIRCLE
  8
0
 10
-37.666199
 20
21.670410
 40
1.620999
  0
CIRCLE
  8
0
 10
-107.666199
 20
21.670410
 40
1.620999
  0
CIRCLE
  8
0
 10
-107.666199
 20
67.670410
 40
1.620999
  0
CIRCLE
  8
0
 10
-37.666199
 20
67.670410
 40
1.620999
  0
CIRCLE
  8
0
 10
-132.159958
 20
68.171143
 40
3.500000
  0
CIRCLE
  8
0
 10
136.839905
 20
68.171143
 40
3.500000
  0
CIRCLE
  8
0
 62
     2
 10
-107.659973
 20
67.671143
 40
2.000000
  0
CIRCLE
  8
0
 62
     2
 10
-37.659988
 20
21.671143
 40
2.000000
  0
CIRCLE
  8
0
 62
     2
 10
-107.659973
 20
21.671143
 40
2.000000
  0
CIRCLE
  8
0
 62
     2
 10
-37.659988
 20
67.671143
 40
2.000000
  0
CIRCLE
  8
0
 10
-147.659958
 20
100.171143
 40
4.000000
  0
CIRCLE
  8
0
 10
-147.659958
 20
34.171143
 40
4.000000
  0
CIRCLE
  8
0
 10
152.339905
 20
100.171143
 40
4.000000
  0
CIRCLE
  8
0
 10
152.339905
 20
34.171143
 40
4.000000
  0
CIRCLE
  8
0
 10
-147.659958
 20
100.171143
 40
2.400000
  0
CIRCLE
  8
0
 10
152.339905
 20
100.171143
 40
2.400000
  0
CIRCLE
  8
0
 10
152.339905
 20
34.171143
 40
2.400000
  0
CIRCLE
  8
0
 10
-147.659958
 20
34.171143
 40
2.400000
  0
CIRCLE
  8
0
 10
141.339905
 20
48.671143
 40
3.500000
  0
CIRCLE
  8
0
 10
141.339905
 20
48.671143
 40
2.980385
  0
CIRCLE
  8
0
 10
132.339905
 20
48.671143
 40
3.500000
  0
CIRCLE
  8
0
 10
132.339905
 20
48.671143
 40
2.980385
  0
CIRCLE
  8
0
 10
136.839905
 20
68.171143
 40
3.500000
  0
CIRCLE
  8
0
 10
136.839905
 20
68.171143
 40
2.980385
  0
CIRCLE
  8
0
 10
-132.159958
 20
68.171143
 40
3.500000
  0
CIRCLE
  8
0
 10
-132.159958
 20
68.171143
 40
2.980385
  0
CIRCLE
  8
0
 10
-136.659958
 20
48.671143
 40
3.500000
  0
CIRCLE
  8
0
 10
-136.659958
 20
48.671143
 40
2.980385
  0
CIRCLE
  8
0
 10
-127.659973
 20
48.671143
 40
3.500000
  0
CIRCLE
  8
0
 10
-127.659973
 20
48.671143
 40
2.980385
  0
CIRCLE
  8
0
 62
     4
 10
-72.659988
 20
21.671143
 40
2.000000
  0
ARC
  8
0
 62
     4
 10
-72.666199
 20
68.670410
 40
2.000000
 50
0.000000
 51
180.000000
  0
ARC
  8
0
 62
     4
 10
-72.666199
 20
66.670410
 40
2.000000
 50
180.000000
 51
0.000000
  0
POLYLINE
  8
0
 62
     1
 66
     1
  0
VERTEX
  8
0
 10
-44.159988
 20
-65.138840
  0
VERTEX
  8
0
 10
-44.270519
 20
-65.417557
  0
VERTEX
  8
0
 10
-44.309982
 20
-65.718842
  0
VERTEX
  8
0
 10
-44.257164
 20
-66.030304
  0
VERTEX
  8
0
 10
-44.129990
 20
-66.338837
  0
VERTEX
  8
0
 10
-43.969090
 20
-66.674126
  0
VERTEX
  8
0
 10
-43.899994
 20
-66.998840
  0
VERTEX
  8
0
 10
-43.986092
 20
-67.275078
  0
VERTEX
  8
0
 10
-44.159988
 20
-67.518837
  0
SEQEND
  0
TEXT
  8
0
 10
-55.642658
 20
-157.050003
 40
4.500000
  1
（ｍｍ）
 50
0.000000
 41
0.833333
 51
0.000000
  7
STANDARD
  0
TEXT
  8
0
 10
-269.839050
 20
146.380005
 40
6.300000
  1
(WITH SENSOR SWITCH)
 50
0.000000
 41
1.052632
 51
0.000000
  7
STANDARD
  0
TEXT
  8
0
 10
-53.392658
 20
-174.050003
 40
4.500000
  1
450
 50
0.000000
 41
1.052632
 51
0.000000
  7
STANDARD
  0
TEXT
  8
0
 10
-53.392658
 20
-166.050003
 40
4.500000
  1
600
 50
0.000000
 41
1.052632
 51
0.000000
  7
STANDARD
  0
TEXT
  8
0
 10
-75.392654
 20
-174.050003
 40
4.500000
  1
350
 50
0.000000
 41
1.052632
 51
0.000000
  7
STANDARD
  0
TEXT
  8
0
 10
-75.392654
 20
-166.050003
 40
4.500000
  1
500
 50
0.000000
 41
1.052632
 51
0.000000
  7
STANDARD
  0
TEXT
  8
0
 10
-97.392654
 20
-174.050003
 40
4.500000
  1
250
 50
0.000000
 41
1.052632
 51
0.000000
  7
STANDARD
  0
TEXT
  8
0
 10
-97.392654
 20
-166.050003
 40
4.500000
  1
400
 50
0.000000
 41
1.052632
 51
0.000000
  7
STANDARD
  0
TEXT
  8
0
 10
-119.392654
 20
-174.050003
 40
4.500000
  1
200
 50
0.000000
 41
1.052632
 51
0.000000
  7
STANDARD
  0
TEXT
  8
0
 10
-119.392654
 20
-166.050003
 40
4.500000
  1
350
 50
0.000000
 41
1.052632
 51
0.000000
  7
STANDARD
  0
TEXT
  8
0
 10
-141.392654
 20
-174.050003
 40
4.500000
  1
150
 50
0.000000
 41
1.052632
 51
0.000000
  7
STANDARD
  0
TEXT
  8
0
 10
-141.392654
 20
-166.050003
 40
4.500000
  1
300
 50
0.000000
 41
1.052632
 51
0.000000
  7
STANDARD
  0
TEXT
  8
0
 10
-250.142654
 20
-166.050003
 40
4.500000
  1
STROKE
 50
0.000000
 41
1.052632
 51
0.000000
  7
STANDARD
  0
TEXT
  8
0
 10
-175.642654
 20
-157.050003
 40
4.500000
  1
STRETCH LIST
 50
0.000000
 41
1.052632
 51
0.000000
  7
STANDARD
  0
TEXT
  8
0
 10
-207.392654
 20
-166.050003
 40
4.500000
  1
150
 50
0.000000
 41
1.052632
 51
0.000000
  7
STANDARD
  0
TEXT
  8
0
 10
-185.392654
 20
-166.050003
 40
4.500000
  1
200
 50
0.000000
 41
1.052632
 51
0.000000
  7
STANDARD
  0
TEXT
  8
0
 10
-163.392654
 20
-166.050003
 40
4.500000
  1
250
 50
0.000000
 41
1.052632
 51
0.000000
  7
STANDARD
  0
TEXT
  8
0
 10
-202.892654
 20
-174.050003
 40
4.500000
  1
0
 50
0.000000
 41
1.052632
 51
0.000000
  7
STANDARD
  0
TEXT
  8
0
 10
-183.142654
 20
-174.050003
 40
4.500000
  1
50
 50
0.000000
 41
1.052632
 51
0.000000
  7
STANDARD
  0
TEXT
  8
0
 10
-163.392654
 20
-174.050003
 40
4.500000
  1
100
 50
0.000000
 41
1.052632
 51
0.000000
  7
STANDARD
  0
TEXT
  8
0
 10
-252.392654
 20
-174.050003
 40
4.500000
  1
STRETCH
 50
0.000000
 41
1.052632
 51
0.000000
  7
STANDARD
  0
TEXT
  8
0
 62
     3
 10
6.425992
 20
113.448853
 40
4.500000
  1
STRETCH LINE
 50
0.000000
 41
1.052632
 51
0.000000
  7
STANDARD
  0
TEXT
  8
0
 10
-272.299713
 20
180.830002
 40
6.300000
  1
RODLESS CYLINDER
 50
0.000000
 41
1.052632
 51
0.000000
  7
STANDARD
  0
TEXT
  8
0
 10
196.250259
 20
180.830002
 40
6.300000
  1
Ｖｅｒ．　１．０
 50
0.000000
 41
0.833333
 51
0.000000
  7
STANDARD
  0
TEXT
  8
0
 10
167.564667
 20
-192.100006
 40
9.000000
  1
KOGANEI CORP.
 50
0.000000
 41
1.052632
 51
0.000000
  7
STANDARD
  0
TEXT
  8
0
 10
-270.049713
 20
155.830002
 40
6.300000
  1
MODEL:MRS16*ST(150)
 50
0.000000
 41
1.052632
 51
0.000000
  7
STANDARD
  0
ENDSEC
  0
EOF
