  0
SECTION
  2
HEADER
  0
ENDSEC
  0
SECTION
  2
TABLES
  0
TABLE
  2
LTYPE
 70
     4
  0
LTYPE
  2
CONTINUOUS
 70
    64
  3
Solid line
 72
    65
 73
     0
 40
0.000000
  0
LTYPE
  2
DASHED
 70
    64
  3
__ __ __ __ __ __ __ __ __ __ __ __ __ __ __
 72
    65
 73
     2
 40
3.500000
 49
2.000000
 49
-1.500000
  0
LTYPE
  2
CENTER
 70
    64
  3
____ _ ____ _ ____ _ ____ _ ____ _ ____ _ ____
 72
    65
 73
     4
 40
17.500000
 49
13.000000
 49
-1.500000
 49
1.500000
 49
-1.500000
  0
LTYPE
  2
PHANTOM
 70
    64
  3
_____ _ _ _____ _ _ _____ _ _ _____ _ _ ____  
 72
    65
 73
     6
 40
15.500000
 49
8.000000
 49
-1.500000
 49
1.500000
 49
-1.500000
 49
1.500000
 49
-1.500000
  0
LTYPE
  2
DASHED1
 70
    64
  3
__ __ __ __ __ __ __ __ __ __ __ __ __ __ __
 72
    65
 73
     2
 40
1.500000
 49
1.000000
 49
-0.500000
  0
LTYPE
  2
DASHED2
 70
    64
  3
__ __ __ __ __ __ __ __ __ __ __ __ __ __ __
 72
    65
 73
     2
 40
3.500000
 49
2.500000
 49
-1.000000
  0
LTYPE
  2
DASHED3
 70
    64
  3
__ __ __ __ __ __ __ __ __ __ __ __ __ __ __
 72
    65
 73
     2
 40
6.000000
 49
4.000000
 49
-2.000000
  0
LTYPE
  2
DASHED4
 70
    64
  3
__ __ __ __ __ __ __ __ __ __ __ __ __ __ __
 72
    65
 73
     2
 40
12.000000
 49
10.000000
 49
-2.000000
  0
LTYPE
  2
DASHED5
 70
    64
  3
__ __ __ __ __ __ __ __ __ __ __ __ __ __ __
 72
    65
 73
     2
 40
17.000000
 49
15.000000
 49
-2.000000
  0
LTYPE
  2
DASHED6
 70
    64
  3
__ __ __ __ __ __ __ __ __ __ __ __ __ __ __
 72
    65
 73
     2
 40
29.000000
 49
27.000000
 49
-2.000000
  0
LTYPE
  2
PHANTOM1
 70
    64
  3
_____ _ _ _____ _ _ _____ _ _ _____ _ _ ____  
 72
    65
 73
     6
 40
31.000000
 49
25.000000
 49
-1.500000
 49
1.000000
 49
-1.000000
 49
1.000000
 49
-1.500000
  0
LTYPE
  2
PHANTOM2
 70
    64
  3
_____ _ _ _____ _ _ _____ _ _ _____ _ _ ____  
 72
    65
 73
     6
 40
36.000000
 49
27.000000
 49
-1.500000
 49
2.500000
 49
-1.000000
 49
2.500000
 49
-1.500000
  0
LTYPE
  2
PHANTOM3
 70
    64
  3
_____ _ _ _____ _ _ _____ _ _ _____ _ _ ____  
 72
    65
 73
     6
 40
78.000000
 49
64.000000
 49
-2.000000
 49
4.000000
 49
-2.000000
 49
4.000000
 49
-2.000000
  0
LTYPE
  2
CENTER1
 70
    64
  3
____ _ ____ _ ____ _ ____ _ ____ _ ____ _ ____
 72
    65
 73
     4
 40
19.000000
 49
14.000000
 49
-1.000000
 49
3.000000
 49
-1.000000
  0
LTYPE
  2
CENTER2
 70
    64
  3
____ _ ____ _ ____ _ ____ _ ____ _ ____ _ ____
 72
    65
 73
     4
 40
28.500000
 49
25.000000
 49
-1.000000
 49
1.500000
 49
-1.000000
  0
LTYPE
  2
CENTER3
 70
    64
  3
____ _ ____ _ ____ _ ____ _ ____ _ ____ _ ____
 72
    65
 73
     4
 40
31.500000
 49
27.000000
 49
-1.000000
 49
2.500000
 49
-1.000000
  0
LTYPE
  2
CENTER4
 70
    64
  3
____ _ ____ _ ____ _ ____ _ ____ _ ____ _ ____
 72
    65
 73
     4
 40
50.000000
 49
45.000000
 49
-1.000000
 49
3.000000
 49
-1.000000
  0
LTYPE
  2
CENTER5
 70
    64
  3
____ _ ____ _ ____ _ ____ _ ____ _ ____ _ ____
 72
    65
 73
     4
 40
100.000000
 49
92.000000
 49
-2.000000
 49
4.000000
 49
-2.000000
  0
LTYPE
  2
SBK1
 70
    64
  3
______ _ _ _ ______ _ _ _ ______ _ _ _ _____  
 72
    65
 73
     8
 40
60.500000
 49
45.000000
 49
-2.000000
 49
2.500000
 49
-2.000000
 49
2.500000
 49
-2.000000
 49
2.500000
 49
-2.000000
  0
LTYPE
  2
SBK2
 70
    64
  3
______ _ _ _ ______ _ _ _ ______ _ _ _ _____  
 72
    65
 73
     8
 40
84.000000
 49
64.000000
 49
-2.000000
 49
4.000000
 49
-2.000000
 49
4.000000
 49
-2.000000
 49
4.000000
 49
-2.000000
  0
LTYPE
  2
STCH
 70
    64
  3
__ __ __ __ __ __ __ __ __ __ __ __ __ __ __
 72
    65
 73
     2
 40
3.000000
 49
1.000000
 49
-2.000000
  0
LTYPE
  2
MTCH
 70
    64
  3
_____ _ _ _____ _ _ _____ _ _ _____ _ _ ____  
 72
    65
 73
     6
 40
80.000000
 49
66.000000
 49
-2.000000
 49
4.000000
 49
-2.000000
 49
4.000000
 49
-2.000000
  0
ENDTAB
  0
TABLE
  2
LAYER
 70
     1
  0
LAYER
  2
0
 70
     0
 62
     7
  6
CONTINUOUS
  0
ENDTAB
  0
TABLE
  2
STYLE
 70
     1
  0
STYLE
  2
STANDARD
 70
     0
 40
0.000000
 41
1.000000
 50
0.000000
 71
     0
 42
0.200000
  3
txt
  4
BIGFONT
  0
ENDTAB
  0
TABLE
  2
VIEW
 70
     0
  0
ENDTAB
  0
ENDSEC
  0
SECTION
  2
BLOCKS
  0
ENDSEC
  0
SECTION
  2
ENTITIES
  0
LINE
  8
0
 62
     4
 10
-150.495193
 20
-112.105972
 11
-150.495193
 21
-108.905960
  0
LINE
  8
0
 62
     4
 10
-144.495193
 20
-112.105972
 11
-144.495193
 21
-108.905960
  0
LINE
  8
0
 62
     4
 10
-129.495193
 20
-112.105972
 11
-129.495193
 21
-108.905960
  0
LINE
  8
0
 62
     4
 10
-127.995193
 20
-111.695969
 11
-127.995193
 21
-109.315964
  0
LINE
  8
0
 62
     4
 10
-129.495209
 20
-112.105957
 11
-127.995201
 21
-111.695961
  0
LINE
  8
0
 62
     4
 10
-129.495193
 20
-108.905960
 11
-127.995201
 21
-109.315964
  0
LINE
  8
0
 62
     4
 10
-127.995193
 20
-111.695969
 11
-122.663422
 21
-111.695969
  0
LINE
  8
0
 62
     4
 10
-127.995193
 20
-109.315964
 11
-121.289322
 21
-109.315964
  0
LINE
  8
0
 62
     4
 10
-148.275192
 20
-111.275963
 11
-146.725220
 21
-109.735977
  0
LINE
  8
0
 62
     4
 10
-148.275192
 20
-109.735962
 11
-146.725189
 21
-111.275955
  0
LINE
  8
0
 62
     4
 10
139.504639
 20
-118.105972
 11
139.504639
 21
-114.905960
  0
LINE
  8
0
 62
     4
 10
145.504639
 20
-118.105972
 11
145.504639
 21
-114.905960
  0
LINE
  8
0
 62
     4
 10
160.504639
 20
-118.105972
 11
160.504639
 21
-114.905960
  0
LINE
  8
0
 62
     4
 10
162.004639
 20
-117.695969
 11
162.004639
 21
-115.315964
  0
LINE
  8
0
 62
     4
 10
160.504730
 20
-118.105972
 11
162.004639
 21
-117.695992
  0
LINE
  8
0
 62
     4
 10
160.504593
 20
-114.905907
 11
162.004730
 21
-115.315941
  0
LINE
  8
0
 62
     4
 10
162.004639
 20
-117.695969
 11
167.353516
 21
-117.695969
  0
LINE
  8
0
 62
     4
 10
162.004639
 20
-115.315964
 11
168.727539
 21
-115.315964
  0
LINE
  8
0
 62
     4
 10
141.724655
 20
-117.276031
 11
143.274719
 21
-115.735970
  0
LINE
  8
0
 62
     4
 10
141.724762
 20
-115.735916
 11
143.274673
 21
-117.275810
  0
LINE
  8
0
 10
-243.500000
 20
-102.200012
 11
-248.500000
 21
-102.200012
  0
LINE
  8
0
 10
-57.500000
 20
-102.200012
 11
247.500000
 21
-102.200012
  0
LINE
  8
0
 10
247.500000
 20
-94.500000
 11
247.500000
 21
-106.000000
  0
LINE
  8
0
 10
282.500000
 20
-90.000000
 11
299.500000
 21
-90.000000
  0
LINE
  8
0
 10
-300.500000
 20
-90.000000
 11
-283.500000
 21
-90.000000
  0
LINE
  8
0
 10
282.500000
 20
-125.000000
 11
299.500000
 21
-125.000000
  0
LINE
  8
0
 10
-283.500000
 20
-125.000000
 11
-300.500000
 21
-125.000000
  0
LINE
  8
0
 10
-283.500000
 20
-108.900009
 11
282.500000
 21
-108.900009
  0
LINE
  8
0
  6
CENTER
 62
     2
 10
-287.910004
 20
-110.500000
 11
286.119873
 21
-110.500000
  0
LINE
  8
0
 10
-283.500000
 20
-112.100006
 11
282.500000
 21
-112.100006
  0
LINE
  8
0
 10
211.000000
 20
-103.750000
 11
206.500000
 21
-103.750000
  0
LINE
  8
0
 10
206.500000
 20
-103.750000
 11
206.500000
 21
-106.000000
  0
LINE
  8
0
 10
211.750000
 20
-103.000000
 11
211.750000
 21
-106.000000
  0
LINE
  8
0
 10
211.000000
 20
-103.750000
 11
211.000000
 21
-106.000000
  0
LINE
  8
0
 10
210.999741
 20
-103.750000
 11
211.749832
 21
-102.999901
  0
LINE
  8
0
 62
     2
 10
247.500000
 20
-103.750000
 11
211.000000
 21
-103.750000
  0
LINE
  8
0
 10
247.500000
 20
-103.000000
 11
211.750000
 21
-103.000000
  0
LINE
  8
0
 10
247.500000
 20
-94.500000
 11
282.500000
 21
-94.500000
  0
LINE
  8
0
 62
     2
 10
-248.500000
 20
-103.750000
 11
-243.500000
 21
-103.750000
  0
LINE
  8
0
 10
-248.500000
 20
-103.000000
 11
-243.500000
 21
-103.000000
  0
LINE
  8
0
 10
-248.500000
 20
-94.500000
 11
-248.500000
 21
-106.000000
  0
LINE
  8
0
 10
-283.500000
 20
-94.500000
 11
-248.500000
 21
-94.500000
  0
LINE
  8
0
 10
-60.500000
 20
-105.000000
 11
-60.500000
 21
-106.000000
  0
LINE
  8
0
 10
-143.500000
 20
-105.000000
 11
-143.500000
 21
-106.000000
  0
LINE
  8
0
 10
-240.500000
 20
-105.000000
 11
-240.500000
 21
-106.000000
  0
LINE
  8
0
 10
-157.500000
 20
-105.000000
 11
-157.500000
 21
-106.000000
  0
LINE
  8
0
 10
-283.500000
 20
-108.000000
 11
-300.500000
 21
-108.000000
  0
LINE
  8
0
 10
282.500000
 20
-108.000000
 11
299.500000
 21
-108.000000
  0
LINE
  8
0
 10
-283.500000
 20
-118.100006
 11
282.500000
 21
-118.100006
  0
LINE
  8
0
 10
-283.500000
 20
-114.900009
 11
282.500000
 21
-114.900009
  0
LINE
  8
0
  6
CENTER
 62
     2
 10
-287.910004
 20
-116.500000
 11
286.119873
 21
-116.500000
  0
LINE
  8
0
 10
-57.500000
 20
-105.000000
 11
-243.500000
 21
-105.000000
  0
LINE
  8
0
 10
-243.500000
 20
-89.000000
 11
-243.500000
 21
-105.000000
  0
LINE
  8
0
 10
-57.500000
 20
-89.000000
 11
-57.500000
 21
-105.000000
  0
LINE
  8
0
 10
-243.500000
 20
-89.000000
 11
-57.500000
 21
-89.000000
  0
LINE
  8
0
  6
CENTER
 62
     2
 10
-150.500000
 20
-154.820007
 11
-150.500000
 21
-84.090012
  0
LINE
  8
0
 10
-283.500000
 20
-106.000000
 11
282.500000
 21
-106.000000
  0
LINE
  8
0
 10
282.500000
 20
-90.000000
 11
282.500000
 21
-149.000000
  0
LINE
  8
0
 10
299.500000
 20
-149.000000
 11
299.500000
 21
-90.000000
  0
LINE
  8
0
 10
-283.500000
 20
-90.000000
 11
-283.500000
 21
-149.000000
  0
LINE
  8
0
 10
-300.500000
 20
-149.000000
 11
299.500000
 21
-149.000000
  0
LINE
  8
0
 10
-300.500000
 20
-149.000000
 11
-300.500000
 21
-90.000000
  0
LINE
  8
0
 62
     1
 10
167.353485
 20
-117.695915
 11
168.727509
 21
-115.316040
  0
LINE
  8
0
 62
     1
 10
-122.663422
 20
-111.695953
 11
-121.289330
 21
-109.315956
  0
LINE
  8
0
  6
CENTER
 62
     2
 10
-292.500000
 20
-153.000000
 11
-292.500000
 21
-145.000000
  0
LINE
  8
0
  6
PHANTOM
 62
     3
 10
23.541504
 20
-162.733734
 11
23.541504
 21
-38.131805
  0
LINE
  8
0
  6
DASHED
 62
     2
 10
374.199799
 20
3.750000
 11
374.199799
 21
18.250000
  0
LINE
  8
0
  6
DASHED
 62
     2
 10
373.549805
 20
15.250000
 11
373.549805
 21
18.250000
  0
LINE
  8
0
  6
DASHED
 62
     2
 10
372.549805
 20
15.250000
 11
373.549805
 21
15.250000
  0
LINE
  8
0
  6
DASHED
 62
     2
 10
372.549805
 20
6.750000
 11
372.549805
 21
15.250000
  0
LINE
  8
0
  6
DASHED
 62
     2
 10
372.549805
 20
6.750000
 11
373.549805
 21
6.750000
  0
LINE
  8
0
  6
DASHED
 62
     2
 10
373.549805
 20
3.750000
 11
373.549805
 21
6.750000
  0
LINE
  8
0
  6
DASHED
 62
     2
 10
373.549805
 20
18.250000
 11
380.049805
 21
18.250000
  0
LINE
  8
0
  6
DASHED
 62
     2
 10
373.549805
 20
3.750000
 11
380.049805
 21
3.750000
  0
LINE
  8
0
  6
DASHED
 62
     2
 10
380.049805
 20
18.250000
 11
380.049805
 21
3.750000
  0
LINE
  8
0
  6
CENTER
 62
     2
 10
370.109802
 20
11.000000
 11
386.349792
 21
11.000000
  0
LINE
  8
0
  6
DASHED
 62
     2
 10
380.049805
 20
6.750000
 11
384.049805
 21
6.750000
  0
LINE
  8
0
  6
DASHED
 62
     2
 10
380.049805
 20
15.250000
 11
384.049805
 21
15.250000
  0
LINE
  8
0
  6
DASHED
 62
     2
 10
374.199799
 20
63.750000
 11
374.199799
 21
78.250000
  0
LINE
  8
0
  6
DASHED
 62
     2
 10
373.549805
 20
75.250000
 11
373.549805
 21
78.250000
  0
LINE
  8
0
  6
DASHED
 62
     2
 10
372.549805
 20
75.250000
 11
373.549805
 21
75.250000
  0
LINE
  8
0
  6
DASHED
 62
     2
 10
372.549805
 20
66.750000
 11
372.549805
 21
75.250000
  0
LINE
  8
0
  6
DASHED
 62
     2
 10
372.549805
 20
66.750000
 11
373.549805
 21
66.750000
  0
LINE
  8
0
  6
DASHED
 62
     2
 10
373.549805
 20
63.750000
 11
373.549805
 21
66.750000
  0
LINE
  8
0
  6
DASHED
 62
     2
 10
373.549805
 20
78.250000
 11
380.049805
 21
78.250000
  0
LINE
  8
0
  6
DASHED
 62
     2
 10
373.549805
 20
63.750000
 11
380.049805
 21
63.750000
  0
LINE
  8
0
  6
DASHED
 62
     2
 10
380.049805
 20
78.250000
 11
380.049805
 21
63.750000
  0
LINE
  8
0
  6
CENTER
 62
     2
 10
370.109802
 20
71.000000
 11
386.349792
 21
71.000000
  0
LINE
  8
0
  6
DASHED
 62
     2
 10
380.049805
 20
66.750000
 11
384.049805
 21
66.750000
  0
LINE
  8
0
  6
DASHED
 62
     2
 10
380.049805
 20
75.250000
 11
384.049805
 21
75.250000
  0
LINE
  8
0
 10
324.049805
 20
101.000000
 11
324.049805
 21
-1.000000
  0
LINE
  8
0
 10
384.049805
 20
-1.000000
 11
353.149811
 21
-1.000000
  0
LINE
  8
0
 10
384.049805
 20
159.000000
 11
384.049805
 21
-1.000000
  0
LINE
  8
0
 10
324.049805
 20
101.000000
 11
325.049805
 21
101.000000
  0
LINE
  8
0
  6
CENTER
 62
     2
 10
345.549805
 20
78.000000
 11
345.549805
 21
50.000000
  0
LINE
  8
0
  6
CENTER
 62
     2
 10
359.549805
 20
64.000000
 11
330.099792
 21
64.000000
  0
LINE
  8
0
 10
349.949829
 20
-0.500000
 11
349.949829
 21
-1.000000
  0
LINE
  8
0
 10
349.449799
 20
0.000014
 11
349.949799
 21
-0.499987
  0
LINE
  8
0
 10
349.449829
 20
0.000000
 11
349.449829
 21
1.600006
  0
LINE
  8
0
 10
353.649811
 20
0.000010
 11
353.149811
 21
-0.499990
  0
LINE
  8
0
 10
353.149811
 20
-0.500000
 11
353.149811
 21
-1.000000
  0
LINE
  8
0
 10
343.049805
 20
4.500000
 11
343.049805
 21
-1.000000
  0
LINE
  8
0
  6
CENTER
 62
     2
 10
374.049805
 20
75.000000
 11
357.049805
 21
75.000000
  0
LINE
  8
0
 10
343.449829
 20
0.000000
 11
343.449829
 21
1.600006
  0
LINE
  8
0
 10
343.449799
 20
0.000006
 11
343.949799
 21
-0.499995
  0
LINE
  8
0
 10
343.949829
 20
-0.500000
 11
343.949829
 21
-1.000000
  0
LINE
  8
0
 10
347.149811
 20
-0.500000
 11
347.149811
 21
-1.000000
  0
LINE
  8
0
 10
347.649811
 20
0.000011
 11
347.149811
 21
-0.499974
  0
LINE
  8
0
 10
347.649811
 20
0.000000
 11
347.649811
 21
1.600006
  0
LINE
  8
0
 10
353.649811
 20
0.000000
 11
355.149811
 21
0.000000
  0
LINE
  8
0
 10
353.269806
 20
2.800003
 11
354.399811
 21
2.800003
  0
LINE
  8
0
 10
358.149811
 20
0.800003
 11
356.529816
 21
0.800003
  0
LINE
  8
0
 10
358.149811
 20
3.600006
 11
355.779816
 21
3.600006
  0
LINE
  8
0
 10
355.149841
 20
0.000008
 11
356.529846
 21
0.800005
  0
LINE
  8
0
 10
354.399811
 20
2.799986
 11
355.779816
 21
3.599989
  0
LINE
  8
0
 10
360.049805
 20
4.500000
 11
360.049805
 21
-1.000000
  0
LINE
  8
0
  6
CENTER
 62
     2
 10
365.549805
 20
84.000000
 11
365.549805
 21
62.030014
  0
LINE
  8
0
  6
CENTER
 62
     2
 10
363.049805
 20
118.000000
 11
345.049805
 21
118.000000
  0
LINE
  8
0
  6
CENTER
 62
     2
 10
354.049805
 20
127.000000
 11
354.049805
 21
102.190002
  0
LINE
  8
0
 10
360.049805
 20
4.500000
 11
343.049805
 21
4.500000
  0
LINE
  8
0
 10
349.949829
 20
-1.000000
 11
347.149811
 21
-1.000000
  0
LINE
  8
0
 10
343.949829
 20
-1.000000
 11
324.049805
 21
-1.000000
  0
LINE
  8
0
 10
325.049805
 20
159.000000
 11
325.049805
 21
-1.000000
  0
LINE
  8
0
 10
325.049805
 20
159.000000
 11
384.049805
 21
159.000000
  0
LINE
  8
0
 10
346.199829
 20
73.980011
 11
346.199829
 21
54.020004
  0
LINE
  8
0
 10
344.899811
 20
73.980011
 11
344.899811
 21
54.020004
  0
LINE
  8
0
  6
CENTER
 62
     1
 10
351.549805
 20
7.880005
 11
351.549805
 21
-2.189987
  0
LINE
  8
0
 62
     4
 10
349.499786
 20
-0.029985
 11
350.049805
 21
-0.579986
  0
LINE
  8
0
 62
     4
 10
350.549805
 20
3.450012
 11
351.299561
 21
3.450012
  0
LINE
  8
0
 62
     4
 10
350.549805
 20
-1.549988
 11
352.549805
 21
-1.549988
  0
LINE
  8
0
 62
     4
 10
350.049805
 20
-1.129990
 11
353.049805
 21
-1.129990
  0
LINE
  8
0
  6
CENTER
 62
     1
 10
353.196259
 20
1.220001
 11
349.906799
 21
1.220001
  0
LINE
  8
0
  6
CENTER
 62
     1
 10
352.285095
 20
1.670013
 11
350.797394
 21
1.670013
  0
LINE
  8
0
  6
CENTER
 62
     1
 10
352.285095
 20
0.770004
 11
350.797394
 21
0.770004
  0
LINE
  8
0
 62
     4
 10
351.800049
 20
3.450012
 11
352.549805
 21
3.450012
  0
LINE
  8
0
 62
     1
 10
352.549805
 20
3.204391
 11
352.549805
 21
3.450012
  0
LINE
  8
0
 62
     4
 10
352.549805
 20
3.450002
 11
352.799805
 21
3.200010
  0
LINE
  8
0
 62
     4
 10
352.799805
 20
3.039551
 11
352.799805
 21
3.200012
  0
LINE
  8
0
 62
     4
 10
350.549805
 20
3.450021
 11
350.299805
 21
3.200012
  0
LINE
  8
0
 62
     4
 10
350.299805
 20
3.040009
 11
350.299805
 21
3.200012
  0
LINE
  8
0
 62
     1
 10
350.549805
 20
3.204727
 11
350.549805
 21
3.450012
  0
LINE
  8
0
 62
     4
 10
350.049805
 20
-1.079987
 11
350.049805
 21
-0.629990
  0
LINE
  8
0
 62
     4
 10
350.049805
 20
-1.129990
 11
350.049805
 21
-0.579987
  0
LINE
  8
0
 62
     4
 10
350.299805
 20
-1.299986
 11
350.549805
 21
-1.549995
  0
LINE
  8
0
 62
     4
 10
350.299805
 20
-1.299988
 11
350.299805
 21
-1.129990
  0
LINE
  8
0
 62
     1
 10
350.549805
 20
-1.549988
 11
350.549805
 21
-1.129990
  0
LINE
  8
0
 62
     4
 10
353.599792
 20
-0.029990
 11
353.049835
 21
-0.579985
  0
LINE
  8
0
 62
     4
 10
353.049805
 20
-1.079987
 11
353.049805
 21
-0.629990
  0
LINE
  8
0
 62
     4
 10
353.049805
 20
-1.129990
 11
353.049805
 21
-0.579987
  0
LINE
  8
0
 62
     4
 10
352.799805
 20
-1.299983
 11
352.549835
 21
-1.549975
  0
LINE
  8
0
 62
     4
 10
352.799805
 20
-1.299988
 11
352.799805
 21
-1.129990
  0
LINE
  8
0
 62
     1
 10
352.549805
 20
-1.549988
 11
352.549805
 21
-1.129990
  0
LINE
  8
0
 62
     4
 10
353.599792
 20
-0.029999
 11
353.599792
 21
1.420013
  0
LINE
  8
0
 62
     4
 10
349.499817
 20
-0.029999
 11
349.499817
 21
1.420013
  0
LINE
  8
0
  6
CENTER
 62
     1
 10
345.549805
 20
7.880005
 11
345.549805
 21
-2.189987
  0
LINE
  8
0
 62
     4
 10
343.499817
 20
-0.029989
 11
344.049835
 21
-0.579995
  0
LINE
  8
0
 62
     4
 10
344.549805
 20
3.450012
 11
345.299561
 21
3.450012
  0
LINE
  8
0
 62
     4
 10
344.549805
 20
-1.549988
 11
346.549805
 21
-1.549988
  0
LINE
  8
0
 62
     4
 10
344.049805
 20
-1.129990
 11
347.049805
 21
-1.129990
  0
LINE
  8
0
  6
CENTER
 62
     1
 10
347.196259
 20
1.220001
 11
343.906799
 21
1.220001
  0
LINE
  8
0
  6
CENTER
 62
     1
 10
346.285095
 20
1.670013
 11
344.797394
 21
1.670013
  0
LINE
  8
0
  6
CENTER
 62
     1
 10
346.285095
 20
0.770004
 11
344.797394
 21
0.770004
  0
LINE
  8
0
 62
     4
 10
345.800049
 20
3.450012
 11
346.549805
 21
3.450012
  0
LINE
  8
0
 62
     1
 10
346.549805
 20
3.204391
 11
346.549805
 21
3.450012
  0
LINE
  8
0
 62
     4
 10
346.549805
 20
3.450002
 11
346.799805
 21
3.200005
  0
LINE
  8
0
 62
     4
 10
346.799805
 20
3.039551
 11
346.799805
 21
3.200012
  0
LINE
  8
0
 62
     4
 10
344.549805
 20
3.450016
 11
344.299805
 21
3.200019
  0
LINE
  8
0
 62
     4
 10
344.299805
 20
3.040009
 11
344.299805
 21
3.200012
  0
LINE
  8
0
 62
     1
 10
344.549805
 20
3.204727
 11
344.549805
 21
3.450012
  0
LINE
  8
0
 62
     4
 10
344.049805
 20
-1.079987
 11
344.049805
 21
-0.629990
  0
LINE
  8
0
 62
     4
 10
344.049805
 20
-1.129990
 11
344.049805
 21
-0.579987
  0
LINE
  8
0
 62
     4
 10
344.299805
 20
-1.299993
 11
344.549805
 21
-1.549991
  0
LINE
  8
0
 62
     4
 10
344.299805
 20
-1.299988
 11
344.299805
 21
-1.129990
  0
LINE
  8
0
 62
     1
 10
344.549805
 20
-1.549988
 11
344.549805
 21
-1.129990
  0
LINE
  8
0
 62
     4
 10
347.599792
 20
-0.029989
 11
347.049805
 21
-0.579995
  0
LINE
  8
0
 62
     4
 10
347.049805
 20
-1.079987
 11
347.049805
 21
-0.629990
  0
LINE
  8
0
 62
     4
 10
347.049805
 20
-1.129990
 11
347.049805
 21
-0.579987
  0
LINE
  8
0
 62
     4
 10
346.799805
 20
-1.299986
 11
346.549805
 21
-1.549978
  0
LINE
  8
0
 62
     4
 10
346.799805
 20
-1.299988
 11
346.799805
 21
-1.129990
  0
LINE
  8
0
 62
     1
 10
346.549805
 20
-1.549988
 11
346.549805
 21
-1.129990
  0
LINE
  8
0
 62
     4
 10
347.599792
 20
-0.029999
 11
347.599792
 21
1.420013
  0
LINE
  8
0
 62
     4
 10
343.499817
 20
-0.029999
 11
343.499817
 21
1.420013
  0
LINE
  8
0
  6
CENTER
 62
     2
 10
379.049805
 20
151.000000
 11
389.049805
 21
151.000000
  0
LINE
  8
0
 62
     4
 10
-355.500000
 20
-1.129990
 11
-358.500000
 21
-1.129990
  0
LINE
  8
0
 62
     4
 10
-359.049988
 20
-0.029999
 11
-359.049988
 21
1.420013
  0
LINE
  8
0
 62
     4
 10
-354.950012
 20
-0.029999
 11
-354.950012
 21
1.420013
  0
LINE
  8
0
 62
     4
 10
-355.500000
 20
-1.129990
 11
-355.500000
 21
-0.579987
  0
LINE
  8
0
 62
     4
 10
-358.500000
 20
-1.129990
 11
-358.500000
 21
-0.579987
  0
LINE
  8
0
 62
     4
 10
-354.949982
 20
-0.029989
 11
-355.500000
 21
-0.579990
  0
LINE
  8
0
 62
     4
 10
-359.050018
 20
-0.029986
 11
-358.500000
 21
-0.579991
  0
LINE
  8
0
 62
     4
 10
-354.950012
 20
0.670013
 11
-359.049988
 21
0.670013
  0
LINE
  8
0
 62
     4
 10
-355.100006
 20
0.770004
 11
-358.900024
 21
0.770004
  0
LINE
  8
0
 62
     4
 10
-359.000000
 20
0.870010
 11
-359.000000
 21
1.370010
  0
LINE
  8
0
 62
     4
 10
-355.000000
 20
0.870010
 11
-355.000000
 21
1.370010
  0
LINE
  8
0
 62
     4
 10
-355.100006
 20
1.470001
 11
-358.900024
 21
1.470001
  0
LINE
  8
0
 62
     1
 10
-358.000000
 20
-1.549988
 11
-358.000000
 21
-1.129990
  0
LINE
  8
0
 62
     1
 10
-356.000000
 20
-1.549988
 11
-356.000000
 21
-1.129990
  0
LINE
  8
0
 62
     4
 10
-356.000000
 20
-1.549988
 11
-358.000000
 21
-1.549988
  0
LINE
  8
0
 62
     4
 10
-356.000000
 20
3.450012
 11
-358.000000
 21
3.450012
  0
LINE
  8
0
 62
     4
 10
-355.750000
 20
-1.299995
 11
-356.000000
 21
-1.549992
  0
LINE
  8
0
 62
     4
 10
-358.000000
 20
3.450014
 11
-358.250000
 21
3.200011
  0
LINE
  8
0
 62
     4
 10
-358.250000
 20
-1.299974
 11
-358.000000
 21
-1.549977
  0
LINE
  8
0
 62
     4
 10
-356.000000
 20
3.450018
 11
-355.750000
 21
3.200010
  0
LINE
  8
0
 62
     4
 10
-355.750000
 20
1.470001
 11
-355.750000
 21
3.200012
  0
LINE
  8
0
 62
     1
 10
-356.000000
 20
1.470001
 11
-356.000000
 21
3.450012
  0
LINE
  8
0
 62
     1
 10
-358.000000
 20
1.470001
 11
-358.000000
 21
3.450012
  0
LINE
  8
0
 62
     4
 10
-358.250000
 20
1.470001
 11
-358.250000
 21
3.200012
  0
LINE
  8
0
 62
     4
 10
-355.750000
 20
-1.299988
 11
-355.750000
 21
-1.129990
  0
LINE
  8
0
 62
     1
 10
-356.000000
 20
0.670013
 11
-356.000000
 21
0.770004
  0
LINE
  8
0
 62
     1
 10
-358.000000
 20
0.670013
 11
-358.000000
 21
0.770004
  0
LINE
  8
0
 62
     4
 10
-358.250000
 20
-1.299988
 11
-358.250000
 21
-1.129990
  0
LINE
  8
0
 62
     4
 10
-355.750000
 20
0.670013
 11
-355.750000
 21
0.770004
  0
LINE
  8
0
 62
     4
 10
-358.250000
 20
0.670013
 11
-358.250000
 21
0.770004
  0
LINE
  8
0
 62
     4
 10
-349.500000
 20
-1.129990
 11
-352.500000
 21
-1.129990
  0
LINE
  8
0
 62
     4
 10
-353.049988
 20
-0.029999
 11
-353.049988
 21
1.420013
  0
LINE
  8
0
 62
     4
 10
-348.950012
 20
-0.029999
 11
-348.950012
 21
1.420013
  0
LINE
  8
0
 62
     4
 10
-349.500000
 20
-1.129990
 11
-349.500000
 21
-0.579987
  0
LINE
  8
0
 62
     4
 10
-352.500000
 20
-1.129990
 11
-352.500000
 21
-0.579987
  0
LINE
  8
0
 62
     4
 10
-348.950012
 20
-0.030004
 11
-349.500000
 21
-0.579999
  0
LINE
  8
0
 62
     4
 10
-353.049988
 20
-0.029996
 11
-352.500000
 21
-0.579991
  0
LINE
  8
0
 62
     4
 10
-348.950012
 20
0.670013
 11
-353.049988
 21
0.670013
  0
LINE
  8
0
 62
     4
 10
-349.100006
 20
0.770004
 11
-352.900024
 21
0.770004
  0
LINE
  8
0
 62
     4
 10
-353.000000
 20
0.870010
 11
-353.000000
 21
1.370010
  0
LINE
  8
0
 62
     4
 10
-349.000000
 20
0.870010
 11
-349.000000
 21
1.370010
  0
LINE
  8
0
 62
     4
 10
-349.100006
 20
1.470001
 11
-352.900024
 21
1.470001
  0
LINE
  8
0
 62
     1
 10
-352.000000
 20
-1.549988
 11
-352.000000
 21
-1.129990
  0
LINE
  8
0
 62
     1
 10
-350.000000
 20
-1.549988
 11
-350.000000
 21
-1.129990
  0
LINE
  8
0
 62
     4
 10
-350.000000
 20
-1.549988
 11
-352.000000
 21
-1.549988
  0
LINE
  8
0
 62
     4
 10
-350.000000
 20
3.450012
 11
-352.000000
 21
3.450012
  0
LINE
  8
0
 62
     4
 10
-349.750000
 20
-1.299991
 11
-350.000000
 21
-1.549999
  0
LINE
  8
0
 62
     4
 10
-352.000000
 20
3.450005
 11
-352.250000
 21
3.199996
  0
LINE
  8
0
 62
     4
 10
-352.250000
 20
-1.299988
 11
-352.000000
 21
-1.549991
  0
LINE
  8
0
 62
     4
 10
-350.000000
 20
3.450025
 11
-349.750000
 21
3.200016
  0
LINE
  8
0
 62
     4
 10
-349.750000
 20
1.470001
 11
-349.750000
 21
3.200012
  0
LINE
  8
0
 62
     1
 10
-350.000000
 20
1.470001
 11
-350.000000
 21
3.450012
  0
LINE
  8
0
 62
     1
 10
-352.000000
 20
1.470001
 11
-352.000000
 21
3.450012
  0
LINE
  8
0
 62
     4
 10
-352.250000
 20
1.470001
 11
-352.250000
 21
3.200012
  0
LINE
  8
0
 62
     4
 10
-349.750000
 20
-1.299988
 11
-349.750000
 21
-1.129990
  0
LINE
  8
0
 62
     1
 10
-350.000000
 20
0.670013
 11
-350.000000
 21
0.770004
  0
LINE
  8
0
 62
     1
 10
-352.000000
 20
0.670013
 11
-352.000000
 21
0.770004
  0
LINE
  8
0
 62
     4
 10
-352.250000
 20
-1.299988
 11
-352.250000
 21
-1.129990
  0
LINE
  8
0
 62
     4
 10
-349.750000
 20
0.670013
 11
-349.750000
 21
0.770004
  0
LINE
  8
0
 62
     4
 10
-352.250000
 20
0.670013
 11
-352.250000
 21
0.770004
  0
LINE
  8
0
 10
-350.350006
 20
73.980011
 11
-350.350006
 21
54.020004
  0
LINE
  8
0
 10
-351.650024
 20
73.980011
 11
-351.650024
 21
54.020004
  0
LINE
  8
0
 10
-330.500000
 20
159.000000
 11
-389.500000
 21
159.000000
  0
LINE
  8
0
 10
-330.500000
 20
159.000000
 11
-330.500000
 21
-1.000000
  0
LINE
  8
0
 10
-349.400024
 20
-1.000000
 11
-329.500000
 21
-1.000000
  0
LINE
  8
0
 10
-355.400024
 20
-1.000000
 11
-352.600006
 21
-1.000000
  0
LINE
  8
0
 10
-365.500000
 20
4.500000
 11
-348.500000
 21
4.500000
  0
LINE
  8
0
  6
CENTER
 62
     2
 10
-359.500000
 20
127.000000
 11
-359.500000
 21
102.190002
  0
LINE
  8
0
  6
CENTER
 62
     2
 10
-368.500000
 20
118.000000
 11
-350.500000
 21
118.000000
  0
LINE
  8
0
  6
CENTER
 62
     2
 10
-371.000000
 20
84.000000
 11
-371.000000
 21
62.030014
  0
LINE
  8
0
 10
-365.500000
 20
4.500000
 11
-365.500000
 21
-1.000000
  0
LINE
  8
0
 10
-359.850006
 20
2.799993
 11
-361.230011
 21
3.599996
  0
LINE
  8
0
 10
-360.600006
 20
0.000005
 11
-361.980011
 21
0.800002
  0
LINE
  8
0
 10
-363.600006
 20
3.600006
 11
-361.230011
 21
3.600006
  0
LINE
  8
0
 10
-363.600006
 20
0.800003
 11
-361.980011
 21
0.800003
  0
LINE
  8
0
 10
-358.720001
 20
2.800003
 11
-359.850006
 21
2.800003
  0
LINE
  8
0
 10
-359.100006
 20
0.000000
 11
-360.600006
 21
0.000000
  0
LINE
  8
0
 10
-353.100006
 20
0.000000
 11
-353.100006
 21
1.600006
  0
LINE
  8
0
 10
-353.100006
 20
0.000009
 11
-352.600006
 21
-0.499986
  0
LINE
  8
0
 10
-352.600006
 20
-0.500000
 11
-352.600006
 21
-1.000000
  0
LINE
  8
0
 10
-349.400024
 20
-0.500000
 11
-349.400024
 21
-1.000000
  0
LINE
  8
0
 10
-348.899994
 20
0.000003
 11
-349.399994
 21
-0.499998
  0
LINE
  8
0
 10
-348.900024
 20
0.000000
 11
-348.900024
 21
1.600006
  0
LINE
  8
0
  6
CENTER
 62
     1
 10
-351.000000
 20
5.640015
 11
-351.000000
 21
-3.169998
  0
LINE
  8
0
  6
CENTER
 62
     2
 10
-379.500000
 20
75.000000
 11
-362.500000
 21
75.000000
  0
LINE
  8
0
 10
-348.500000
 20
4.500000
 11
-348.500000
 21
-1.000000
  0
LINE
  8
0
  6
CENTER
 62
     1
 10
-357.000000
 20
5.640015
 11
-357.000000
 21
-3.169998
  0
LINE
  8
0
 10
-358.600006
 20
-0.500000
 11
-358.600006
 21
-1.000000
  0
LINE
  8
0
 10
-359.100006
 20
0.000013
 11
-358.600006
 21
-0.499987
  0
LINE
  8
0
 10
-354.900024
 20
0.000000
 11
-354.900024
 21
1.600006
  0
LINE
  8
0
 10
-354.899994
 20
-0.000000
 11
-355.399994
 21
-0.500001
  0
LINE
  8
0
 10
-355.400024
 20
-0.500000
 11
-355.400024
 21
-1.000000
  0
LINE
  8
0
  6
CENTER
 62
     2
 10
-365.000000
 20
64.000000
 11
-335.549988
 21
64.000000
  0
LINE
  8
0
  6
CENTER
 62
     2
 10
-351.000000
 20
78.000000
 11
-351.000000
 21
50.000000
  0
LINE
  8
0
 10
-329.500000
 20
101.000000
 11
-330.500000
 21
101.000000
  0
LINE
  8
0
 10
-389.500000
 20
159.000000
 11
-389.500000
 21
-1.000000
  0
LINE
  8
0
 10
-389.500000
 20
-1.000000
 11
-358.600006
 21
-1.000000
  0
LINE
  8
0
 10
-329.500000
 20
101.000000
 11
-329.500000
 21
-1.000000
  0
LINE
  8
0
  6
DASHED
 62
     2
 10
-385.500000
 20
75.250000
 11
-389.500000
 21
75.250000
  0
LINE
  8
0
  6
DASHED
 62
     2
 10
-385.500000
 20
66.750000
 11
-389.500000
 21
66.750000
  0
LINE
  8
0
  6
CENTER
 62
     2
 10
-375.559998
 20
71.000000
 11
-391.799988
 21
71.000000
  0
LINE
  8
0
  6
DASHED
 62
     2
 10
-385.500000
 20
78.250000
 11
-385.500000
 21
63.750000
  0
LINE
  8
0
  6
DASHED
 62
     2
 10
-379.000000
 20
63.750000
 11
-385.500000
 21
63.750000
  0
LINE
  8
0
  6
DASHED
 62
     2
 10
-379.000000
 20
78.250000
 11
-385.500000
 21
78.250000
  0
LINE
  8
0
  6
DASHED
 62
     2
 10
-379.000000
 20
63.750000
 11
-379.000000
 21
66.750000
  0
LINE
  8
0
  6
DASHED
 62
     2
 10
-378.000000
 20
66.750000
 11
-379.000000
 21
66.750000
  0
LINE
  8
0
  6
DASHED
 62
     2
 10
-378.000000
 20
66.750000
 11
-378.000000
 21
75.250000
  0
LINE
  8
0
  6
DASHED
 62
     2
 10
-378.000000
 20
75.250000
 11
-379.000000
 21
75.250000
  0
LINE
  8
0
  6
DASHED
 62
     2
 10
-379.000000
 20
75.250000
 11
-379.000000
 21
78.250000
  0
LINE
  8
0
  6
DASHED
 62
     2
 10
-379.649994
 20
63.750000
 11
-379.649994
 21
78.250000
  0
LINE
  8
0
  6
DASHED
 62
     2
 10
-385.500000
 20
15.250000
 11
-389.500000
 21
15.250000
  0
LINE
  8
0
  6
DASHED
 62
     2
 10
-385.500000
 20
6.750000
 11
-389.500000
 21
6.750000
  0
LINE
  8
0
  6
CENTER
 62
     2
 10
-375.559998
 20
11.000000
 11
-391.799988
 21
11.000000
  0
LINE
  8
0
  6
DASHED
 62
     2
 10
-385.500000
 20
18.250000
 11
-385.500000
 21
3.750000
  0
LINE
  8
0
  6
DASHED
 62
     2
 10
-379.000000
 20
3.750000
 11
-385.500000
 21
3.750000
  0
LINE
  8
0
  6
DASHED
 62
     2
 10
-379.000000
 20
18.250000
 11
-385.500000
 21
18.250000
  0
LINE
  8
0
  6
DASHED
 62
     2
 10
-379.000000
 20
3.750000
 11
-379.000000
 21
6.750000
  0
LINE
  8
0
  6
DASHED
 62
     2
 10
-378.000000
 20
6.750000
 11
-379.000000
 21
6.750000
  0
LINE
  8
0
  6
DASHED
 62
     2
 10
-378.000000
 20
6.750000
 11
-378.000000
 21
15.250000
  0
LINE
  8
0
  6
DASHED
 62
     2
 10
-378.000000
 20
15.250000
 11
-379.000000
 21
15.250000
  0
LINE
  8
0
  6
DASHED
 62
     2
 10
-379.000000
 20
15.250000
 11
-379.000000
 21
18.250000
  0
LINE
  8
0
  6
DASHED
 62
     2
 10
-379.649994
 20
3.750000
 11
-379.649994
 21
18.250000
  0
LINE
  8
0
  6
CENTER
 62
     2
 10
-394.500000
 20
151.000000
 11
-384.500000
 21
151.000000
  0
LINE
  8
0
 10
262.000000
 20
83.732056
 11
262.000000
 21
80.267960
  0
LINE
  8
0
 10
268.000000
 20
83.732056
 11
268.000000
 21
80.267960
  0
LINE
  8
0
 10
261.999756
 20
83.732018
 11
264.999756
 21
85.464073
  0
LINE
  8
0
 10
264.999756
 20
78.535866
 11
267.999756
 21
80.267929
  0
LINE
  8
0
 10
264.999817
 20
85.464203
 11
267.999817
 21
83.732155
  0
LINE
  8
0
 10
261.999817
 20
80.268059
 11
264.999817
 21
78.536003
  0
LINE
  8
0
 10
253.500000
 20
49.732056
 11
253.500000
 21
46.267960
  0
LINE
  8
0
 10
259.500000
 20
49.732056
 11
259.500000
 21
46.267960
  0
LINE
  8
0
 10
253.499832
 20
49.732101
 11
256.499847
 21
51.464161
  0
LINE
  8
0
 10
256.499847
 20
44.535965
 11
259.499847
 21
46.268021
  0
LINE
  8
0
 10
256.499908
 20
51.464149
 11
259.499939
 21
49.732098
  0
LINE
  8
0
 10
253.499924
 20
46.268009
 11
256.499939
 21
44.535950
  0
LINE
  8
0
 10
270.500000
 20
49.732056
 11
270.500000
 21
46.267960
  0
LINE
  8
0
 10
276.500000
 20
49.732056
 11
276.500000
 21
46.267960
  0
LINE
  8
0
 10
270.499817
 20
49.732101
 11
273.499817
 21
51.464161
  0
LINE
  8
0
 10
273.499817
 20
44.535954
 11
276.499817
 21
46.268009
  0
LINE
  8
0
 10
273.499908
 20
51.464165
 11
276.499908
 21
49.732105
  0
LINE
  8
0
 10
270.499908
 20
46.268005
 11
273.499908
 21
44.535957
  0
LINE
  8
0
 10
-269.000000
 20
83.732056
 11
-269.000000
 21
80.267960
  0
LINE
  8
0
 10
-263.000000
 20
83.732056
 11
-263.000000
 21
80.267960
  0
LINE
  8
0
 10
-269.000000
 20
83.732040
 11
-266.000000
 21
85.464104
  0
LINE
  8
0
 10
-266.000000
 20
78.535896
 11
-263.000000
 21
80.267944
  0
LINE
  8
0
 10
-266.000000
 20
85.464111
 11
-263.000000
 21
83.732063
  0
LINE
  8
0
 10
-269.000000
 20
80.267967
 11
-266.000000
 21
78.535904
  0
LINE
  8
0
 10
-277.500000
 20
49.732056
 11
-277.500000
 21
46.267960
  0
LINE
  8
0
 10
-271.500000
 20
49.732056
 11
-271.500000
 21
46.267960
  0
LINE
  8
0
 10
-277.500000
 20
49.732067
 11
-274.500000
 21
51.464115
  0
LINE
  8
0
 10
-274.500000
 20
44.535900
 11
-271.500000
 21
46.267960
  0
LINE
  8
0
 10
-274.500000
 20
51.464111
 11
-271.500000
 21
49.732071
  0
LINE
  8
0
 10
-277.500000
 20
46.267967
 11
-274.500000
 21
44.535923
  0
LINE
  8
0
 10
-260.500000
 20
49.732056
 11
-260.500000
 21
46.267960
  0
LINE
  8
0
 10
-254.500000
 20
49.732056
 11
-254.500000
 21
46.267960
  0
LINE
  8
0
 10
-260.500000
 20
49.732071
 11
-257.500000
 21
51.464115
  0
LINE
  8
0
 10
-257.500000
 20
44.535908
 11
-254.500000
 21
46.267956
  0
LINE
  8
0
 10
-257.500000
 20
51.464111
 11
-254.500000
 21
49.732056
  0
LINE
  8
0
 10
-260.500000
 20
46.267956
 11
-257.500000
 21
44.535912
  0
LINE
  8
0
 62
     1
 10
-156.510010
 20
92.000000
 11
-144.720001
 21
92.000000
  0
LINE
  8
0
  6
CENTER
 62
     1
 10
-156.440002
 20
90.000000
 11
-144.720001
 21
90.000000
  0
LINE
  8
0
 62
     4
 10
-154.500000
 20
92.000000
 11
-154.500000
 21
90.000000
  0
LINE
  8
0
 62
     4
 10
-146.500000
 20
92.000000
 11
-146.500000
 21
90.000000
  0
LINE
  8
0
 10
-283.500000
 20
101.200012
 11
-194.000000
 21
101.200012
  0
LINE
  8
0
 10
-107.000000
 20
101.200012
 11
282.500000
 21
101.200012
  0
LINE
  8
0
 10
-107.000000
 20
134.800003
 11
282.500000
 21
134.800003
  0
LINE
  8
0
 10
-283.500000
 20
134.800003
 11
-194.000000
 21
134.800003
  0
LINE
  8
0
 10
-107.000000
 20
144.000000
 11
-107.000000
 21
101.000000
  0
LINE
  8
0
 10
-194.000000
 20
144.000000
 11
-194.000000
 21
101.000000
  0
LINE
  8
0
 10
-194.000000
 20
144.000000
 11
-107.000000
 21
144.000000
  0
LINE
  8
0
 10
-300.500000
 20
159.000000
 11
-283.500000
 21
159.000000
  0
LINE
  8
0
 10
189.500000
 20
61.000000
 11
205.500000
 21
61.000000
  0
LINE
  8
0
 10
189.500000
 20
67.000000
 11
205.500000
 21
67.000000
  0
LINE
  8
0
 10
189.500000
 20
67.000000
 11
189.500000
 21
61.000000
  0
LINE
  8
0
 10
247.500000
 20
89.500000
 11
247.500000
 21
14.000000
  0
LINE
  8
0
  6
CENTER
 62
     2
 10
-70.500000
 20
15.500000
 11
-70.500000
 21
2.500000
  0
LINE
  8
0
  6
CENTER
 62
     2
 10
-230.500000
 20
15.500000
 11
-230.500000
 21
2.500000
  0
LINE
  8
0
  6
CENTER
 62
     2
 10
-311.029999
 20
118.000000
 11
305.250488
 21
118.000000
  0
LINE
  8
0
 10
-57.500000
 20
66.500000
 11
179.519775
 21
66.500000
  0
LINE
  8
0
 10
-57.500000
 20
72.500000
 11
200.149902
 21
72.500000
  0
LINE
  8
0
 10
-57.500000
 20
91.000000
 11
282.500000
 21
91.000000
  0
LINE
  8
0
 10
-283.500000
 20
91.000000
 11
-243.500000
 21
91.000000
  0
LINE
  8
0
 62
     2
 10
210.000000
 20
73.250000
 11
247.500000
 21
73.250000
  0
LINE
  8
0
 62
     2
 10
210.000000
 20
54.750000
 11
247.500000
 21
54.750000
  0
LINE
  8
0
 10
210.750000
 20
54.000000
 11
247.500000
 21
54.000000
  0
LINE
  8
0
 10
209.999863
 20
54.749928
 11
210.749771
 21
54.000004
  0
LINE
  8
0
 10
210.750000
 20
54.000000
 11
210.750000
 21
74.000000
  0
LINE
  8
0
 10
209.999847
 20
73.250015
 11
210.749756
 21
73.999939
  0
LINE
  8
0
 10
210.750000
 20
74.000000
 11
247.500000
 21
74.000000
  0
LINE
  8
0
 10
210.000000
 20
73.250000
 11
210.000000
 21
54.750000
  0
LINE
  8
0
 10
205.500000
 20
54.750000
 11
210.000000
 21
54.750000
  0
LINE
  8
0
 10
205.500000
 20
73.250000
 11
210.000000
 21
73.250000
  0
LINE
  8
0
 10
205.500000
 20
73.250000
 11
205.500000
 21
54.750000
  0
LINE
  8
0
 10
-243.500000
 20
101.000000
 11
-57.500000
 21
101.000000
  0
LINE
  8
0
 10
-248.500000
 20
54.000000
 11
-243.500000
 21
54.000000
  0
LINE
  8
0
 62
     2
 10
-248.500000
 20
54.750000
 11
-243.500000
 21
54.750000
  0
LINE
  8
0
 10
-248.500000
 20
74.000000
 11
-243.500000
 21
74.000000
  0
LINE
  8
0
 62
     2
 10
-248.500000
 20
73.250000
 11
-243.500000
 21
73.250000
  0
LINE
  8
0
 10
282.500000
 20
159.000000
 11
282.500000
 21
-1.000000
  0
LINE
  8
0
  6
CENTER
 62
     2
 10
283.500000
 20
151.000000
 11
301.608154
 21
151.000000
  0
LINE
  8
0
 10
282.500000
 20
159.000000
 11
299.500000
 21
159.000000
  0
LINE
  8
0
  6
CENTER
 62
     2
 10
183.699951
 20
64.000000
 11
302.519775
 21
64.000000
  0
LINE
  8
0
  6
CENTER
 62
     2
 10
291.500000
 20
28.000000
 11
291.500000
 21
10.000000
  0
LINE
  8
0
  6
CENTER
 62
     2
 10
300.500000
 20
19.000000
 11
282.500000
 21
19.000000
  0
LINE
  8
0
  6
CENTER
 62
     2
 10
291.500000
 20
160.000000
 11
291.500000
 21
142.000000
  0
LINE
  8
0
  6
CENTER
 62
     2
 10
-292.500000
 20
28.000000
 11
-292.500000
 21
10.000000
  0
LINE
  8
0
  6
CENTER
 62
     2
 10
-301.500000
 20
19.000000
 11
-283.500000
 21
19.000000
  0
LINE
  8
0
  6
CENTER
 62
     2
 10
-301.500000
 20
151.000000
 11
-283.500000
 21
151.000000
  0
LINE
  8
0
  6
CENTER
 62
     2
 10
-292.500000
 20
160.000000
 11
-292.500000
 21
142.000000
  0
LINE
  8
0
 10
-243.500000
 20
43.750000
 11
-248.500000
 21
43.750000
  0
LINE
  8
0
 10
-243.500000
 20
52.250000
 11
-248.500000
 21
52.250000
  0
LINE
  8
0
 10
247.500000
 20
43.750000
 11
-57.500000
 21
43.750000
  0
LINE
  8
0
 10
247.500000
 20
52.250000
 11
-57.500000
 21
52.250000
  0
LINE
  8
0
 10
-57.500000
 20
82.000000
 11
247.500000
 21
82.000000
  0
LINE
  8
0
 10
-248.500000
 20
82.000000
 11
-243.500000
 21
82.000000
  0
LINE
  8
0
 10
247.500000
 20
89.500000
 11
282.500000
 21
89.500000
  0
LINE
  8
0
 10
247.500000
 20
14.000000
 11
282.500000
 21
14.000000
  0
LINE
  8
0
  6
CENTER
 62
     2
 10
-70.500000
 20
97.500000
 11
-70.500000
 21
84.500000
  0
LINE
  8
0
  6
CENTER
 62
     2
 10
-230.500000
 20
97.500000
 11
-230.500000
 21
84.500000
  0
LINE
  8
0
  6
CENTER
 62
     2
 10
-237.000000
 20
9.000000
 11
-64.000000
 21
9.000000
  0
LINE
  8
0
  6
CENTER
 62
     2
 10
-237.000000
 20
91.000000
 11
-64.000000
 21
91.000000
  0
LINE
  8
0
 10
-248.500000
 20
89.500000
 11
-283.500000
 21
89.500000
  0
LINE
  8
0
 10
-248.500000
 20
89.500000
 11
-248.500000
 21
14.000000
  0
LINE
  8
0
 10
-248.500000
 20
14.000000
 11
-283.500000
 21
14.000000
  0
LINE
  8
0
 10
-243.500000
 20
19.000000
 11
-248.500000
 21
19.000000
  0
LINE
  8
0
 10
247.500000
 20
19.000000
 11
-57.500000
 21
19.000000
  0
LINE
  8
0
 10
-243.500000
 20
39.000000
 11
-248.500000
 21
39.000000
  0
LINE
  8
0
 10
247.500000
 20
39.000000
 11
-57.500000
 21
39.000000
  0
LINE
  8
0
 10
-57.500000
 20
5.500000
 11
282.500000
 21
5.500000
  0
LINE
  8
0
 10
-283.500000
 20
5.500000
 11
-243.500000
 21
5.500000
  0
LINE
  8
0
 10
-243.500000
 20
-1.000000
 11
-243.500000
 21
101.000000
  0
LINE
  8
0
 10
-57.500000
 20
-1.000000
 11
-57.500000
 21
101.000000
  0
LINE
  8
0
  6
CENTER
 62
     2
 10
-150.500000
 20
-8.529999
 11
-150.500000
 21
164.619995
  0
LINE
  8
0
 10
-283.500000
 20
-1.000000
 11
-283.500000
 21
159.000000
  0
LINE
  8
0
 10
299.500000
 20
159.000000
 11
299.500000
 21
-1.000000
  0
LINE
  8
0
 10
-300.500000
 20
-1.000000
 11
299.500000
 21
-1.000000
  0
LINE
  8
0
 10
-300.500000
 20
-1.000000
 11
-300.500000
 21
159.000000
  0
LINE
  8
0
  6
CENTER
 62
     2
 10
149.500000
 20
-8.529999
 11
149.500000
 21
164.619995
  0
LINE
  8
0
  6
PHANTOM
 62
     3
 10
23.541504
 20
-38.131790
 11
23.541504
 21
151.223923
  0
LINE
  8
0
 10
-379.250000
 20
-256.750000
 11
-95.250000
 21
-256.750000
  0
LINE
  8
0
 10
-379.250000
 20
-236.750000
 11
-95.250000
 21
-236.750000
  0
LINE
  8
0
 10
-95.250000
 20
-236.750000
 11
-95.250000
 21
-256.750000
  0
LINE
  8
0
 10
-235.250000
 20
-236.750000
 11
-235.250000
 21
-256.750000
  0
LINE
  8
0
 10
-263.250000
 20
-236.750000
 11
-263.250000
 21
-256.750000
  0
LINE
  8
0
 10
-291.250000
 20
-236.750000
 11
-291.250000
 21
-256.750000
  0
LINE
  8
0
 10
-319.250000
 20
-236.750000
 11
-319.250000
 21
-256.750000
  0
LINE
  8
0
 10
-379.250000
 20
-236.750000
 11
-379.250000
 21
-256.750000
  0
LINE
  8
0
 10
-207.250000
 20
-236.750000
 11
-207.250000
 21
-256.750000
  0
LINE
  8
0
 10
-179.250000
 20
-236.750000
 11
-179.250000
 21
-256.750000
  0
LINE
  8
0
 10
-151.250000
 20
-236.750000
 11
-151.250000
 21
-256.750000
  0
LINE
  8
0
 10
-123.250000
 20
-236.750000
 11
-123.250000
 21
-256.750000
  0
LINE
  8
0
 10
-379.250000
 20
-246.750000
 11
-95.250000
 21
-246.750000
  0
LINE
  8
0
 10
-239.250000
 20
276.250000
 11
-239.250000
 21
251.250000
  0
LINE
  8
0
 10
239.799988
 20
251.250000
 11
239.799988
 21
276.250000
  0
LINE
  8
0
 10
239.799988
 20
-251.750000
 11
239.799988
 21
-276.750000
  0
LINE
  8
0
 10
-399.250000
 20
251.250000
 11
-239.250000
 21
251.250000
  0
LINE
  8
0
 10
239.799988
 20
251.250000
 11
399.799805
 21
251.250000
  0
LINE
  8
0
 10
239.799988
 20
-251.750000
 11
399.799805
 21
-251.750000
  0
LINE
  8
0
 10
-399.250000
 20
-276.750000
 11
399.799805
 21
-276.750000
  0
LINE
  8
0
 10
-399.250000
 20
276.250000
 11
399.799805
 21
276.250000
  0
LINE
  8
0
 10
-399.250000
 20
276.250000
 11
-399.250000
 21
-276.750000
  0
LINE
  8
0
 10
399.799805
 20
276.250000
 11
399.799805
 21
-276.750000
  0
CIRCLE
  8
0
 62
     4
 10
-147.495193
 20
-110.505966
 40
1.500000
  0
CIRCLE
  8
0
 62
     4
 10
142.504639
 20
-116.505966
 40
1.500000
  0
ARC
  8
0
 10
351.548462
 20
1.599533
 40
2.098634
 50
34.891594
 51
179.987076
  0
CIRCLE
  8
0
 10
365.549438
 20
74.999832
 40
5.500000
  0
CIRCLE
  8
0
 62
     2
 10
365.549438
 20
74.999832
 40
6.500000
  0
CIRCLE
  8
0
 10
345.549438
 20
63.999832
 40
11.500000
  0
ARC
  8
0
 10
345.549805
 20
1.600006
 40
2.100006
 50
0.000000
 51
179.999969
  0
ARC
  8
0
 10
358.149811
 20
2.200012
 40
1.400000
 50
270.000000
 51
90.000000
  0
CIRCLE
  8
0
 62
     2
 10
354.049438
 20
117.999847
 40
6.500000
  0
CIRCLE
  8
0
 10
354.049438
 20
117.999847
 40
5.500000
  0
CIRCLE
  8
0
 10
345.549438
 20
63.999832
 40
10.000000
  0
CIRCLE
  8
0
 62
     2
 10
345.549438
 20
63.999832
 40
9.250000
  0
ARC
  8
0
 62
     4
 10
351.549805
 20
1.415344
 40
2.049988
 50
0.000000
 51
179.999969
  0
CIRCLE
  8
0
 62
     4
 10
351.549805
 20
1.670013
 40
0.450000
  0
CIRCLE
  8
0
 62
     4
 10
351.549805
 20
0.770004
 40
0.450000
  0
CIRCLE
  8
0
 62
     4
 10
351.549805
 20
1.220001
 40
1.299999
  0
CIRCLE
  8
0
 62
     4
 10
351.549805
 20
1.670013
 40
0.250000
  0
CIRCLE
  8
0
 62
     4
 10
351.549805
 20
0.770004
 40
0.250000
  0
ARC
  8
0
 62
     4
 10
345.549805
 20
1.415344
 40
2.049988
 50
0.000000
 51
179.999969
  0
CIRCLE
  8
0
 62
     4
 10
345.549805
 20
1.670013
 40
0.450000
  0
CIRCLE
  8
0
 62
     4
 10
345.549805
 20
0.770004
 40
0.450000
  0
CIRCLE
  8
0
 62
     4
 10
345.549805
 20
1.220001
 40
1.299999
  0
CIRCLE
  8
0
 62
     4
 10
345.549805
 20
1.670013
 40
0.250000
  0
CIRCLE
  8
0
 62
     4
 10
345.549805
 20
0.770004
 40
0.250000
  0
ARC
  8
0
 62
     4
 10
-358.904633
 20
1.374634
 40
0.095483
 50
87.215401
 51
182.779449
  0
ARC
  8
0
 62
     4
 10
-358.900452
 20
0.869553
 40
0.099549
 50
179.736984
 51
270.263489
  0
ARC
  8
0
 62
     4
 10
-357.007690
 20
1.418991
 40
2.042307
 50
127.465767
 51
179.971542
  0
ARC
  8
0
 62
     4
 10
-357.000671
 20
1.414856
 40
2.050696
 50
0.143925
 51
52.419102
  0
ARC
  8
0
 62
     4
 10
-355.104645
 20
0.874649
 40
0.104742
 50
272.538269
 51
357.461487
  0
ARC
  8
0
 62
     4
 10
-355.100708
 20
1.369324
 40
0.100680
 50
0.385881
 51
89.617920
  0
ARC
  8
0
 62
     4
 10
-352.904633
 20
1.374634
 40
0.095483
 50
87.215401
 51
182.779449
  0
ARC
  8
0
 62
     4
 10
-352.900452
 20
0.869553
 40
0.099549
 50
179.736984
 51
270.263489
  0
ARC
  8
0
 62
     4
 10
-351.007690
 20
1.418991
 40
2.042307
 50
127.465767
 51
179.971542
  0
ARC
  8
0
 62
     4
 10
-351.000671
 20
1.414856
 40
2.050696
 50
0.143925
 51
52.419102
  0
ARC
  8
0
 62
     4
 10
-349.104645
 20
0.874649
 40
0.104742
 50
272.538269
 51
357.461487
  0
ARC
  8
0
 62
     4
 10
-349.100708
 20
1.369324
 40
0.100680
 50
0.385881
 51
89.617920
  0
CIRCLE
  8
0
 62
     2
 10
-350.999634
 20
63.999832
 40
9.250000
  0
CIRCLE
  8
0
 10
-350.999634
 20
63.999832
 40
10.000000
  0
CIRCLE
  8
0
 10
-359.499634
 20
117.999847
 40
5.500000
  0
CIRCLE
  8
0
 62
     2
 10
-359.499634
 20
117.999847
 40
6.500000
  0
ARC
  8
0
 10
-363.600006
 20
2.200012
 40
1.400000
 50
90.000000
 51
270.000000
  0
ARC
  8
0
 10
-351.000000
 20
1.600006
 40
2.100006
 50
0.000000
 51
179.999969
  0
CIRCLE
  8
0
 10
-350.999634
 20
63.999832
 40
11.500000
  0
CIRCLE
  8
0
 62
     2
 10
-370.999634
 20
74.999832
 40
6.500000
  0
CIRCLE
  8
0
 10
-370.999634
 20
74.999832
 40
5.500000
  0
ARC
  8
0
 10
-356.998657
 20
1.599533
 40
2.098633
 50
0.012895
 51
145.108383
  0
CIRCLE
  8
0
 10
265.000000
 20
82.000000
 40
6.500000
  0
CIRCLE
  8
0
 10
265.000000
 20
82.000015
 40
5.460770
  0
CIRCLE
  8
0
 10
265.000000
 20
82.000015
 40
3.464101
  0
CIRCLE
  8
0
 10
256.500000
 20
48.000000
 40
6.500000
  0
CIRCLE
  8
0
 10
256.500000
 20
48.000015
 40
5.460770
  0
CIRCLE
  8
0
 10
256.500000
 20
48.000015
 40
3.464101
  0
CIRCLE
  8
0
 10
273.500000
 20
48.000000
 40
6.500000
  0
CIRCLE
  8
0
 10
273.500000
 20
48.000015
 40
5.460770
  0
CIRCLE
  8
0
 10
273.500000
 20
48.000015
 40
3.464101
  0
CIRCLE
  8
0
 10
-266.000000
 20
82.000000
 40
6.500000
  0
CIRCLE
  8
0
 10
-266.000000
 20
82.000015
 40
5.460770
  0
CIRCLE
  8
0
 10
-266.000000
 20
82.000015
 40
3.464101
  0
CIRCLE
  8
0
 10
-274.500000
 20
48.000000
 40
6.500000
  0
CIRCLE
  8
0
 10
-274.500000
 20
48.000015
 40
5.460770
  0
CIRCLE
  8
0
 10
-274.500000
 20
48.000015
 40
3.464101
  0
CIRCLE
  8
0
 10
-257.500000
 20
48.000000
 40
6.500000
  0
CIRCLE
  8
0
 10
-257.500000
 20
48.000015
 40
5.460770
  0
CIRCLE
  8
0
 10
-257.500000
 20
48.000015
 40
3.464101
  0
CIRCLE
  8
0
 62
     4
 10
-150.495193
 20
9.004044
 40
4.000000
  0
ARC
  8
0
 62
     4
 10
-150.500000
 20
92.000000
 40
4.000000
 50
0.000000
 51
180.000000
  0
ARC
  8
0
 62
     4
 10
-150.500000
 20
90.000000
 40
4.000000
 50
180.000000
 51
0.000000
  0
CIRCLE
  8
0
 10
273.500244
 20
47.999832
 40
7.000000
  0
CIRCLE
  8
0
 10
291.500244
 20
18.999832
 40
4.500000
  0
CIRCLE
  8
0
 10
291.500244
 20
18.999832
 40
7.000000
  0
CIRCLE
  8
0
 10
291.500244
 20
150.999847
 40
4.500000
  0
CIRCLE
  8
0
 10
291.500244
 20
150.999847
 40
7.000000
  0
CIRCLE
  8
0
 10
-292.499634
 20
18.999832
 40
4.500000
  0
CIRCLE
  8
0
 10
-292.499634
 20
18.999832
 40
7.000000
  0
CIRCLE
  8
0
 10
-292.499634
 20
150.999847
 40
7.000000
  0
CIRCLE
  8
0
 10
-292.499634
 20
150.999847
 40
4.500000
  0
CIRCLE
  8
0
 10
256.500244
 20
47.999832
 40
7.000000
  0
CIRCLE
  8
0
 10
265.000244
 20
81.999832
 40
6.500000
  0
CIRCLE
  8
0
 10
-265.999634
 20
81.999832
 40
6.500000
  0
CIRCLE
  8
0
 10
-274.499634
 20
47.999832
 40
7.000000
  0
CIRCLE
  8
0
 10
-257.499603
 20
47.999832
 40
7.000000
  0
CIRCLE
  8
0
 10
-70.499619
 20
8.999832
 40
3.349999
  0
CIRCLE
  8
0
 62
     2
 10
-70.499619
 20
8.999832
 40
4.000000
  0
CIRCLE
  8
0
 62
     2
 10
-230.499619
 20
8.999832
 40
4.000000
  0
CIRCLE
  8
0
 10
-230.499619
 20
8.999832
 40
3.349999
  0
CIRCLE
  8
0
 10
-70.499619
 20
90.999832
 40
3.349999
  0
CIRCLE
  8
0
 62
     2
 10
-70.499619
 20
90.999832
 40
4.000000
  0
CIRCLE
  8
0
 10
-230.499619
 20
90.999832
 40
3.349999
  0
CIRCLE
  8
0
 62
     2
 10
-230.499619
 20
90.999832
 40
4.000000
  0
TEXT
  8
0
 10
-392.285309
 20
256.649994
 40
9.000000
  1
RODLESS CYLINDER
 50
0.000000
 41
1.052632
 51
0.000000
  7
STANDARD
  0
TEXT
  8
0
 62
     3
 10
-14.785808
 20
158.732803
 40
6.300000
  1
STRETCH LINE
 50
0.000000
 41
1.052632
 51
0.000000
  7
STANDARD
  0
TEXT
  8
0
 10
-384.785309
 20
224.149994
 40
9.000000
  1
MODEL:MRS32*ST(300)
 50
0.000000
 41
1.052632
 51
0.000000
  7
STANDARD
  0
TEXT
  8
0
 10
-275.699707
 20
-234.419998
 40
6.300000
  1
STRETCH LIST
 50
0.000000
 41
1.052632
 51
0.000000
  7
STANDARD
  0
TEXT
  8
0
 10
-259.349731
 20
-256.420013
 40
6.300000
  1
200
 50
0.000000
 41
1.052632
 51
0.000000
  7
STANDARD
  0
TEXT
  8
0
 10
-287.349731
 20
-256.420013
 40
6.300000
  1
100
 50
0.000000
 41
1.052632
 51
0.000000
  7
STANDARD
  0
TEXT
  8
0
 10
-309.049713
 20
-256.420013
 40
6.300000
  1
0
 50
0.000000
 41
1.052632
 51
0.000000
  7
STANDARD
  0
TEXT
  8
0
 10
-259.349731
 20
-246.419998
 40
6.300000
  1
500
 50
0.000000
 41
1.052632
 51
0.000000
  7
STANDARD
  0
TEXT
  8
0
 10
-287.349731
 20
-246.419998
 40
6.300000
  1
400
 50
0.000000
 41
1.052632
 51
0.000000
  7
STANDARD
  0
TEXT
  8
0
 10
-315.349731
 20
-246.419998
 40
6.300000
  1
300
 50
0.000000
 41
1.052632
 51
0.000000
  7
STANDARD
  0
TEXT
  8
0
 10
-231.349716
 20
-246.419998
 40
6.300000
  1
600
 50
0.000000
 41
1.052632
 51
0.000000
  7
STANDARD
  0
TEXT
  8
0
 10
-231.349716
 20
-256.420013
 40
6.300000
  1
300
 50
0.000000
 41
1.052632
 51
0.000000
  7
STANDARD
  0
TEXT
  8
0
 10
-203.349716
 20
-246.419998
 40
6.300000
  1
700
 50
0.000000
 41
1.052632
 51
0.000000
  7
STANDARD
  0
TEXT
  8
0
 10
-203.349716
 20
-256.420013
 40
6.300000
  1
400
 50
0.000000
 41
1.052632
 51
0.000000
  7
STANDARD
  0
TEXT
  8
0
 10
-175.349716
 20
-246.419998
 40
6.300000
  1
800
 50
0.000000
 41
1.052632
 51
0.000000
  7
STANDARD
  0
TEXT
  8
0
 10
-175.349716
 20
-256.420013
 40
6.300000
  1
500
 50
0.000000
 41
1.052632
 51
0.000000
  7
STANDARD
  0
TEXT
  8
0
 10
-147.349716
 20
-246.419998
 40
6.300000
  1
900
 50
0.000000
 41
1.052632
 51
0.000000
  7
STANDARD
  0
TEXT
  8
0
 10
-147.349716
 20
-256.420013
 40
6.300000
  1
600
 50
0.000000
 41
1.052632
 51
0.000000
  7
STANDARD
  0
TEXT
  8
0
 10
-122.499718
 20
-246.419998
 40
6.300000
  1
1000
 50
0.000000
 41
1.052632
 51
0.000000
  7
STANDARD
  0
TEXT
  8
0
 10
-119.349716
 20
-256.420013
 40
6.300000
  1
700
 50
0.000000
 41
1.052632
 51
0.000000
  7
STANDARD
  0
TEXT
  8
0
 10
-384.484375
 20
210.649994
 40
9.000000
  1
(WITH SENSOR SWITCH)
 50
0.000000
 41
1.052632
 51
0.000000
  7
STANDARD
  0
TEXT
  8
0
 10
-368.589050
 20
-246.419998
 40
6.300000
  1
STROKE
 50
0.000000
 41
1.052632
 51
0.000000
  7
STANDARD
  0
TEXT
  8
0
 10
-371.739075
 20
-256.420013
 40
6.300000
  1
STRETCH
 50
0.000000
 41
1.052632
 51
0.000000
  7
STANDARD
  0
TEXT
  8
0
 10
-122.499718
 20
-236.419998
 40
6.300000
  1
（ｍｍ）
 50
0.000000
 41
0.833333
 51
0.000000
  7
STANDARD
  0
TEXT
  8
0
 10
282.764496
 20
256.649994
 40
9.000000
  1
Ｖｅｒ．　１．０
 50
0.000000
 41
0.833333
 51
0.000000
  7
STANDARD
  0
TEXT
  8
0
 10
242.014633
 20
-274.500000
 40
12.500000
  1
KOGANEI CORP.
 50
0.000000
 41
1.052632
 51
0.000000
  7
STANDARD
  0
ENDSEC
  0
EOF
