  0
SECTION
  2
HEADER
  9
$ACADVER
  1
AC1012
  9
$DWGCODEPAGE
  3
dos932
  9
$INSBASE
 10
0.0
 20
0.0
 30
0.0
  9
$EXTMIN
 10
-281.25
 20
-195.0
 30
0.0
  9
$EXTMAX
 10
285.59998798370361
 20
195.5
 30
0.0
  9
$LIMMIN
 10
-281.25
 20
-195.0
  9
$LIMMAX
 10
285.59998798370361
 20
195.5
  9
$ORTHOMODE
 70
               0
  9
$REGENMODE
 70
               1
  9
$FILLMODE
 70
               1
  9
$QTEXTMODE
 70
               0
  9
$MIRRTEXT
 70
               1
  9
$DRAGMODE
 70
               2
  9
$LTSCALE
 40
1.0
  9
$OSMODE
 70
               0
  9
$ATTMODE
 70
               1
  9
$TEXTSIZE
 40
3.2000000476837158
  9
$TRACEWID
 40
0.05
  9
$TEXTSTYLE
  7
MX_NOTE_STANDARD
  9
$CLAYER
  8
0
  9
$CELTYPE
  6
CONTINUOUS
  9
$CECOLOR
 62
             256
  9
$CELTSCALE
 40
1.0
  9
$DELOBJ
 70
               1
  9
$DISPSILH
 70
               0
  9
$DIMSCALE
 40
1.0
  9
$DIMASZ
 40
2.5
  9
$DIMEXO
 40
1.5
  9
$DIMDLI
 40
3.75
  9
$DIMRND
 40
0.0
  9
$DIMDLE
 40
0.0
  9
$DIMEXE
 40
1.5
  9
$DIMTP
 40
0.0
  9
$DIMTM
 40
0.0
  9
$DIMTXT
 40
3.2000000476837158
  9
$DIMCEN
 40
2.5
  9
$DIMTSZ
 40
0.0
  9
$DIMTOL
 70
               0
  9
$DIMLIM
 70
               0
  9
$DIMTIH
 70
               0
  9
$DIMTOH
 70
               0
  9
$DIMSE1
 70
               0
  9
$DIMSE2
 70
               0
  9
$DIMTAD
 70
               1
  9
$DIMZIN
 70
               8
  9
$DIMBLK
  1

  9
$DIMASO
 70
               1
  9
$DIMSHO
 70
               1
  9
$DIMPOST
  1

  9
$DIMAPOST
  1

  9
$DIMALT
 70
               0
  9
$DIMALTD
 70
               4
  9
$DIMALTF
 40
0.03937007874016
  9
$DIMLFAC
 40
1.0
  9
$DIMTOFL
 70
               1
  9
$DIMTVP
 40
0.0
  9
$DIMTIX
 70
               0
  9
$DIMSOXD
 70
               0
  9
$DIMSAH
 70
               0
  9
$DIMBLK1
  1

  9
$DIMBLK2
  1

  9
$DIMSTYLE
  2
MXDIMSTYLE
  9
$DIMCLRD
 70
               0
  9
$DIMCLRE
 70
               0
  9
$DIMCLRT
 70
               0
  9
$DIMTFAC
 40
1.0
  9
$DIMGAP
 40
1.0
  9
$DIMJUST
 70
               0
  9
$DIMSD1
 70
               0
  9
$DIMSD2
 70
               0
  9
$DIMTOLJ
 70
               1
  9
$DIMTZIN
 70
               0
  9
$DIMALTZ
 70
               0
  9
$DIMALTTZ
 70
               0
  9
$DIMFIT
 70
               3
  9
$DIMUPT
 70
               1
  9
$DIMUNIT
 70
               2
  9
$DIMDEC
 70
               4
  9
$DIMTDEC
 70
               4
  9
$DIMALTU
 70
               2
  9
$DIMALTTD
 70
               4
  9
$DIMTXSTY
  7
MX_NOTE_STANDARD
  9
$DIMAUNIT
 70
               0
  9
$LUNITS
 70
               2
  9
$LUPREC
 70
               4
  9
$SKETCHINC
 40
0.1
  9
$FILLETRAD
 40
0.0
  9
$AUNITS
 70
               0
  9
$AUPREC
 70
               0
  9
$MENU
  1
acad
  9
$ELEVATION
 40
0.0
  9
$PELEVATION
 40
0.0
  9
$THICKNESS
 40
0.0
  9
$LIMCHECK
 70
               0
  9
$BLIPMODE
 70
               1
  9
$CHAMFERA
 40
0.0
  9
$CHAMFERB
 40
0.0
  9
$CHAMFERC
 40
0.0
  9
$CHAMFERD
 40
0.0
  9
$SKPOLY
 70
               0
  9
$TDCREATE
 40
2453510.799872685
  9
$TDUPDATE
 40
2453510.799872685
  9
$TDINDWG
 40
0.0000000000
  9
$TDUSRTIMER
 40
0.0000000000
  9
$USRTIMER
 70
               1
  9
$ANGBASE
 50
0.0
  9
$ANGDIR
 70
               0
  9
$PDMODE
 70
               0
  9
$PDSIZE
 40
0.0
  9
$PLINEWID
 40
0.0
  9
$COORDS
 70
               1
  9
$SPLFRAME
 70
               0
  9
$SPLINETYPE
 70
               6
  9
$SPLINESEGS
 70
               8
  9
$ATTDIA
 70
               0
  9
$ATTREQ
 70
               1
  9
$HANDLING
 70
               1
  9
$HANDSEED
  5
239
  9
$SURFTAB1
 70
               6
  9
$SURFTAB2
 70
               6
  9
$SURFTYPE
 70
               6
  9
$SURFU
 70
               6
  9
$SURFV
 70
               6
  9
$UCSNAME
  2

  9
$UCSORG
 10
0.0
 20
0.0
 30
0.0
  9
$UCSXDIR
 10
1.0
 20
0.0
 30
0.0
  9
$UCSYDIR
 10
0.0
 20
1.0
 30
0.0
  9
$PUCSNAME
  2

  9
$PUCSORG
 10
0.0
 20
0.0
 30
0.0
  9
$PUCSXDIR
 10
1.0
 20
0.0
 30
0.0
  9
$PUCSYDIR
 10
0.0
 20
1.0
 30
0.0
  9
$USERI1
 70
               0
  9
$USERI2
 70
               0
  9
$USERI3
 70
               0
  9
$USERI4
 70
               0
  9
$USERI5
 70
               0
  9
$USERR1
 40
0.0
  9
$USERR2
 40
0.0
  9
$USERR3
 40
0.0
  9
$USERR4
 40
0.0
  9
$USERR5
 40
0.0
  9
$WORLDVIEW
 70
               1
  9
$SHADEDGE
 70
               3
  9
$SHADEDIF
 70
              70
  9
$TILEMODE
 70
               1
  9
$MAXACTVP
 70
              16
  9
$PINSBASE
 10
0.0
 20
0.0
 30
0.0
  9
$PLIMCHECK
 70
               0
  9
$PEXTMIN
 10
1.0000000000000000E+20
 20
1.0000000000000000E+20
 30
1.0000000000000000E+20
  9
$PEXTMAX
 10
-1.0000000000000000E+20
 20
-1.0000000000000000E+20
 30
-1.0000000000000000E+20
  9
$PLIMMIN
 10
0.0
 20
0.0
  9
$PLIMMAX
 10
12.0
 20
9.0
  9
$UNITMODE
 70
               0
  9
$VISRETAIN
 70
               0
  9
$PLINEGEN
 70
               1
  9
$PSLTSCALE
 70
               0
  9
$TREEDEPTH
 70
            3020
  9
$PICKSTYLE
 70
               1
  9
$CMLSTYLE
  2
Standard
  9
$CMLJUST
 70
               0
  9
$CMLSCALE
 40
1.0
  9
$SAVEIMAGES
 70
               0
  0
ENDSEC
  0
SECTION
  2
CLASSES
  0
CLASS
  1
LWPOLYLINE
  2
AcDbPolyline
  3
"AutoCAD"
 90
        0
280
               0
281
               1
  0
CLASS
  1
IMAGE
  2
AcDbRasterImage
  3
ISM
 90
      127
280
               0
281
               1
  0
CLASS
  1
OLE2FRAME
  2
AcDbOle2Frame
  3
""
 90
        0
280
               0
281
               1
  0
CLASS
  1
HATCH
  2
AcDbHatch
  3
"ACAD_SEDONA"
 90
        0
280
               0
281
               1
  0
CLASS
  1
DICTIONARYVAR
  2
AcDbDictionaryVar
  3
"AutoCAD"
 90
        0
280
               0
281
               0
  0
CLASS
  1
RASTERVARIABLES
  2
AcDbRasterVariables
  3
ISM
 90
        0
280
               0
281
               0
  0
CLASS
  1
IMAGEDEF
  2
AcDbRasterImageDef
  3
ISM
 90
        0
280
               0
281
               0
  0
CLASS
  1
IMAGEDEF_REACTOR
  2
AcDbRasterImageDefReactor
  3
ISM
 90
        1
280
               0
281
               0
  0
CLASS
  1
IDBUFFER
  2
AcDbIdBuffer
  3
"Acad"
 90
        0
280
               0
281
               0
  0
CLASS
  1
SPATIAL_FILTER
  2
AcDbSpatialFilter
  3
"Acad"
 90
        0
280
               0
281
               0
  0
CLASS
  1
XRECORD
  2
AcDbXrecord
  3
"<Built In>"
 90
        0
280
               0
281
               0
  0
CLASS
  1
SORTENTSTABLE
  2
AcDbSortentsTable
  3
"AutoCAD"
 90
        0
280
               0
281
               0
  0
CLASS
  1
LAYER_INDEX
  2
AcDbLayerIndex
  3
"Acad"
 90
        0
280
               0
281
               0
  0
CLASS
  1
SPATIAL_INDEX
  2
AcDbSpatialIndex
  3
"Acad"
 90
        0
280
               0
281
               0
  0
CLASS
  1
OBJECT_PTR
  2
CAseDLPNTableRecord
  3
"ASE-LPNTableRecord"
 90
        1
280
               0
281
               0
  0
CLASS
  1
LAYOUT
  2
AcDbLayout
  3
"AutoCAD 2000"
 90
        1
280
               0
281
               0
  0
CLASS
  1
PLOTSETTINGS
  2
AcDbPlotSettings
  3
"AutoCAD 2000"
 90
        1
280
               0
281
               0
  0
CLASS
  1
ACDBDICTIONARYWDFLT
  2
AcDbDictionaryWithDefault
  3
"AutoCAD 2000"
 90
        1
280
               0
281
               0
  0
CLASS
  1
ACDBPLACEHOLDER
  2
AcDbPlaceHolder
  3
"AutoCAD 2000"
 90
        1
280
               0
281
               0
  0
ENDSEC
  0
SECTION
  2
TABLES
  0
TABLE
  2
VPORT
  5
7
100
AcDbSymbolTable
 70
               1
  0
VPORT
  5
15
100
AcDbSymbolTableRecord
100
AcDbViewportTableRecord
  2
*ACTIVE
 70
               0
 10
0.0
 20
0.0
 11
1.0
 21
1.0
 12
2.1749939918518066
 22
0.25
 13
0.0
 23
0.0
 14
1.0
 24
1.0
 15
0.0
 25
0.0
 16
0.0
 26
0.0
 36
1.0
 17
0.0
 27
0.0
 37
0.0
 40
394.40500000000003
 41
1.7320508075688772
 42
50.0
 43
0.0
 44
0.0
 50
0.0
 51
0.0
 71
               0
 72
             100
 73
               1
 74
               1
 75
               0
 76
               0
 77
               0
 78
               0
  0
ENDTAB
  0
TABLE
  2
LTYPE
  5
4
100
AcDbSymbolTable
 70
               5
  0
LTYPE
  5
11
100
AcDbSymbolTableRecord
100
AcDbLinetypeTableRecord
  2
BYBLOCK
 70
              64
  3

 72
              65
 73
               0
 40
0.0
  0
LTYPE
  5
12
100
AcDbSymbolTableRecord
100
AcDbLinetypeTableRecord
  2
BYLAYER
 70
              64
  3

 72
              65
 73
               0
 40
0.0
  0
LTYPE
  5
13
100
AcDbSymbolTableRecord
100
AcDbLinetypeTableRecord
  2
CONTINUOUS
 70
              64
  3
Solid line
 72
              65
 73
               0
 40
0.0
  0
LTYPE
  5
6B
100
AcDbSymbolTableRecord
100
AcDbLinetypeTableRecord
  2
PHANTOM
 70
              64
  3
Phantom ______  __  __  ______  __  __  ______
 72
              65
 73
               6
 40
30.0
 49
20.0
 74
               0
 49
-2.0
 74
               0
 49
2.0
 74
               0
 49
-2.0
 74
               0
 49
2.0
 74
               0
 49
-2.0
 74
               0
  0
LTYPE
  5
1CF
100
AcDbSymbolTableRecord
100
AcDbLinetypeTableRecord
  2
CENTER
 70
              64
  3
Center ____ _ ____ _ ____ _ ____ _ ____ _ ____
 72
              65
 73
               4
 40
26.0
 49
20.0
 74
               0
 49
-2.0
 74
               0
 49
2.0
 74
               0
 49
-2.0
 74
               0
  0
ENDTAB
  0
TABLE
  2
LAYER
  5
2
100
AcDbSymbolTable
 70
               2
  0
LAYER
  5
14
100
AcDbSymbolTableRecord
100
AcDbLayerTableRecord
  2
0
 70
               0
 62
               7
  6
CONTINUOUS
  0
LAYER
  5
1D
100
AcDbSymbolTableRecord
100
AcDbLayerTableRecord
  2
DEFPOINTS
 70
               0
 62
               7
  6
CONTINUOUS
  0
ENDTAB
  0
TABLE
  2
STYLE
  5
3
100
AcDbSymbolTable
 70
               1
  0
STYLE
  5
17
100
AcDbSymbolTableRecord
100
AcDbTextStyleTableRecord
  2
MX_NOTE_STANDARD
 70
               0
 40
0.0
 41
1.0
 50
0.0
 71
               0
 42
3.2000000476837158
  3
txt.shx
  4
extfont.shx
  0
ENDTAB
  0
TABLE
  2
VIEW
  5
5
100
AcDbSymbolTable
 70
               0
  0
ENDTAB
  0
TABLE
  2
UCS
  5
6
100
AcDbSymbolTable
 70
               0
  0
ENDTAB
  0
TABLE
  2
APPID
  5
8
100
AcDbSymbolTable
 70
               1
  0
APPID
  5
16
100
AcDbSymbolTableRecord
100
AcDbRegAppTableRecord
  2
ACAD
 70
               0
  0
ENDTAB
  0
TABLE
  2
DIMSTYLE
  5
9
100
AcDbSymbolTable
 70
               1
  0
DIMSTYLE
105
18
100
AcDbSymbolTableRecord
100
AcDbDimStyleTableRecord
  2
MXDIMSTYLE
 70
               0
  3

  4

  5

  6

  7

 40
1.0
 41
2.5
 42
1.5
 43
3.75
 44
1.5
 45
0.0
 46
0.0
 47
0.0
 48
0.0
 71
               0
 72
               0
 73
               0
 74
               0
 75
               0
 76
               0
 77
               1
 78
               8
140
3.2000000476837158
141
2.5
142
0.0
143
0.03937007874016
144
1.0
145
0.0
146
1.0
147
1.0
170
               0
171
               4
172
               1
173
               0
174
               0
175
               0
176
               0
177
               0
178
               0
270
               2
271
               4
272
               4
273
               2
274
               4
275
               0
280
               0
281
               0
282
               0
283
               1
284
               0
285
               0
286
               0
287
               3
288
               1
340
17
  0
ENDTAB
  0
TABLE
  2
BLOCK_RECORD
  5
1
100
AcDbSymbolTable
 70
               3
  0
BLOCK_RECORD
  5
A
100
AcDbSymbolTableRecord
100
AcDbBlockTableRecord
  2
*MODEL_SPACE
  0
BLOCK_RECORD
  5
B
100
AcDbSymbolTableRecord
100
AcDbBlockTableRecord
  2
*PAPER_SPACE
  0
BLOCK_RECORD
  5
1E
100
AcDbSymbolTableRecord
100
AcDbBlockTableRecord
  2
MRVZS28-K2-1
  0
BLOCK_RECORD
  5
1F
100
AcDbSymbolTableRecord
100
AcDbBlockTableRecord
  2
MRVZS28-K2-2
  0
BLOCK_RECORD
  5
20
100
AcDbSymbolTableRecord
100
AcDbBlockTableRecord
  2
MRVZS28-K2-3
  0
ENDTAB
  0
ENDSEC
  0
SECTION
  2
BLOCKS
  0
BLOCK
  5
D
100
AcDbEntity
  8
0
100
AcDbBlockBegin
  2
*MODEL_SPACE
 70
               0
 10
0.0
 20
0.0
 30
0.0
  3
*MODEL_SPACE
  1

  0
ENDBLK
  5
E
100
AcDbEntity
  8
0
100
AcDbBlockEnd
  0
BLOCK
  5
F
100
AcDbEntity
 67
               1
  8
0
100
AcDbBlockBegin
  2
*PAPER_SPACE
 70
               0
 10
0.0
 20
0.0
 30
0.0
  3
*PAPER_SPACE
  1

  0
ENDBLK
  5
10
100
AcDbEntity
 67
               1
  8
0
100
AcDbBlockEnd
  0
BLOCK
  5
21
100
AcDbEntity
  8
0
100
AcDbBlockBegin
  2
MRVZS28-K2-1
 70
               0
 10
0.0
 20
0.0
 30
0.0
  3
MRVZS28-K2-1
  1

  0
LINE
  5
22
100
AcDbEntity
  8
0
  6
CONTINUOUS
 62
               7
100
AcDbLine
 10
190.5
 20
-27.500000000000007
 30
0.0
 11
191.0
 21
-28.000000000000011
 31
0.0
  0
LINE
  5
23
100
AcDbEntity
  8
0
  6
CONTINUOUS
 62
               7
100
AcDbLine
 10
190.50000064189544
 20
-18.49999935810456
 30
0.0
 11
191.0
 21
-18.000000000000007
 31
0.0
  0
LINE
  5
24
100
AcDbEntity
  8
0
  6
CONTINUOUS
 62
               7
100
AcDbLine
 10
238.5
 20
-27.499999999999993
 30
0.0
 11
238.0
 21
-27.999999999999996
 31
0.0
  0
LINE
  5
25
100
AcDbEntity
  8
0
  6
CONTINUOUS
 62
               7
100
AcDbLine
 10
238.5
 20
-18.499999999999996
 30
0.0
 11
238.0
 21
-18.000000000000007
 31
0.0
  0
LINE
  5
26
100
AcDbEntity
  8
0
  6
CONTINUOUS
 62
               7
100
AcDbLine
 10
22.5
 20
-27.5
 30
0.0
 11
24.5
 21
-27.5
 31
0.0
  0
LINE
  5
27
100
AcDbEntity
  8
0
  6
CONTINUOUS
 62
               7
100
AcDbLine
 10
22.5
 20
-27.5
 30
0.0
 11
22.0
 21
-28.0
 31
0.0
  0
LINE
  5
28
100
AcDbEntity
  8
0
  6
CONTINUOUS
 62
               7
100
AcDbLine
 10
22.5
 20
-18.5
 30
0.0
 11
22.0
 21
-18.0
 31
0.0
  0
LINE
  5
29
100
AcDbEntity
  8
0
  6
CONTINUOUS
 62
               7
100
AcDbLine
 10
-25.5
 20
-27.5
 30
0.0
 11
-25.0
 21
-28.0
 31
0.0
  0
LINE
  5
2A
100
AcDbEntity
  8
0
  6
CONTINUOUS
 62
               7
100
AcDbLine
 10
-25.5
 20
-18.5
 30
0.0
 11
-25.0
 21
-18.0
 31
0.0
  0
LINE
  5
2B
100
AcDbEntity
  8
0
  6
CONTINUOUS
 62
               7
100
AcDbLine
 10
188.5
 20
-27.5
 30
0.0
 11
190.5
 21
-27.5
 31
0.0
  0
LINE
  5
2C
100
AcDbEntity
  8
0
  6
CONTINUOUS
 62
               7
100
AcDbLine
 10
188.5
 20
-18.5
 30
0.0
 11
190.5
 21
-18.5
 31
0.0
  0
LINE
  5
2D
100
AcDbEntity
  8
0
  6
CONTINUOUS
 62
               7
100
AcDbLine
 10
196.5
 20
-28.0
 30
0.0
 11
191.0
 21
-28.0
 31
0.0
  0
LINE
  5
2E
100
AcDbEntity
  8
0
  6
CONTINUOUS
 62
               2
100
AcDbLine
 10
196.5
 20
-27.5
 30
0.0
 11
190.5
 21
-27.5
 31
0.0
  0
LINE
  5
2F
100
AcDbEntity
  8
0
  6
CONTINUOUS
 62
               7
100
AcDbLine
 10
196.5
 20
-18.0
 30
0.0
 11
191.0
 21
-18.0
 31
0.0
  0
LINE
  5
30
100
AcDbEntity
  8
0
  6
CONTINUOUS
 62
               2
100
AcDbLine
 10
196.5
 20
-18.5
 30
0.0
 11
190.5
 21
-18.5
 31
0.0
  0
LINE
  5
31
100
AcDbEntity
  8
0
  6
CONTINUOUS
 62
               7
100
AcDbLine
 10
22.5
 20
-18.5
 30
0.0
 11
24.5
 21
-18.5
 31
0.0
  0
LINE
  5
32
100
AcDbEntity
  8
0
  6
CONTINUOUS
 62
               7
100
AcDbLine
 10
16.5
 20
-28.0
 30
0.0
 11
22.0
 21
-28.0
 31
0.0
  0
LINE
  5
33
100
AcDbEntity
  8
0
  6
CONTINUOUS
 62
               2
100
AcDbLine
 10
16.5
 20
-27.5
 30
0.0
 11
22.5
 21
-27.5
 31
0.0
  0
LINE
  5
34
100
AcDbEntity
  8
0
  6
CONTINUOUS
 62
               2
100
AcDbLine
 10
16.5
 20
-18.5
 30
0.0
 11
22.5
 21
-18.5
 31
0.0
  0
LINE
  5
35
100
AcDbEntity
  8
0
  6
CONTINUOUS
 62
               7
100
AcDbLine
 10
16.5
 20
-18.0
 30
0.0
 11
22.0
 21
-18.0
 31
0.0
  0
LINE
  5
36
100
AcDbEntity
  8
0
  6
CONTINUOUS
 62
               7
100
AcDbLine
 10
24.5
 20
-45.5
 30
0.0
 11
16.5
 21
-45.5
 31
0.0
  0
LINE
  5
37
100
AcDbEntity
  8
0
  6
CONTINUOUS
 62
               7
100
AcDbLine
 10
88.5
 20
-0.5
 30
0.0
 11
196.5
 21
-0.5
 31
0.0
  0
LINE
  5
38
100
AcDbEntity
  8
0
  6
CONTINUOUS
 62
               7
100
AcDbLine
 10
24.5
 20
12.0
 30
0.0
 11
24.5
 21
-58.0
 31
0.0
  0
LINE
  5
39
100
AcDbEntity
  8
0
  6
CONTINUOUS
 62
               7
100
AcDbLine
 10
26.100006103515625
 20
12.0
 30
0.0
 11
26.100006103515625
 21
-58.0
 31
0.0
  0
LINE
  5
3A
100
AcDbEntity
  8
0
  6
CONTINUOUS
 62
               7
100
AcDbLine
 10
24.5
 20
12.0
 30
0.0
 11
88.5
 21
12.0
 31
0.0
  0
LINE
  5
3B
100
AcDbEntity
  8
0
  6
CONTINUOUS
 62
               7
100
AcDbLine
 10
26.100006103515625
 20
-3.0
 30
0.0
 11
86.899993896484375
 21
-3.0
 31
0.0
  0
LINE
  5
3C
100
AcDbEntity
  8
0
  6
CONTINUOUS
 62
               2
100
AcDbLine
 10
34.5
 20
-0.5399932861328125
 30
0.0
 11
34.5
 21
10.540008544921875
 31
0.0
  0
LINE
  5
3D
100
AcDbEntity
  8
0
  6
CONTINUOUS
 62
               2
100
AcDbLine
 10
72.960006713867187
 20
5.0
 30
0.0
 11
84.039993286132812
 21
5.0
 31
0.0
  0
LINE
  5
3E
100
AcDbEntity
  8
0
  6
CONTINUOUS
 62
               2
100
AcDbLine
 10
78.5
 20
-0.5399932861328125
 30
0.0
 11
78.5
 21
10.540008544921875
 31
0.0
  0
LINE
  5
3F
100
AcDbEntity
  8
0
  6
CONTINUOUS
 62
               7
100
AcDbLine
 10
86.899993896484375
 20
-58.0
 30
0.0
 11
86.899993896484375
 21
12.0
 31
0.0
  0
LINE
  5
40
100
AcDbEntity
  8
0
  6
CONTINUOUS
 62
               7
100
AcDbLine
 10
88.5
 20
-58.0
 30
0.0
 11
88.5
 21
12.0
 31
0.0
  0
LINE
  5
41
100
AcDbEntity
  8
0
  6
CONTINUOUS
 62
               2
100
AcDbLine
 10
40.039993286132813
 20
-51.0
 30
0.0
 11
28.960006713867188
 21
-51.0
 31
0.0
  0
LINE
  5
42
100
AcDbEntity
  8
0
  6
CONTINUOUS
 62
               2
100
AcDbLine
 10
78.5
 20
-45.460006713867188
 30
0.0
 11
78.5
 21
-56.539993286132813
 31
0.0
  0
LINE
  5
43
100
AcDbEntity
  8
0
  6
CONTINUOUS
 62
               2
100
AcDbLine
 10
72.960006713867187
 20
-51.0
 30
0.0
 11
84.039993286132812
 21
-51.0
 31
0.0
  0
LINE
  5
44
100
AcDbEntity
  8
0
  6
CONTINUOUS
 62
               7
100
AcDbLine
 10
24.5
 20
-0.5
 30
0.0
 11
16.5
 21
-0.5
 31
0.0
  0
LINE
  5
45
100
AcDbEntity
  8
0
  6
CONTINUOUS
 62
               2
100
AcDbLine
 10
34.5
 20
-45.460006713867188
 30
0.0
 11
34.5
 21
-56.539993286132813
 31
0.0
  0
LINE
  5
46
100
AcDbEntity
  8
0
  6
CONTINUOUS
 62
               7
100
AcDbLine
 10
88.5
 20
-45.5
 30
0.0
 11
196.5
 21
-45.5
 31
0.0
  0
LINE
  5
47
100
AcDbEntity
  8
0
  6
CONTINUOUS
 62
               2
100
AcDbLine
 10
56.5
 20
15.74615478515625
 30
0.0
 11
56.5
 21
-70.011022732269254
 31
0.0
  0
LINE
  5
48
100
AcDbEntity
  8
0
  6
CONTINUOUS
 62
               2
100
AcDbLine
 10
40.039993286132813
 20
5.0
 30
0.0
 11
28.960006713867188
 21
5.0
 31
0.0
  0
LINE
  5
49
100
AcDbEntity
  8
0
  6
CONTINUOUS
 62
               7
100
AcDbLine
 10
24.149993896484375
 20
-50.199996948242187
 30
0.0
 11
24.5
 21
-50.199996948242187
 31
0.0
  0
LINE
  5
4A
100
AcDbEntity
  8
0
  6
CONTINUOUS
 62
               7
100
AcDbLine
 10
22.300003051757813
 20
10.98150634765625
 30
0.0
 11
22.300003051757813
 21
5.01849365234375
 31
0.0
  0
LINE
  5
4B
100
AcDbEntity
  8
0
  6
CONTINUOUS
 62
               7
100
AcDbLine
 10
24.149993896484375
 20
11.79998779296875
 30
0.0
 11
24.5
 21
11.79998779296875
 31
0.0
  0
LINE
  5
4C
100
AcDbEntity
  8
0
  6
CONTINUOUS
 62
               7
100
AcDbLine
 10
24.149993896484375
 20
-57.800003051757813
 30
0.0
 11
24.5
 21
-57.800003051757813
 31
0.0
  0
LINE
  5
4D
100
AcDbEntity
  8
0
  6
CONTINUOUS
 62
               7
100
AcDbLine
 10
90.699996948242188
 20
10.98150634765625
 30
0.0
 11
90.699996948242188
 21
5.01849365234375
 31
0.0
  0
LINE
  5
4E
100
AcDbEntity
  8
0
  6
CONTINUOUS
 62
               7
100
AcDbLine
 10
22.300003051757813
 20
-56.981521606445313
 30
0.0
 11
22.300003051757813
 21
-51.018478393554688
 31
0.0
  0
LINE
  5
4F
100
AcDbEntity
  8
0
  6
CONTINUOUS
 62
               7
100
AcDbLine
 10
88.850006103515625
 20
-50.199996948242187
 30
0.0
 11
88.5
 21
-50.199996948242187
 31
0.0
  0
LINE
  5
50
100
AcDbEntity
  8
0
  6
CONTINUOUS
 62
               7
100
AcDbLine
 10
24.149993896484375
 20
4.20001220703125
 30
0.0
 11
24.5
 21
4.20001220703125
 31
0.0
  0
LINE
  5
51
100
AcDbEntity
  8
0
  6
CONTINUOUS
 62
               7
100
AcDbLine
 10
88.850006103515625
 20
11.79998779296875
 30
0.0
 11
88.5
 21
11.79998779296875
 31
0.0
  0
LINE
  5
52
100
AcDbEntity
  8
0
  6
CONTINUOUS
 62
               7
100
AcDbLine
 10
88.850006103515625
 20
-57.800003051757813
 30
0.0
 11
88.5
 21
-57.800003051757813
 31
0.0
  0
LINE
  5
53
100
AcDbEntity
  8
0
  6
CONTINUOUS
 62
               7
100
AcDbLine
 10
90.699996948242188
 20
-56.981521606445313
 30
0.0
 11
90.699996948242188
 21
-51.018478393554688
 31
0.0
  0
LINE
  5
54
100
AcDbEntity
  8
0
  6
CONTINUOUS
 62
               7
100
AcDbLine
 10
88.850006103515625
 20
4.20001220703125
 30
0.0
 11
88.5
 21
4.20001220703125
 31
0.0
  0
LINE
  5
55
100
AcDbEntity
  8
0
  6
CONTINUOUS
 62
               7
100
AcDbLine
 10
26.100006103515625
 20
-43.0
 30
0.0
 11
86.899993896484375
 21
-43.0
 31
0.0
  0
LINE
  5
56
100
AcDbEntity
  8
0
  6
CONTINUOUS
 62
               7
100
AcDbLine
 10
188.5
 20
-21.5
 30
0.0
 11
178.5
 21
-21.5
 31
0.0
  0
LINE
  5
57
100
AcDbEntity
  8
0
  6
CONTINUOUS
 62
               7
100
AcDbLine
 10
219.5
 20
-59.0
 30
0.0
 11
219.5
 21
13.0
 31
0.0
  0
LINE
  5
58
100
AcDbEntity
  8
0
  6
CONTINUOUS
 62
               2
100
AcDbLine
 10
221.03999328613281
 20
0.0
 30
0.0
 11
204.96000671386719
 21
0.0
 31
0.0
  0
LINE
  5
59
100
AcDbEntity
  8
0
  6
CONTINUOUS
 62
               2
100
AcDbLine
 10
213.0
 20
-8.03997802734375
 30
0.0
 11
213.0
 21
8.040008544921875
 31
0.0
  0
LINE
  5
5A
100
AcDbEntity
  8
0
  6
CONTINUOUS
 62
               2
100
AcDbLine
 10
221.03999328613281
 20
-46.0
 30
0.0
 11
204.96000671386719
 21
-46.0
 31
0.0
  0
LINE
  5
5B
100
AcDbEntity
  8
0
  6
CONTINUOUS
 62
               2
100
AcDbLine
 10
213.0
 20
-37.96002197265625
 30
0.0
 11
213.0
 21
-54.03997802734375
 31
0.0
  0
LINE
  5
5C
100
AcDbEntity
  8
0
  6
CONTINUOUS
 62
               7
100
AcDbLine
 10
196.5
 20
-59.0
 30
0.0
 11
219.5
 21
-59.0
 31
0.0
  0
LINE
  5
5D
100
AcDbEntity
  8
0
  6
CONTINUOUS
 62
               7
100
AcDbLine
 10
196.5
 20
13.0
 30
0.0
 11
219.5
 21
13.0
 31
0.0
  0
LINE
  5
5E
100
AcDbEntity
  8
0
  6
CONTINUOUS
 62
               7
100
AcDbLine
 10
196.5
 20
-34.0
 30
0.0
 11
219.5
 21
-34.0
 31
0.0
  0
LINE
  5
5F
100
AcDbEntity
  8
0
  6
CONTINUOUS
 62
               2
100
AcDbLine
 10
205.5
 20
-54.03997802734375
 30
0.0
 11
205.5
 21
-63.0
 31
0.0
  0
LINE
  5
60
100
AcDbEntity
  8
0
  6
CONTINUOUS
 62
               7
100
AcDbLine
 10
196.5
 20
-59.0
 30
0.0
 11
196.5
 21
13.0
 31
0.0
  0
LINE
  5
61
100
AcDbEntity
  8
0
  6
CONTINUOUS
 62
               7
100
AcDbLine
 10
190.5
 20
-18.5
 30
0.0
 11
190.5
 21
-27.5
 31
0.0
  0
LINE
  5
62
100
AcDbEntity
  8
0
  6
CONTINUOUS
 62
               7
100
AcDbLine
 10
196.5
 20
-12.0
 30
0.0
 11
219.5
 21
-12.0
 31
0.0
  0
LINE
  5
63
100
AcDbEntity
  8
0
  6
CONTINUOUS
 62
               7
100
AcDbLine
 10
238.0
 20
-18.0
 30
0.0
 11
222.5
 21
-18.0
 31
0.0
  0
LINE
  5
64
100
AcDbEntity
  8
0
  6
CONTINUOUS
 62
               2
100
AcDbLine
 10
238.5
 20
-18.5
 30
0.0
 11
222.5
 21
-18.5
 31
0.0
  0
LINE
  5
65
100
AcDbEntity
  8
0
  6
CONTINUOUS
 62
               7
100
AcDbLine
 10
238.5
 20
-18.5
 30
0.0
 11
238.5
 21
-27.5
 31
0.0
  0
LINE
  5
66
100
AcDbEntity
  8
0
  6
CONTINUOUS
 62
               7
100
AcDbLine
 10
238.0
 20
-18.0
 30
0.0
 11
238.0
 21
-28.0
 31
0.0
  0
LINE
  5
67
100
AcDbEntity
  8
0
  6
CONTINUOUS
 62
               2
100
AcDbLine
 10
238.5
 20
-27.5
 30
0.0
 11
222.5
 21
-27.5
 31
0.0
  0
LINE
  5
68
100
AcDbEntity
  8
0
  6
CONTINUOUS
 62
               7
100
AcDbLine
 10
222.5
 20
-29.0
 30
0.0
 11
219.5
 21
-29.0
 31
0.0
  0
LINE
  5
69
100
AcDbEntity
  8
0
  6
CONTINUOUS
 62
               7
100
AcDbLine
 10
222.5
 20
-17.0
 30
0.0
 11
222.5
 21
-29.0
 31
0.0
  0
LINE
  5
6A
100
AcDbEntity
  8
0
  6
CONTINUOUS
 62
               7
100
AcDbLine
 10
188.5
 20
-18.5
 30
0.0
 11
188.5
 21
-27.5
 31
0.0
  0
LINE
  5
6C
100
AcDbEntity
  8
0
  6
PHANTOM
 62
               2
100
AcDbLine
 10
222.5
 20
-23.0
 30
0.0
 11
219.5
 21
-23.0
 31
0.0
  0
LINE
  5
6D
100
AcDbEntity
  8
0
  6
CONTINUOUS
 62
               7
100
AcDbLine
 10
178.5
 20
-21.5
 30
0.0
 11
178.5
 21
-24.5
 31
0.0
  0
LINE
  5
6E
100
AcDbEntity
  8
0
  6
CONTINUOUS
 62
               7
100
AcDbLine
 10
222.5
 20
-17.0
 30
0.0
 11
219.5
 21
-17.0
 31
0.0
  0
LINE
  5
6F
100
AcDbEntity
  8
0
  6
CONTINUOUS
 62
               7
100
AcDbLine
 10
191.0
 20
-18.0
 30
0.0
 11
191.0
 21
-28.0
 31
0.0
  0
LINE
  5
70
100
AcDbEntity
  8
0
  6
CONTINUOUS
 62
               7
100
AcDbLine
 10
188.5
 20
-24.5
 30
0.0
 11
178.5
 21
-24.5
 31
0.0
  0
LINE
  5
71
100
AcDbEntity
  8
0
  6
CONTINUOUS
 62
               7
100
AcDbLine
 10
238.0
 20
-28.0
 30
0.0
 11
222.5
 21
-28.0
 31
0.0
  0
LINE
  5
72
100
AcDbEntity
  8
0
  6
CONTINUOUS
 62
               7
100
AcDbLine
 10
-25.0
 20
-28.0
 30
0.0
 11
-9.5
 21
-28.0
 31
0.0
  0
LINE
  5
73
100
AcDbEntity
  8
0
  6
CONTINUOUS
 62
               7
100
AcDbLine
 10
22.0
 20
-18.0
 30
0.0
 11
22.0
 21
-28.0
 31
0.0
  0
LINE
  5
74
100
AcDbEntity
  8
0
  6
CONTINUOUS
 62
               7
100
AcDbLine
 10
-9.5
 20
-17.0
 30
0.0
 11
-6.5
 21
-17.0
 31
0.0
  0
LINE
  5
75
100
AcDbEntity
  8
0
  6
PHANTOM
 62
               2
100
AcDbLine
 10
-9.5
 20
-23.0
 30
0.0
 11
-6.5
 21
-23.0
 31
0.0
  0
LINE
  5
76
100
AcDbEntity
  8
0
  6
PHANTOM
 62
               2
100
AcDbLine
 10
24.5
 20
-18.5
 30
0.0
 11
24.5
 21
-27.5
 31
0.0
  0
LINE
  5
77
100
AcDbEntity
  8
0
  6
CONTINUOUS
 62
               7
100
AcDbLine
 10
-9.5
 20
-17.0
 30
0.0
 11
-9.5
 21
-29.0
 31
0.0
  0
LINE
  5
78
100
AcDbEntity
  8
0
  6
CONTINUOUS
 62
               7
100
AcDbLine
 10
-9.5
 20
-29.0
 30
0.0
 11
-6.5
 21
-29.0
 31
0.0
  0
LINE
  5
79
100
AcDbEntity
  8
0
  6
CONTINUOUS
 62
               2
100
AcDbLine
 10
-25.5
 20
-27.5
 30
0.0
 11
-9.5
 21
-27.5
 31
0.0
  0
LINE
  5
7A
100
AcDbEntity
  8
0
  6
CONTINUOUS
 62
               7
100
AcDbLine
 10
-25.0
 20
-18.0
 30
0.0
 11
-25.0
 21
-28.0
 31
0.0
  0
LINE
  5
7B
100
AcDbEntity
  8
0
  6
CONTINUOUS
 62
               7
100
AcDbLine
 10
-25.5
 20
-18.5
 30
0.0
 11
-25.5
 21
-27.5
 31
0.0
  0
LINE
  5
7C
100
AcDbEntity
  8
0
  6
CONTINUOUS
 62
               2
100
AcDbLine
 10
-25.5
 20
-18.5
 30
0.0
 11
-9.5
 21
-18.5
 31
0.0
  0
LINE
  5
7D
100
AcDbEntity
  8
0
  6
CONTINUOUS
 62
               7
100
AcDbLine
 10
-25.0
 20
-18.0
 30
0.0
 11
-9.5
 21
-18.0
 31
0.0
  0
LINE
  5
7E
100
AcDbEntity
  8
0
  6
CONTINUOUS
 62
               7
100
AcDbLine
 10
16.5
 20
-12.0
 30
0.0
 11
-6.5
 21
-12.0
 31
0.0
  0
LINE
  5
7F
100
AcDbEntity
  8
0
  6
CONTINUOUS
 62
               7
100
AcDbLine
 10
22.5
 20
-18.5
 30
0.0
 11
22.5
 21
-27.5
 31
0.0
  0
LINE
  5
80
100
AcDbEntity
  8
0
  6
CONTINUOUS
 62
               7
100
AcDbLine
 10
16.5
 20
-59.0
 30
0.0
 11
16.5
 21
13.0
 31
0.0
  0
LINE
  5
81
100
AcDbEntity
  8
0
  6
CONTINUOUS
 62
               2
100
AcDbLine
 10
7.5
 20
-54.03997802734375
 30
0.0
 11
7.5
 21
-63.0
 31
0.0
  0
LINE
  5
82
100
AcDbEntity
  8
0
  6
CONTINUOUS
 62
               7
100
AcDbLine
 10
16.5
 20
-34.0
 30
0.0
 11
-6.5
 21
-34.0
 31
0.0
  0
LINE
  5
83
100
AcDbEntity
  8
0
  6
CONTINUOUS
 62
               7
100
AcDbLine
 10
16.5
 20
13.0
 30
0.0
 11
-6.5
 21
13.0
 31
0.0
  0
LINE
  5
84
100
AcDbEntity
  8
0
  6
CONTINUOUS
 62
               7
100
AcDbLine
 10
16.5
 20
-59.0
 30
0.0
 11
-6.5
 21
-59.0
 31
0.0
  0
LINE
  5
85
100
AcDbEntity
  8
0
  6
CONTINUOUS
 62
               2
100
AcDbLine
 10
0.0
 20
-37.96002197265625
 30
0.0
 11
0.0
 21
-54.03997802734375
 31
0.0
  0
LINE
  5
86
100
AcDbEntity
  8
0
  6
CONTINUOUS
 62
               2
100
AcDbLine
 10
-8.0399932861328125
 20
-46.0
 30
0.0
 11
8.0399932861328125
 21
-46.0
 31
0.0
  0
LINE
  5
87
100
AcDbEntity
  8
0
  6
CONTINUOUS
 62
               2
100
AcDbLine
 10
0.0
 20
-8.03997802734375
 30
0.0
 11
0.0
 21
8.040008544921875
 31
0.0
  0
LINE
  5
88
100
AcDbEntity
  8
0
  6
CONTINUOUS
 62
               2
100
AcDbLine
 10
-8.0399932861328125
 20
0.0
 30
0.0
 11
8.0399932861328125
 21
0.0
 31
0.0
  0
LINE
  5
89
100
AcDbEntity
  8
0
  6
CONTINUOUS
 62
               7
100
AcDbLine
 10
-6.5
 20
-59.0
 30
0.0
 11
-6.5
 21
13.0
 31
0.0
  0
LINE
  5
8A
100
AcDbEntity
  8
0
  6
CONTINUOUS
 62
               7
100
AcDbLine
 10
16.5
 20
-58.0
 30
0.0
 11
196.5
 21
-58.0
 31
0.0
  0
LINE
  5
8B
100
AcDbEntity
  8
0
  6
CONTINUOUS
 62
               7
100
AcDbLine
 10
24.149993896484375
 20
-2.20001220703125
 30
0.0
 11
24.5
 21
-2.20001220703125
 31
0.0
  0
LINE
  5
8C
100
AcDbEntity
  8
0
  6
CONTINUOUS
 62
               7
100
AcDbLine
 10
22.300003051757813
 20
-3.01849365234375
 30
0.0
 11
22.300003051757813
 21
-8.98150634765625
 31
0.0
  0
LINE
  5
8D
100
AcDbEntity
  8
0
  6
CONTINUOUS
 62
               7
100
AcDbLine
 10
24.149993896484375
 20
-9.79998779296875
 30
0.0
 11
24.5
 21
-9.79998779296875
 31
0.0
  0
LINE
  5
8E
100
AcDbEntity
  8
0
  6
CONTINUOUS
 62
               7
100
AcDbLine
 10
24.149993896484375
 20
-43.79998779296875
 30
0.0
 11
24.5
 21
-43.79998779296875
 31
0.0
  0
LINE
  5
8F
100
AcDbEntity
  8
0
  6
CONTINUOUS
 62
               7
100
AcDbLine
 10
22.300003051757813
 20
-42.98150634765625
 30
0.0
 11
22.300003051757813
 21
-37.01849365234375
 31
0.0
  0
LINE
  5
90
100
AcDbEntity
  8
0
  6
CONTINUOUS
 62
               7
100
AcDbLine
 10
24.149993896484375
 20
-36.20001220703125
 30
0.0
 11
24.5
 21
-36.20001220703125
 31
0.0
  0
LINE
  5
91
100
AcDbEntity
  8
0
  6
CONTINUOUS
 62
               7
100
AcDbLine
 10
88.850006103515625
 20
-2.20001220703125
 30
0.0
 11
88.5
 21
-2.20001220703125
 31
0.0
  0
LINE
  5
92
100
AcDbEntity
  8
0
  6
CONTINUOUS
 62
               7
100
AcDbLine
 10
90.699996948242188
 20
-3.01849365234375
 30
0.0
 11
90.699996948242188
 21
-8.98150634765625
 31
0.0
  0
LINE
  5
93
100
AcDbEntity
  8
0
  6
CONTINUOUS
 62
               7
100
AcDbLine
 10
88.850006103515625
 20
-9.79998779296875
 30
0.0
 11
88.5
 21
-9.79998779296875
 31
0.0
  0
LINE
  5
94
100
AcDbEntity
  8
0
  6
CONTINUOUS
 62
               7
100
AcDbLine
 10
88.850006103515625
 20
-43.79998779296875
 30
0.0
 11
88.5
 21
-43.79998779296875
 31
0.0
  0
LINE
  5
95
100
AcDbEntity
  8
0
  6
CONTINUOUS
 62
               7
100
AcDbLine
 10
90.699996948242188
 20
-42.98150634765625
 30
0.0
 11
90.699996948242188
 21
-37.01849365234375
 31
0.0
  0
LINE
  5
96
100
AcDbEntity
  8
0
  6
CONTINUOUS
 62
               7
100
AcDbLine
 10
88.850006103515625
 20
-36.20001220703125
 30
0.0
 11
88.5
 21
-36.20001220703125
 31
0.0
  0
LINE
  5
97
100
AcDbEntity
  8
0
  6
CONTINUOUS
 62
               7
100
AcDbLine
 10
26.100006103515625
 20
-40.690597534179688
 30
0.0
 11
86.899993896484375
 21
-40.690597534179688
 31
0.0
  0
LINE
  5
98
100
AcDbEntity
  8
0
  6
CONTINUOUS
 62
               7
100
AcDbLine
 10
26.100006103515625
 20
-5.3094024658203125
 30
0.0
 11
86.899993896484375
 21
-5.3094024658203125
 31
0.0
  0
LINE
  5
99
100
AcDbEntity
  8
0
  6
CONTINUOUS
 62
               7
100
AcDbLine
 10
211.5
 20
-65.199996948242188
 30
0.0
 11
1.5
 21
-65.199996948242188
 31
0.0
  0
LINE
  5
9A
100
AcDbEntity
  8
0
  6
CONTINUOUS
 62
               7
100
AcDbLine
 10
1.5
 20
-59.0
 30
0.0
 11
1.5
 21
-65.199996948242188
 31
0.0
  0
LINE
  5
9B
100
AcDbEntity
  8
0
  6
CONTINUOUS
 62
               7
100
AcDbLine
 10
211.5
 20
-59.0
 30
0.0
 11
211.5
 21
-65.199996948242188
 31
0.0
  0
LINE
  5
9C
100
AcDbEntity
  8
0
  6
CONTINUOUS
 62
               2
100
AcDbLine
 10
-28.5
 20
-23.0
 30
0.0
 11
241.5
 21
-23.0
 31
0.0
  0
CIRCLE
  5
9D
100
AcDbEntity
  8
0
  6
CONTINUOUS
 62
               2
100
AcDbCircle
 10
34.5
 20
5.0
 30
0.0
 40
3.0
  0
CIRCLE
  5
9E
100
AcDbEntity
  8
0
  6
CONTINUOUS
 62
               7
100
AcDbCircle
 10
78.5
 20
5.0
 30
0.0
 40
2.5
  0
CIRCLE
  5
9F
100
AcDbEntity
  8
0
  6
CONTINUOUS
 62
               2
100
AcDbCircle
 10
78.5
 20
5.0
 30
0.0
 40
3.0
  0
CIRCLE
  5
A0
100
AcDbEntity
  8
0
  6
CONTINUOUS
 62
               7
100
AcDbCircle
 10
34.5
 20
-51.0
 30
0.0
 40
2.5
  0
CIRCLE
  5
A1
100
AcDbEntity
  8
0
  6
CONTINUOUS
 62
               2
100
AcDbCircle
 10
78.5
 20
-51.0
 30
0.0
 40
3.0
  0
CIRCLE
  5
A2
100
AcDbEntity
  8
0
  6
CONTINUOUS
 62
               7
100
AcDbCircle
 10
78.5
 20
-51.0
 30
0.0
 40
2.5
  0
CIRCLE
  5
A3
100
AcDbEntity
  8
0
  6
CONTINUOUS
 62
               2
100
AcDbCircle
 10
34.5
 20
-51.0
 30
0.0
 40
3.0
  0
CIRCLE
  5
A4
100
AcDbEntity
  8
0
  6
CONTINUOUS
 62
               7
100
AcDbCircle
 10
34.5
 20
5.0
 30
0.0
 40
2.5
  0
ARC
  5
A5
100
AcDbEntity
  8
0
  6
CONTINUOUS
 62
               7
100
AcDbCircle
 10
88.850006103515625
 20
9.29998779296875
 30
0.0
 40
2.5
100
AcDbArc
 50
42.26858469748889
 51
90.000002504478161
  0
ARC
  5
A6
100
AcDbEntity
  8
0
  6
CONTINUOUS
 62
               7
100
AcDbCircle
 10
24.149993896484375
 20
-52.699996948242188
 30
0.0
 40
2.5
100
AcDbArc
 50
90.000002504478161
 51
137.73142031146745
  0
ARC
  5
A7
100
AcDbEntity
  8
0
  6
CONTINUOUS
 62
               7
100
AcDbCircle
 10
24.149993896484375
 20
-55.300003051757813
 30
0.0
 40
2.5
100
AcDbArc
 50
222.26857968853255
 51
269.99999749552182
  0
ARC
  5
A8
100
AcDbEntity
  8
0
  6
CONTINUOUS
 62
               7
100
AcDbCircle
 10
24.149993896484375
 20
9.29998779296875
 30
0.0
 40
2.5
100
AcDbArc
 50
90.000002504478161
 51
137.73142031146745
  0
ARC
  5
A9
100
AcDbEntity
  8
0
  6
CONTINUOUS
 62
               7
100
AcDbCircle
 10
24.149993896484375
 20
6.70001220703125
 30
0.0
 40
2.5
100
AcDbArc
 50
222.26857968853255
 51
269.99999749552182
  0
ARC
  5
AA
100
AcDbEntity
  8
0
  6
CONTINUOUS
 62
               7
100
AcDbCircle
 10
88.850006103515625
 20
-55.300003051757813
 30
0.0
 40
2.5
100
AcDbArc
 50
269.99999749552182
 51
317.7314153025111
  0
ARC
  5
AB
100
AcDbEntity
  8
0
  6
CONTINUOUS
 62
               7
100
AcDbCircle
 10
88.850006103515625
 20
6.70001220703125
 30
0.0
 40
2.5
100
AcDbArc
 50
269.99999749552182
 51
317.7314153025111
  0
ARC
  5
AC
100
AcDbEntity
  8
0
  6
CONTINUOUS
 62
               7
100
AcDbCircle
 10
88.850006103515625
 20
-52.699996948242188
 30
0.0
 40
2.5
100
AcDbArc
 50
42.26858469748889
 51
90.000002504478161
  0
CIRCLE
  5
AD
100
AcDbEntity
  8
0
  6
CONTINUOUS
 62
               7
100
AcDbCircle
 10
213.0
 20
0.0
 30
0.0
 40
5.5
  0
CIRCLE
  5
AE
100
AcDbEntity
  8
0
  6
CONTINUOUS
 62
               7
100
AcDbCircle
 10
213.0
 20
-46.0
 30
0.0
 40
5.5
  0
CIRCLE
  5
AF
100
AcDbEntity
  8
0
  6
CONTINUOUS
 62
               7
100
AcDbCircle
 10
213.0
 20
0.0
 30
0.0
 40
3.5
  0
CIRCLE
  5
B0
100
AcDbEntity
  8
0
  6
CONTINUOUS
 62
               7
100
AcDbCircle
 10
213.0
 20
-46.0
 30
0.0
 40
3.5
  0
CIRCLE
  5
B1
100
AcDbEntity
  8
0
  6
CONTINUOUS
 62
               7
100
AcDbCircle
 10
0.0
 20
-46.0
 30
0.0
 40
3.5
  0
CIRCLE
  5
B2
100
AcDbEntity
  8
0
  6
CONTINUOUS
 62
               7
100
AcDbCircle
 10
0.0
 20
0.0
 30
0.0
 40
3.5
  0
CIRCLE
  5
B3
100
AcDbEntity
  8
0
  6
CONTINUOUS
 62
               7
100
AcDbCircle
 10
0.0
 20
-46.0
 30
0.0
 40
5.5
  0
CIRCLE
  5
B4
100
AcDbEntity
  8
0
  6
CONTINUOUS
 62
               7
100
AcDbCircle
 10
0.0
 20
0.0
 30
0.0
 40
5.5
  0
ARC
  5
B5
100
AcDbEntity
  8
0
  6
CONTINUOUS
 62
               7
100
AcDbCircle
 10
24.149993896484375
 20
-4.70001220703125
 30
0.0
 40
2.5
100
AcDbArc
 50
90.000002504478161
 51
137.73142031146745
  0
ARC
  5
B6
100
AcDbEntity
  8
0
  6
CONTINUOUS
 62
               7
100
AcDbCircle
 10
24.149993896484375
 20
-7.29998779296875
 30
0.0
 40
2.5
100
AcDbArc
 50
222.26857968853255
 51
269.99999749552182
  0
ARC
  5
B7
100
AcDbEntity
  8
0
  6
CONTINUOUS
 62
               7
100
AcDbCircle
 10
24.149993896484375
 20
-41.29998779296875
 30
0.0
 40
2.5
100
AcDbArc
 50
222.26857968853255
 51
269.99999749552182
  0
ARC
  5
B8
100
AcDbEntity
  8
0
  6
CONTINUOUS
 62
               7
100
AcDbCircle
 10
24.149993896484375
 20
-38.70001220703125
 30
0.0
 40
2.5
100
AcDbArc
 50
90.000002504478161
 51
137.73142031146745
  0
ARC
  5
B9
100
AcDbEntity
  8
0
  6
CONTINUOUS
 62
               7
100
AcDbCircle
 10
88.850006103515625
 20
-4.70001220703125
 30
0.0
 40
2.5
100
AcDbArc
 50
42.268581282394301
 51
89.999995674288996
  0
ARC
  5
BA
100
AcDbEntity
  8
0
  6
CONTINUOUS
 62
               7
100
AcDbCircle
 10
88.850006103515625
 20
-7.29998779296875
 30
0.0
 40
2.5
100
AcDbArc
 50
270.00000432571102
 51
317.73141871760572
  0
ARC
  5
BB
100
AcDbEntity
  8
0
  6
CONTINUOUS
 62
               7
100
AcDbCircle
 10
88.850006103515625
 20
-41.29998779296875
 30
0.0
 40
2.5
100
AcDbArc
 50
270.00000432571102
 51
317.73141871760572
  0
ARC
  5
BC
100
AcDbEntity
  8
0
  6
CONTINUOUS
 62
               7
100
AcDbCircle
 10
88.850006103515625
 20
-38.70001220703125
 30
0.0
 40
2.5
100
AcDbArc
 50
42.268581282394301
 51
89.999995674288996
  0
LINE
  5
BD
100
AcDbEntity
  8
0
  6
PHANTOM
 62
               3
100
AcDbLine
 10
123.5
 20
47.950350877192989
 30
0.0
 11
123.5
 21
-86.326842105263154
 31
0.0
  0
ENDBLK
  5
BE
100
AcDbEntity
  8
0
100
AcDbBlockEnd
  0
BLOCK
  5
BF
100
AcDbEntity
  8
0
100
AcDbBlockBegin
  2
MRVZS28-K2-2
 70
               0
 10
0.0
 20
0.0
 30
0.0
  3
MRVZS28-K2-2
  1

  0
LINE
  5
C0
100
AcDbEntity
  8
0
  6
CONTINUOUS
 62
               7
100
AcDbLine
 10
38.778303768314117
 20
-4.7500189795046026
 30
0.0
 11
38.056624080814117
 21
-6.0000048426099966
 31
0.0
  0
LINE
  5
C1
100
AcDbEntity
  8
0
  6
CONTINUOUS
 62
               7
100
AcDbLine
 10
47.0
 20
12.0
 30
0.0
 11
35.0
 21
12.0
 31
0.0
  0
LINE
  5
C2
100
AcDbEntity
  8
0
  6
CONTINUOUS
 62
               7
100
AcDbLine
 10
43.0
 20
-34.0
 30
0.0
 11
38.0
 21
-34.0
 31
0.0
  0
LINE
  5
C3
100
AcDbEntity
  8
0
  6
CONTINUOUS
 62
               7
100
AcDbLine
 10
38.778308000243896
 20
-38.750010734227544
 30
0.0
 11
38.056628312743896
 21
-39.999996597332938
 31
0.0
  0
LINE
  5
C4
100
AcDbEntity
  8
0
  6
CONTINUOUS
 62
               7
100
AcDbLine
 10
5.399993896484375
 20
-62.600006103515625
 30
0.0
 11
5.399993896484375
 21
-64.199954368126782
 31
0.0
  0
LINE
  5
C5
100
AcDbEntity
  8
0
  6
CONTINUOUS
 62
               7
100
AcDbLine
 10
10.5
 20
-65.20001220703125
 30
0.0
 11
9.100006103515625
 21
-65.20001220703125
 31
0.0
  0
LINE
  5
C6
100
AcDbEntity
  8
0
  6
CONTINUOUS
 62
               7
100
AcDbLine
 10
4.5
 20
-65.20001220703125
 30
0.0
 11
5.899993896484375
 21
-65.20001220703125
 31
0.0
  0
LINE
  5
C7
100
AcDbEntity
  8
0
  6
CONTINUOUS
 62
               7
100
AcDbLine
 10
9.600006103515625
 20
-62.600006103515625
 30
0.0
 11
9.600006103515625
 21
-64.20001220703125
 31
0.0
  0
LINE
  5
C8
100
AcDbEntity
  8
0
  6
CONTINUOUS
 62
               7
100
AcDbLine
 10
11.0
 20
-64.70001220703125
 30
0.0
 11
11.0
 21
-58.0
 31
0.0
  0
LINE
  5
C9
100
AcDbEntity
  8
0
  6
CONTINUOUS
 62
               7
100
AcDbLine
 10
4.0
 20
-64.70001220703125
 30
0.0
 11
4.0
 21
-58.0
 31
0.0
  0
LINE
  5
CA
100
AcDbEntity
  8
0
  6
CONTINUOUS
 62
               7
100
AcDbLine
 10
9.6000209752146475
 20
-64.199981304018365
 30
0.0
 11
9.1000061035156286
 21
-64.699996175717388
 31
0.0
  0
LINE
  5
CB
100
AcDbEntity
  8
0
  6
CONTINUOUS
 62
               7
100
AcDbLine
 10
5.3999938964843723
 20
-64.199954368126782
 30
0.0
 11
5.9000321527637425
 21
-64.69999262440615
 31
0.0
  0
LINE
  5
CC
100
AcDbEntity
  8
0
  6
CONTINUOUS
 62
               7
100
AcDbLine
 10
0.3000030517578125
 20
-37.699978485919928
 30
0.0
 11
0.3000030517578125
 21
-8.3000131747467094
 31
0.0
  0
LINE
  5
CD
100
AcDbEntity
  8
0
  6
CONTINUOUS
 62
               7
100
AcDbLine
 10
48.0
 20
-43.57733154296875
 30
0.0
 11
48.0
 21
-57.0
 31
0.0
  0
LINE
  5
CE
100
AcDbEntity
  8
0
  6
CONTINUOUS
 62
               7
100
AcDbLine
 10
47.499981331908202
 20
-3.288722921806766
 30
0.0
 11
44.49999940305679
 21
-5.0207633270802035
 31
0.0
  0
LINE
  5
CF
100
AcDbEntity
  8
0
  6
CONTINUOUS
 62
               7
100
AcDbLine
 10
44.0
 20
-33.828427124746192
 30
0.0
 11
44.0
 21
-57.0
 31
0.0
  0
LINE
  5
D0
100
AcDbEntity
  8
0
  6
CONTINUOUS
 62
               7
100
AcDbLine
 10
35.0
 20
-58.0
 30
0.0
 11
35.0
 21
-37.0
 31
0.0
  0
LINE
  5
D1
100
AcDbEntity
  8
0
  6
CONTINUOUS
 62
               7
100
AcDbLine
 10
34.0
 20
13.0
 30
0.0
 11
11.0
 21
13.0
 31
0.0
  0
LINE
  5
D2
100
AcDbEntity
  8
0
  6
CONTINUOUS
 62
               2
100
AcDbLine
 10
19.5
 20
16.0
 30
0.0
 11
19.5
 21
-63.0
 31
0.0
  0
LINE
  5
D3
100
AcDbEntity
  8
0
  6
CONTINUOUS
 62
               2
100
AcDbLine
 10
7.5
 20
-57.199676513671875
 30
0.0
 11
7.5
 21
-67.32257080078125
 31
0.0
  0
LINE
  5
D4
100
AcDbEntity
  8
0
  6
CONTINUOUS
 62
               7
100
AcDbLine
 10
47.499999220938435
 20
-42.711301416913557
 30
0.0
 11
44.49999747033894
 21
-40.979249567548322
 31
0.0
  0
LINE
  5
D5
100
AcDbEntity
  8
0
  6
CONTINUOUS
 62
               7
100
AcDbLine
 10
41.964096069335938
 20
-29.0
 30
0.0
 11
35.035903930664062
 21
-29.0
 31
0.0
  0
LINE
  5
D6
100
AcDbEntity
  8
0
  6
CONTINUOUS
 62
               7
100
AcDbLine
 10
41.964096069335938
 20
-17.0
 30
0.0
 11
35.035903930664062
 21
-17.0
 31
0.0
  0
LINE
  5
D7
100
AcDbEntity
  8
0
  6
CONTINUOUS
 62
               2
100
AcDbLine
 10
38.5
 20
-14.0
 30
0.0
 11
38.5
 21
-32.0
 31
0.0
  0
LINE
  5
D8
100
AcDbEntity
  8
0
  6
CONTINUOUS
 62
               7
100
AcDbLine
 10
35.035897998840255
 20
-17.000015237870684
 30
0.0
 11
31.571786670715255
 21
-23.000031953568396
 31
0.0
  0
LINE
  5
D9
100
AcDbEntity
  8
0
  6
CONTINUOUS
 62
               7
100
AcDbLine
 10
11.0
 20
12.0
 30
0.0
 11
4.0
 21
12.0
 31
0.0
  0
LINE
  5
DA
100
AcDbEntity
  8
0
  6
CONTINUOUS
 62
               7
100
AcDbLine
 10
12.866015058480116
 20
-24.499987856795997
 30
0.0
 11
13.732042890511366
 21
-22.999983677871569
 31
0.0
  0
LINE
  5
DB
100
AcDbEntity
  8
0
  6
CONTINUOUS
 62
               7
100
AcDbLine
 10
41.964088699363856
 20
-17.000018814149371
 30
0.0
 11
45.428184768699793
 21
-23.000009100849638
 31
0.0
  0
LINE
  5
DC
100
AcDbEntity
  8
0
  6
CONTINUOUS
 62
               7
100
AcDbLine
 10
0.0
 20
-37.999981537677741
 30
0.0
 11
0.0
 21
-59.0
 31
0.0
  0
LINE
  5
DD
100
AcDbEntity
  8
0
  6
CONTINUOUS
 62
               7
100
AcDbLine
 10
0.0000000000000002
 20
-8.0000101229888969
 30
0.0
 11
0.3000030517578124
 21
-8.3000131747467094
 31
0.0
  0
LINE
  5
DE
100
AcDbEntity
  8
0
  6
CONTINUOUS
 62
               7
100
AcDbLine
 10
-0.0000000000000008
 20
-37.999981537677741
 30
0.0
 11
0.3000030517578124
 21
-37.699978485919928
 31
0.0
  0
LINE
  5
DF
100
AcDbEntity
  8
0
  6
CONTINUOUS
 62
               7
100
AcDbLine
 10
26.133962638423327
 20
-24.500014839967662
 30
0.0
 11
25.267934806392077
 21
-23.000010661043234
 31
0.0
  0
LINE
  5
E0
100
AcDbEntity
  8
0
  6
CONTINUOUS
 62
               7
100
AcDbLine
 10
12.865997314453125
 20
-21.5
 30
0.0
 11
11.133941650390625
 21
-21.5
 31
0.0
  0
LINE
  5
E1
100
AcDbEntity
  8
0
  6
CONTINUOUS
 62
               7
100
AcDbLine
 10
27.866024534374901
 20
-24.500028799524443
 30
0.0
 11
28.732052366406151
 21
-23.000024620600016
 31
0.0
  0
LINE
  5
E2
100
AcDbEntity
  8
0
  6
CONTINUOUS
 62
               7
100
AcDbLine
 10
26.133976201683708
 20
-21.500024620600016
 30
0.0
 11
25.267948369652458
 21
-23.000028799524443
 31
0.0
  0
LINE
  5
E3
100
AcDbEntity
  8
0
  6
CONTINUOUS
 62
               2
100
AcDbLine
 10
26.837509155273438
 20
-34.70001220703125
 30
0.0
 11
11.776107788085938
 21
-34.70001220703125
 31
0.0
  0
LINE
  5
E4
100
AcDbEntity
  8
0
  6
CONTINUOUS
 62
               7
100
AcDbLine
 10
11.133970939986284
 20
-24.500010280212337
 30
0.0
 11
10.267943107955034
 21
-23.000006101287909
 31
0.0
  0
LINE
  5
E5
100
AcDbEntity
  8
0
  6
CONTINUOUS
 62
               7
100
AcDbLine
 10
0.0
 20
13.0
 30
0.0
 11
0.0
 21
-8.0000101229888969
 31
0.0
  0
LINE
  5
E6
100
AcDbEntity
  8
0
  6
CONTINUOUS
 62
               7
100
AcDbLine
 10
11.133966725788923
 20
-21.499983677871569
 30
0.0
 11
10.267938893757673
 21
-22.999987856795997
 31
0.0
  0
LINE
  5
E7
100
AcDbEntity
  8
0
  6
CONTINUOUS
 62
               7
100
AcDbLine
 10
27.86601097111452
 20
-21.500010661043234
 30
0.0
 11
28.73203880314577
 21
-23.000014839967662
 31
0.0
  0
LINE
  5
E8
100
AcDbEntity
  8
0
  6
CONTINUOUS
 62
               7
100
AcDbLine
 10
12.866019272677477
 20
-21.500006101287909
 30
0.0
 11
13.732047104708727
 21
-23.000010280212337
 31
0.0
  0
LINE
  5
E9
100
AcDbEntity
  8
0
  6
CONTINUOUS
 62
               7
100
AcDbLine
 10
26.134002685546875
 20
-21.5
 30
0.0
 11
27.866058349609375
 21
-21.5
 31
0.0
  0
LINE
  5
EA
100
AcDbEntity
  8
0
  6
CONTINUOUS
 62
               7
100
AcDbLine
 10
26.134002685546875
 20
-24.5
 30
0.0
 11
27.866058349609375
 21
-24.5
 31
0.0
  0
LINE
  5
EB
100
AcDbEntity
  8
0
  6
CONTINUOUS
 62
               7
100
AcDbLine
 10
5.899993896484375
 20
-65.20001220703125
 30
0.0
 11
5.899993896484375
 21
-64.699981689453125
 31
0.0
  0
LINE
  5
EC
100
AcDbEntity
  8
0
  6
CONTINUOUS
 62
               7
100
AcDbLine
 10
12.865997314453125
 20
-24.5
 30
0.0
 11
11.133941650390625
 21
-24.5
 31
0.0
  0
LINE
  5
ED
100
AcDbEntity
  8
0
  6
CONTINUOUS
 62
               2
100
AcDbLine
 10
47.351165771484375
 20
-23.0
 30
0.0
 11
-6.2478887965144736
 21
-23.0
 31
0.0
  0
LINE
  5
EE
100
AcDbEntity
  8
0
  6
CONTINUOUS
 62
               7
100
AcDbLine
 10
9.100006103515625
 20
-65.20001220703125
 30
0.0
 11
9.100006103515625
 21
-64.699996175717388
 31
0.0
  0
LINE
  5
EF
100
AcDbEntity
  8
0
  6
CONTINUOUS
 62
               7
100
AcDbLine
 10
4.0
 20
13.0
 30
0.0
 11
0.0
 21
13.0
 31
0.0
  0
LINE
  5
F0
100
AcDbEntity
  8
0
  6
CONTINUOUS
 62
               7
100
AcDbLine
 10
20.943381839562335
 20
-37.20002267941527
 30
0.0
 11
22.386756473351397
 21
-34.700024524207038
 31
0.0
  0
LINE
  5
F1
100
AcDbEntity
  8
0
  6
CONTINUOUS
 62
               7
100
AcDbLine
 10
18.056629532147326
 20
-32.200024524207038
 30
0.0
 11
16.613254898358264
 21
-34.70002267941527
 31
0.0
  0
LINE
  5
F2
100
AcDbEntity
  8
0
  6
CONTINUOUS
 62
               7
100
AcDbLine
 10
11.0
 20
12.0
 30
0.0
 11
11.0
 21
13.0
 31
0.0
  0
LINE
  5
F3
100
AcDbEntity
  8
0
  6
CONTINUOUS
 62
               7
100
AcDbLine
 10
18.056642108086635
 20
-37.200022959706075
 30
0.0
 11
16.61325221550851
 21
-34.6999983755004
 31
0.0
  0
LINE
  5
F4
100
AcDbEntity
  8
0
  6
CONTINUOUS
 62
               7
100
AcDbLine
 10
20.943374633789063
 20
-32.20001220703125
 30
0.0
 11
18.056625366210938
 21
-32.20001220703125
 31
0.0
  0
LINE
  5
F5
100
AcDbEntity
  8
0
  6
CONTINUOUS
 62
               7
100
AcDbLine
 10
0.0
 20
-59.0
 30
0.0
 11
4.0
 21
-59.0
 31
0.0
  0
LINE
  5
F6
100
AcDbEntity
  8
0
  6
CONTINUOUS
 62
               7
100
AcDbLine
 10
41.964091329605026
 20
-29.000031953568396
 30
0.0
 11
45.428202657730026
 21
-23.000015237870684
 31
0.0
  0
LINE
  5
F7
100
AcDbEntity
  8
0
  6
CONTINUOUS
 62
               7
100
AcDbLine
 10
4.0
 20
12.0
 30
0.0
 11
4.0
 21
13.0
 31
0.0
  0
LINE
  5
F8
100
AcDbEntity
  8
0
  6
CONTINUOUS
 62
               7
100
AcDbLine
 10
20.943379156712581
 20
-32.1999983755004
 30
0.0
 11
22.386769049290706
 21
-34.700022959706075
 31
0.0
  0
LINE
  5
F9
100
AcDbEntity
  8
0
  6
CONTINUOUS
 62
               7
100
AcDbLine
 10
20.943374633789063
 20
-37.20001220703125
 30
0.0
 11
18.056625366210938
 21
-37.20001220703125
 31
0.0
  0
LINE
  5
FA
100
AcDbEntity
  8
0
  6
CONTINUOUS
 62
               7
100
AcDbLine
 10
35.035880109810023
 20
-29.000009100849638
 30
0.0
 11
31.571784040474085
 21
-23.000018814149371
 31
0.0
  0
LINE
  5
FB
100
AcDbEntity
  8
0
  6
CONTINUOUS
 62
               7
100
AcDbLine
 10
43.0
 20
-12.0
 30
0.0
 11
38.0
 21
-12.0
 31
0.0
  0
LINE
  5
FC
100
AcDbEntity
  8
0
  6
CONTINUOUS
 62
               7
100
AcDbLine
 10
47.0
 20
-58.0
 30
0.0
 11
35.0
 21
-58.0
 31
0.0
  0
LINE
  5
FD
100
AcDbEntity
  8
0
  6
CONTINUOUS
 62
               7
100
AcDbLine
 10
44.0
 20
-12.17157287525381
 30
0.0
 11
44.0
 21
11.0
 31
0.0
  0
LINE
  5
FE
100
AcDbEntity
  8
0
  6
CONTINUOUS
 62
               7
100
AcDbLine
 10
35.0
 20
-9.0
 30
0.0
 11
35.0
 21
12.0
 31
0.0
  0
LINE
  5
FF
100
AcDbEntity
  8
0
  6
CONTINUOUS
 62
               7
100
AcDbLine
 10
48.0
 20
11.0
 30
0.0
 11
48.0
 21
-2.42266845703125
 31
0.0
  0
LINE
  5
100
100
AcDbEntity
  8
0
  6
CONTINUOUS
 62
               7
100
AcDbLine
 10
40.221694946289063
 20
-38.75
 30
0.0
 11
38.778305053710938
 21
-38.75
 31
0.0
  0
LINE
  5
101
100
AcDbEntity
  8
0
  6
CONTINUOUS
 62
               7
100
AcDbLine
 10
40.221676269635282
 20
-38.750015681413061
 30
0.0
 11
40.943371215924344
 21
-40.000027973515898
 31
0.0
  0
LINE
  5
102
100
AcDbEntity
  8
0
  6
CONTINUOUS
 62
               7
100
AcDbLine
 10
40.221694946289063
 20
-7.25
 30
0.0
 11
38.778305053710938
 21
-7.25
 31
0.0
  0
LINE
  5
103
100
AcDbEntity
  8
0
  6
CONTINUOUS
 62
               7
100
AcDbLine
 10
46.0
 20
-15.0
 30
0.0
 11
46.0
 21
-31.0
 31
0.0
  0
LINE
  5
104
100
AcDbEntity
  8
0
  6
CONTINUOUS
 62
               7
100
AcDbLine
 10
38.778296718463025
 20
-7.2500097897955129
 30
0.0
 11
38.056617030963025
 21
-6.000023926690119
 31
0.0
  0
LINE
  5
105
100
AcDbEntity
  8
0
  6
CONTINUOUS
 62
               7
100
AcDbLine
 10
40.221687551416153
 20
-7.2500048426099966
 30
0.0
 11
40.943367238916153
 21
-6.0000189795046026
 31
0.0
  0
LINE
  5
106
100
AcDbEntity
  8
0
  6
CONTINUOUS
 62
               7
100
AcDbLine
 10
40.221694946289063
 20
-41.25
 30
0.0
 11
38.778305053710938
 21
-41.25
 31
0.0
  0
LINE
  5
107
100
AcDbEntity
  8
0
  6
CONTINUOUS
 62
               7
100
AcDbLine
 10
40.221680501565061
 20
-4.750023926690119
 30
0.0
 11
40.943360189065061
 21
-6.0000097897955129
 31
0.0
  0
LINE
  5
108
100
AcDbEntity
  8
0
  6
CONTINUOUS
 62
               7
100
AcDbLine
 10
38.778307745322309
 20
-41.250027973515898
 30
0.0
 11
38.056612799033246
 21
-40.000015681413061
 31
0.0
  0
LINE
  5
109
100
AcDbEntity
  8
0
  6
CONTINUOUS
 62
               7
100
AcDbLine
 10
40.221694946289063
 20
-4.75
 30
0.0
 11
38.778305053710938
 21
-4.75
 31
0.0
  0
LINE
  5
10A
100
AcDbEntity
  8
0
  6
CONTINUOUS
 62
               7
100
AcDbLine
 10
40.221691783345932
 20
-41.249996597332938
 30
0.0
 11
40.943371470845932
 21
-40.000010734227544
 31
0.0
  0
ARC
  5
10B
100
AcDbEntity
  8
0
  6
CONTINUOUS
 62
               7
100
AcDbCircle
 10
47.0
 20
-57.0
 30
0.0
 40
1.0
100
AcDbArc
 50
270.0
 51
0.0000025044781673
  0
ARC
  5
10C
100
AcDbEntity
  8
0
  6
CONTINUOUS
 62
               7
100
AcDbCircle
 10
47.0
 20
11.0
 30
0.0
 40
1.0
100
AcDbArc
 50
0.0000025044781673
 51
90.000005008956336
  0
ARC
  5
10D
100
AcDbEntity
  8
0
  6
CONTINUOUS
 62
               7
100
AcDbCircle
 10
10.5
 20
-64.70001220703125
 30
0.0
 40
0.5
100
AcDbArc
 50
269.99999499104388
 51
0.0000025044781673
  0
ARC
  5
10E
100
AcDbEntity
  8
0
  6
CONTINUOUS
 62
               7
100
AcDbCircle
 10
7.5
 20
-62.600006103515625
 30
0.0
 40
2.0999999046325684
100
AcDbArc
 50
359.99999567428898
 51
180.00000068324533
  0
ARC
  5
10F
100
AcDbEntity
  8
0
  6
CONTINUOUS
 62
               7
100
AcDbCircle
 10
4.5
 20
-64.70001220703125
 30
0.0
 40
0.5
100
AcDbArc
 50
179.99999749552182
 51
270.00000865142221
  0
ARC
  5
110
100
AcDbEntity
  8
0
  6
CONTINUOUS
 62
               7
100
AcDbCircle
 10
47.0
 20
-43.57733154296875
 30
0.0
 40
1.0
100
AcDbArc
 50
0.0000025044781673
 51
59.999997343941111
  0
CIRCLE
  5
111
100
AcDbEntity
  8
0
  6
CONTINUOUS
 62
               7
100
AcDbCircle
 10
39.5
 20
-40.0
 30
0.0
 40
3.7999999523162842
  0
CIRCLE
  5
112
100
AcDbEntity
  8
0
  6
CONTINUOUS
 62
               2
100
AcDbCircle
 10
38.5
 20
-23.0
 30
0.0
 40
5.0
  0
CIRCLE
  5
113
100
AcDbEntity
  8
0
  6
CONTINUOUS
 62
               2
100
AcDbCircle
 10
19.5
 20
-34.70001220703125
 30
0.0
 40
4.8499999046325684
  0
CIRCLE
  5
114
100
AcDbEntity
  8
0
  6
CONTINUOUS
 62
               7
100
AcDbCircle
 10
19.5
 20
-34.70001220703125
 30
0.0
 40
4.1500000953674316
  0
ARC
  5
115
100
AcDbEntity
  8
0
  6
CONTINUOUS
 62
               7
100
AcDbCircle
 10
45.0
 20
-5.88677978515625
 30
0.0
 40
1.0
100
AcDbArc
 50
120.0000026560589
 51
179.99999749552182
  0
CIRCLE
  5
116
100
AcDbEntity
  8
0
  6
CONTINUOUS
 62
               7
100
AcDbCircle
 10
38.5
 20
-23.0
 30
0.0
 40
6.0
  0
CIRCLE
  5
117
100
AcDbEntity
  8
0
  6
CONTINUOUS
 62
               7
100
AcDbCircle
 10
27.000030517578125
 20
-23.0
 30
0.0
 40
4.0
  0
CIRCLE
  5
118
100
AcDbEntity
  8
0
  6
CONTINUOUS
 62
               7
100
AcDbCircle
 10
11.999969482421875
 20
-23.0
 30
0.0
 40
4.0
  0
ARC
  5
119
100
AcDbEntity
  8
0
  6
CONTINUOUS
 62
               7
100
AcDbCircle
 10
45.0
 20
-40.11322021484375
 30
0.0
 40
1.0
100
AcDbArc
 50
179.99999749552182
 51
239.99999916517393
  0
ARC
  5
11A
100
AcDbEntity
  8
0
  6
CONTINUOUS
 62
               7
100
AcDbCircle
 10
43.0
 20
-57.0
 30
0.0
 40
1.0
100
AcDbArc
 50
270.0
 51
0.0000025044781673
  0
ARC
  5
11B
100
AcDbEntity
  8
0
  6
CONTINUOUS
 62
               7
100
AcDbCircle
 10
34.0
 20
-58.0
 30
0.0
 40
1.0
100
AcDbArc
 50
270.0
 51
0.0000025044781673
  0
ARC
  5
11C
100
AcDbEntity
  8
0
  6
CONTINUOUS
 62
               7
100
AcDbCircle
 10
34.0
 20
12.0
 30
0.0
 40
1.0
100
AcDbArc
 50
0.0000025044781673
 51
90.000005008956336
  0
CIRCLE
  5
11D
100
AcDbEntity
  8
0
  6
CONTINUOUS
 62
               7
100
AcDbCircle
 10
38.5
 20
-23.0
 30
0.0
 40
4.5
  0
ARC
  5
11E
100
AcDbEntity
  8
0
  6
CONTINUOUS
 62
               7
100
AcDbCircle
 10
47.0
 20
-2.42266845703125
 30
0.0
 40
1.0
100
AcDbArc
 50
300.00000083482604
 51
0.0000025044781673
  0
ARC
  5
11F
100
AcDbEntity
  8
0
  6
CONTINUOUS
 62
               7
100
AcDbCircle
 10
43.0
 20
11.0
 30
0.0
 40
1.0
100
AcDbArc
 50
0.0000025044781673
 51
90.000005008956336
  0
ARC
  5
120
100
AcDbEntity
  8
0
  6
CONTINUOUS
 62
               7
100
AcDbCircle
 10
38.0
 20
-37.0
 30
0.0
 40
3.0
100
AcDbArc
 50
89.999991348577993
 51
180.00000068324533
  0
ARC
  5
121
100
AcDbEntity
  8
0
  6
CONTINUOUS
 62
               7
100
AcDbCircle
 10
43.0
 20
-31.0
 30
0.0
 40
3.0
100
AcDbArc
 50
270.0
 51
0.0000025044781673
  0
ARC
  5
122
100
AcDbEntity
  8
0
  6
CONTINUOUS
 62
               7
100
AcDbCircle
 10
38.0
 20
-9.0
 30
0.0
 40
3.0
100
AcDbArc
 50
179.99999749552182
 51
270.0
  0
ARC
  5
123
100
AcDbEntity
  8
0
  6
CONTINUOUS
 62
               7
100
AcDbCircle
 10
43.0
 20
-15.0
 30
0.0
 40
3.0
100
AcDbArc
 50
0.0000025044781673
 51
90.000005008956336
  0
CIRCLE
  5
124
100
AcDbEntity
  8
0
  6
CONTINUOUS
 62
               7
100
AcDbCircle
 10
39.5
 20
-6.0
 30
0.0
 40
3.7999999523162842
  0
LINE
  5
125
100
AcDbEntity
  8
0
  6
CONTINUOUS
 62
               7
100
AcDbLine
 10
11.0
 20
-58.0
 30
0.0
 11
4.0
 21
-58.0
 31
0.0
  0
LINE
  5
126
100
AcDbEntity
  8
0
  6
CONTINUOUS
 62
               7
100
AcDbLine
 10
11.0
 20
-59.0
 30
0.0
 11
34.0
 21
-59.0
 31
0.0
  0
CIRCLE
  5
127
100
AcDbEntity
  8
0
  6
CONTINUOUS
 62
               7
100
AcDbCircle
 10
6.8499999972751766
 20
-62.700012684684793
 30
0.0
 40
0.5
  0
CIRCLE
  5
128
100
AcDbEntity
  8
0
  6
CONTINUOUS
 62
               7
100
AcDbCircle
 10
7.5
 20
-62.700012684684793
 30
0.0
 40
1.3000000000000114
  0
LINE
  5
129
100
AcDbEntity
  8
0
  6
CONTINUOUS
 62
               7
100
AcDbLine
 10
9.0
 20
-65.20001220703125
 30
0.0
 11
6.0
 21
-65.20001220703125
 31
0.0
  0
LINE
  5
12A
100
AcDbEntity
  8
0
  6
CONTINUOUS
 62
               7
100
AcDbLine
 10
8.75
 20
-65.437411608853722
 30
0.0
 11
6.25
 21
-65.437411608853722
 31
0.0
  0
LINE
  5
12B
100
AcDbEntity
  8
0
  6
CONTINUOUS
 62
               7
100
AcDbLine
 10
8.5500000000000114
 20
-65.637411608853739
 30
0.0
 11
6.4499999999999886
 21
-65.637411608853739
 31
0.0
  0
ARC
  5
12C
100
AcDbEntity
  8
0
  6
CONTINUOUS
 62
               7
100
AcDbCircle
 10
7.5
 20
-62.650012207031253
 30
0.0
 40
2.0499999999999972
100
AcDbArc
 50
12.680383491819539
 51
167.31961650818053
  0
LINE
  5
12D
100
AcDbEntity
  8
0
  6
CONTINUOUS
 62
               7
100
AcDbLine
 10
6.25
 20
-65.437411608853722
 30
0.0
 11
6.25
 21
-65.20001220703125
 31
0.0
  0
LINE
  5
12E
100
AcDbEntity
  8
0
  6
CONTINUOUS
 62
               7
100
AcDbLine
 10
6.4499999999999886
 20
-65.637411608853739
 30
0.0
 11
6.25
 21
-65.437411608853722
 31
0.0
  0
LINE
  5
12F
100
AcDbEntity
  8
0
  6
CONTINUOUS
 62
               2
100
AcDbLine
 10
6.4499999999999886
 20
-65.20001220703125
 30
0.0
 11
6.4499999999999886
 21
-65.637411608853739
 31
0.0
  0
CIRCLE
  5
130
100
AcDbEntity
  8
0
  6
CONTINUOUS
 62
               7
100
AcDbCircle
 10
6.8499999972751766
 20
-62.700012684684793
 30
0.0
 40
0.29
  0
LINE
  5
131
100
AcDbEntity
  8
0
  6
CONTINUOUS
 62
               7
100
AcDbLine
 10
5.5
 20
-62.200012207031264
 30
0.0
 11
5.5
 21
-64.150012207031253
 31
0.0
  0
LINE
  5
132
100
AcDbEntity
  8
0
  6
CONTINUOUS
 62
               7
100
AcDbLine
 10
6.0000000061307333
 20
-64.650012213162015
 30
0.0
 11
5.5
 21
-64.150012207031253
 31
0.0
  0
LINE
  5
133
100
AcDbEntity
  8
0
  6
CONTINUOUS
 62
               7
100
AcDbLine
 10
6.0
 20
-64.650012207031253
 30
0.0
 11
6.0
 21
-65.200012209756025
 31
0.0
  0
LINE
  5
134
100
AcDbEntity
  8
0
  6
CONTINUOUS
 62
               7
100
AcDbLine
 10
9.5
 20
-64.150272623697916
 30
0.0
 11
9.0
 21
-64.652876790364573
 31
0.0
  0
LINE
  5
135
100
AcDbEntity
  8
0
  6
CONTINUOUS
 62
               7
100
AcDbLine
 10
9.0
 20
-64.652876790364573
 30
0.0
 11
9.0
 21
-65.200012209756025
 31
0.0
  0
LINE
  5
136
100
AcDbEntity
  8
0
  6
CONTINUOUS
 62
               7
100
AcDbLine
 10
8.75
 20
-65.20001220703125
 30
0.0
 11
8.75
 21
-65.437411608853722
 31
0.0
  0
LINE
  5
137
100
AcDbEntity
  8
0
  6
CONTINUOUS
 62
               7
100
AcDbLine
 10
8.75
 20
-65.437411608853722
 30
0.0
 11
8.5500000000000114
 21
-65.637411608853739
 31
0.0
  0
LINE
  5
138
100
AcDbEntity
  8
0
  6
CONTINUOUS
 62
               2
100
AcDbLine
 10
8.5500000000000114
 20
-65.20001220703125
 30
0.0
 11
8.5500000000000114
 21
-65.637411608853739
 31
0.0
  0
LINE
  5
139
100
AcDbEntity
  8
0
  6
CONTINUOUS
 62
               7
100
AcDbLine
 10
9.5
 20
-62.200012207031264
 30
0.0
 11
9.5
 21
-64.150272623697916
 31
0.0
  0
CIRCLE
  5
13A
100
AcDbEntity
  8
0
  6
CONTINUOUS
 62
               7
100
AcDbCircle
 10
8.1500000027247665
 20
-62.700012684684808
 30
0.0
 40
0.5
  0
CIRCLE
  5
13B
100
AcDbEntity
  8
0
  6
CONTINUOUS
 62
               7
100
AcDbCircle
 10
8.1500000027247665
 20
-62.700012684684808
 30
0.0
 40
0.29
  0
LINE
  5
13C
100
AcDbEntity
  8
0
  6
CONTINUOUS
 62
               2
100
AcDbLine
 10
-3.0
 20
0.0
 30
0.0
 11
3.0
 21
0.0
 31
0.0
  0
LINE
  5
13D
100
AcDbEntity
  8
0
  6
CONTINUOUS
 62
               2
100
AcDbLine
 10
-3.0
 20
-46.0
 30
0.0
 11
3.0
 21
-46.0
 31
0.0
  0
LINE
  5
13E
100
AcDbEntity
  8
0
  6
CONTINUOUS
 62
               2
100
AcDbLine
 10
45.0
 20
5.0
 30
0.0
 11
51.0
 21
5.0
 31
0.0
  0
LINE
  5
13F
100
AcDbEntity
  8
0
  6
CONTINUOUS
 62
               2
100
AcDbLine
 10
45.0
 20
-51.0
 30
0.0
 11
51.0
 21
-51.0
 31
0.0
  0
ENDBLK
  5
140
100
AcDbEntity
  8
0
100
AcDbBlockEnd
  0
BLOCK
  5
141
100
AcDbEntity
  8
0
100
AcDbBlockBegin
  2
MRVZS28-K2-3
 70
               0
 10
0.0
 20
0.0
 30
0.0
  3
MRVZS28-K2-3
  1

  0
LINE
  5
142
100
AcDbEntity
  8
0
  6
CONTINUOUS
 62
               7
100
AcDbLine
 10
-25.5
 20
34.0
 30
0.0
 11
-25.0
 21
33.5
 31
0.0
  0
LINE
  5
143
100
AcDbEntity
  8
0
  6
CONTINUOUS
 62
               7
100
AcDbLine
 10
-25.5
 20
42.999999999999993
 30
0.0
 11
-25.0
 21
43.5
 31
0.0
  0
LINE
  5
144
100
AcDbEntity
  8
0
  6
CONTINUOUS
 62
               7
100
AcDbLine
 10
238.5
 20
34.000000000000007
 30
0.0
 11
238.0
 21
33.5
 31
0.0
  0
LINE
  5
145
100
AcDbEntity
  8
0
  6
CONTINUOUS
 62
               7
100
AcDbLine
 10
238.5
 20
43.000000000000007
 30
0.0
 11
238.0
 21
43.5
 31
0.0
  0
LINE
  5
146
100
AcDbEntity
  8
0
  6
CONTINUOUS
 62
               7
100
AcDbLine
 10
190.5
 20
34.0
 30
0.0
 11
191.0
 21
33.500000000000007
 31
0.0
  0
LINE
  5
147
100
AcDbEntity
  8
0
  6
CONTINUOUS
 62
               7
100
AcDbLine
 10
190.5
 20
43.0
 30
0.0
 11
191.0
 21
43.500000000000007
 31
0.0
  0
LINE
  5
148
100
AcDbEntity
  8
0
  6
CONTINUOUS
 62
               7
100
AcDbLine
 10
22.5
 20
34.0
 30
0.0
 11
22.0
 21
33.5
 31
0.0
  0
LINE
  5
149
100
AcDbEntity
  8
0
  6
CONTINUOUS
 62
               7
100
AcDbLine
 10
22.5
 20
43.0
 30
0.0
 11
22.0
 21
43.5
 31
0.0
  0
LINE
  5
14A
100
AcDbEntity
  8
0
  6
CONTINUOUS
 62
               7
100
AcDbLine
 10
22.5
 20
34.000000482748419
 30
0.0
 11
24.5
 21
34.000000482748419
 31
0.0
  0
LINE
  5
14B
100
AcDbEntity
  8
0
  6
CONTINUOUS
 62
               7
100
AcDbLine
 10
22.5
 20
43.0
 30
0.0
 11
23.652485149220603
 21
43.0
 31
0.0
  0
LINE
  5
14C
100
AcDbEntity
  8
0
  6
CONTINUOUS
 62
               7
100
AcDbLine
 10
188.5
 20
34.0
 30
0.0
 11
190.5
 21
34.0
 31
0.0
  0
LINE
  5
14D
100
AcDbEntity
  8
0
  6
CONTINUOUS
 62
               7
100
AcDbLine
 10
188.5
 20
43.0
 30
0.0
 11
190.5
 21
43.0
 31
0.0
  0
LINE
  5
14E
100
AcDbEntity
  8
0
  6
CONTINUOUS
 62
               7
100
AcDbLine
 10
196.5
 20
33.5
 30
0.0
 11
191.0
 21
33.5
 31
0.0
  0
LINE
  5
14F
100
AcDbEntity
  8
0
  6
CONTINUOUS
 62
               2
100
AcDbLine
 10
196.5
 20
34.0
 30
0.0
 11
190.5
 21
34.0
 31
0.0
  0
LINE
  5
150
100
AcDbEntity
  8
0
  6
CONTINUOUS
 62
               2
100
AcDbLine
 10
196.5
 20
43.0
 30
0.0
 11
190.5
 21
43.0
 31
0.0
  0
LINE
  5
151
100
AcDbEntity
  8
0
  6
CONTINUOUS
 62
               7
100
AcDbLine
 10
196.5
 20
43.5
 30
0.0
 11
191.0
 21
43.5
 31
0.0
  0
LINE
  5
152
100
AcDbEntity
  8
0
  6
CONTINUOUS
 62
               7
100
AcDbLine
 10
-25.5
 20
43.0
 30
0.0
 11
-25.5
 21
34.0
 31
0.0
  0
LINE
  5
153
100
AcDbEntity
  8
0
  6
CONTINUOUS
 62
               7
100
AcDbLine
 10
-25.0
 20
43.5
 30
0.0
 11
-25.0
 21
33.5
 31
0.0
  0
LINE
  5
154
100
AcDbEntity
  8
0
  6
CONTINUOUS
 62
               2
100
AcDbLine
 10
-9.5
 20
19.5
 30
0.0
 11
222.5
 21
19.5
 31
0.0
  0
LINE
  5
155
100
AcDbEntity
  8
0
  6
CONTINUOUS
 62
               7
100
AcDbLine
 10
88.5
 20
30.29998779296875
 30
0.0
 11
196.5
 21
30.29998779296875
 31
0.0
  0
LINE
  5
156
100
AcDbEntity
  8
0
  6
CONTINUOUS
 62
               7
100
AcDbLine
 10
219.5
 20
46.0
 30
0.0
 11
219.5
 21
0.0
 31
0.0
  0
LINE
  5
157
100
AcDbEntity
  8
0
  6
CONTINUOUS
 62
               2
100
AcDbLine
 10
205.5
 20
26.0
 30
0.0
 11
205.5
 21
13.0
 31
0.0
  0
LINE
  5
158
100
AcDbEntity
  8
0
  6
CONTINUOUS
 62
               7
100
AcDbLine
 10
219.5
 20
31.571792602539063
 30
0.0
 11
222.5
 21
31.571792602539063
 31
0.0
  0
LINE
  5
159
100
AcDbEntity
  8
0
  6
CONTINUOUS
 62
               7
100
AcDbLine
 10
196.5
 20
46.0
 30
0.0
 11
196.5
 21
11.0
 31
0.0
  0
LINE
  5
15A
100
AcDbEntity
  8
0
  6
CONTINUOUS
 62
               7
100
AcDbLine
 10
219.5
 20
0.0
 30
0.0
 11
196.5
 21
0.0
 31
0.0
  0
LINE
  5
15B
100
AcDbEntity
  8
0
  6
CONTINUOUS
 62
               7
100
AcDbLine
 10
238.0
 20
43.5
 30
0.0
 11
238.0
 21
33.5
 31
0.0
  0
LINE
  5
15C
100
AcDbEntity
  8
0
  6
CONTINUOUS
 62
               7
100
AcDbLine
 10
191.0
 20
43.5
 30
0.0
 11
191.0
 21
33.5
 31
0.0
  0
LINE
  5
15D
100
AcDbEntity
  8
0
  6
CONTINUOUS
 62
               7
100
AcDbLine
 10
190.5
 20
43.0
 30
0.0
 11
190.5
 21
34.0
 31
0.0
  0
LINE
  5
15E
100
AcDbEntity
  8
0
  6
CONTINUOUS
 62
               7
100
AcDbLine
 10
219.5
 20
46.0
 30
0.0
 11
196.5
 21
46.0
 31
0.0
  0
LINE
  5
15F
100
AcDbEntity
  8
0
  6
CONTINUOUS
 62
               2
100
AcDbLine
 10
238.5
 20
34.0
 30
0.0
 11
222.5
 21
34.0
 31
0.0
  0
LINE
  5
160
100
AcDbEntity
  8
0
  6
CONTINUOUS
 62
               7
100
AcDbLine
 10
222.5
 20
41.964096069335938
 30
0.0
 11
219.5
 21
41.964096069335938
 31
0.0
  0
LINE
  5
161
100
AcDbEntity
  8
0
  6
CONTINUOUS
 62
               7
100
AcDbLine
 10
238.0
 20
43.5
 30
0.0
 11
222.5
 21
43.5
 31
0.0
  0
LINE
  5
162
100
AcDbEntity
  8
0
  6
CONTINUOUS
 62
               2
100
AcDbLine
 10
238.5
 20
43.0
 30
0.0
 11
222.5
 21
43.0
 31
0.0
  0
LINE
  5
163
100
AcDbEntity
  8
0
  6
CONTINUOUS
 62
               7
100
AcDbLine
 10
188.5
 20
43.0
 30
0.0
 11
188.5
 21
34.0
 31
0.0
  0
LINE
  5
164
100
AcDbEntity
  8
0
  6
CONTINUOUS
 62
               7
100
AcDbLine
 10
222.5
 20
35.035903930664062
 30
0.0
 11
219.5
 21
35.035903930664062
 31
0.0
  0
LINE
  5
165
100
AcDbEntity
  8
0
  6
CONTINUOUS
 62
               7
100
AcDbLine
 10
178.5
 20
40.0
 30
0.0
 11
178.5
 21
37.0
 31
0.0
  0
LINE
  5
166
100
AcDbEntity
  8
0
  6
CONTINUOUS
 62
               7
100
AcDbLine
 10
238.0
 20
33.5
 30
0.0
 11
222.5
 21
33.5
 31
0.0
  0
LINE
  5
167
100
AcDbEntity
  8
0
  6
CONTINUOUS
 62
               7
100
AcDbLine
 10
219.5
 20
35.0
 30
0.0
 11
196.5
 21
35.0
 31
0.0
  0
LINE
  5
168
100
AcDbEntity
  8
0
  6
CONTINUOUS
 62
               7
100
AcDbLine
 10
219.5
 20
45.428207397460938
 30
0.0
 11
222.5
 21
45.428207397460938
 31
0.0
  0
LINE
  5
169
100
AcDbEntity
  8
0
  6
CONTINUOUS
 62
               7
100
AcDbLine
 10
238.5
 20
43.0
 30
0.0
 11
238.5
 21
34.0
 31
0.0
  0
LINE
  5
16A
100
AcDbEntity
  8
0
  6
CONTINUOUS
 62
               7
100
AcDbLine
 10
188.5
 20
37.0
 30
0.0
 11
178.5
 21
37.0
 31
0.0
  0
LINE
  5
16B
100
AcDbEntity
  8
0
  6
CONTINUOUS
 62
               7
100
AcDbLine
 10
188.5
 20
40.0
 30
0.0
 11
178.5
 21
40.0
 31
0.0
  0
LINE
  5
16C
100
AcDbEntity
  8
0
  6
CONTINUOUS
 62
               7
100
AcDbLine
 10
222.5
 20
45.428207397460938
 30
0.0
 11
222.5
 21
31.571792602539063
 31
0.0
  0
LINE
  5
16D
100
AcDbEntity
  8
0
  6
CONTINUOUS
 62
               7
100
AcDbLine
 10
24.5
 20
12.5
 30
0.0
 11
27.0
 21
12.5
 31
0.0
  0
LINE
  5
16E
100
AcDbEntity
  8
0
  6
CONTINUOUS
 62
               7
100
AcDbLine
 10
88.5
 20
44.0
 30
0.0
 11
86.899993896484375
 21
44.0
 31
0.0
  0
LINE
  5
16F
100
AcDbEntity
  8
0
  6
CONTINUOUS
 62
               2
100
AcDbLine
 10
56.5
 20
54.93057440111906
 30
0.0
 11
56.5
 21
-2.60638427734375
 31
0.0
  0
LINE
  5
170
100
AcDbEntity
  8
0
  6
CONTINUOUS
 62
               2
100
AcDbLine
 10
7.5
 20
26.0
 30
0.0
 11
7.5
 21
13.0
 31
0.0
  0
LINE
  5
171
100
AcDbEntity
  8
0
  6
CONTINUOUS
 62
               7
100
AcDbLine
 10
-6.5
 20
35.0
 30
0.0
 11
16.5
 21
35.0
 31
0.0
  0
LINE
  5
172
100
AcDbEntity
  8
0
  6
CONTINUOUS
 62
               7
100
AcDbLine
 10
16.5
 20
46.0
 30
0.0
 11
16.5
 21
11.0
 31
0.0
  0
LINE
  5
173
100
AcDbEntity
  8
0
  6
CONTINUOUS
 62
               7
100
AcDbLine
 10
-6.5
 20
0.0
 30
0.0
 11
16.5
 21
0.0
 31
0.0
  0
LINE
  5
174
100
AcDbEntity
  8
0
  6
CONTINUOUS
 62
               7
100
AcDbLine
 10
16.5
 20
30.29998779296875
 30
0.0
 11
24.5
 21
30.29998779296875
 31
0.0
  0
LINE
  5
175
100
AcDbEntity
  8
0
  6
CONTINUOUS
 62
               7
100
AcDbLine
 10
26.100006103515625
 20
48.0
 30
0.0
 11
86.899993896484375
 21
48.0
 31
0.0
  0
LINE
  5
176
100
AcDbEntity
  8
0
  6
CONTINUOUS
 62
               7
100
AcDbLine
 10
-6.5
 20
46.0
 30
0.0
 11
-6.5
 21
0.0
 31
0.0
  0
LINE
  5
177
100
AcDbEntity
  8
0
  6
CONTINUOUS
 62
               7
100
AcDbLine
 10
-6.5
 20
46.0
 30
0.0
 11
16.5
 21
46.0
 31
0.0
  0
LINE
  5
178
100
AcDbEntity
  8
0
  6
CONTINUOUS
 62
               7
100
AcDbLine
 10
24.149993896484375
 20
23.050003051757813
 30
0.0
 11
24.5
 21
23.050003051757813
 31
0.0
  0
LINE
  5
179
100
AcDbEntity
  8
0
  6
CONTINUOUS
 62
               7
100
AcDbLine
 10
24.149993896484375
 20
15.449996948242188
 30
0.0
 11
24.5
 21
15.449996948242188
 31
0.0
  0
LINE
  5
17A
100
AcDbEntity
  8
0
  6
CONTINUOUS
 62
               7
100
AcDbLine
 10
22.29998779296875
 20
16.268478393554687
 30
0.0
 11
22.29998779296875
 21
22.231521606445313
 31
0.0
  0
LINE
  5
17B
100
AcDbEntity
  8
0
  6
CONTINUOUS
 62
               7
100
AcDbLine
 10
88.850006103515625
 20
23.050003051757813
 30
0.0
 11
88.5
 21
23.050003051757813
 31
0.0
  0
LINE
  5
17C
100
AcDbEntity
  8
0
  6
CONTINUOUS
 62
               7
100
AcDbLine
 10
88.850006103515625
 20
15.449996948242188
 30
0.0
 11
88.5
 21
15.449996948242188
 31
0.0
  0
LINE
  5
17D
100
AcDbEntity
  8
0
  6
CONTINUOUS
 62
               7
100
AcDbLine
 10
90.70001220703125
 20
16.268478393554687
 30
0.0
 11
90.70001220703125
 21
22.231521606445313
 31
0.0
  0
LINE
  5
17E
100
AcDbEntity
  8
0
  6
CONTINUOUS
 62
               7
100
AcDbLine
 10
-9.5
 20
41.964096069335938
 30
0.0
 11
-6.5
 21
41.964096069335938
 31
0.0
  0
LINE
  5
17F
100
AcDbEntity
  8
0
  6
CONTINUOUS
 62
               7
100
AcDbLine
 10
22.5
 20
43.0
 30
0.0
 11
22.5
 21
42.428176879882813
 31
0.0
  0
LINE
  5
180
100
AcDbEntity
  8
0
  6
CONTINUOUS
 62
               7
100
AcDbLine
 10
22.0
 20
43.5
 30
0.0
 11
22.0
 21
33.5
 31
0.0
  0
LINE
  5
181
100
AcDbEntity
  8
0
  6
CONTINUOUS
 62
               7
100
AcDbLine
 10
24.5
 20
44.0
 30
0.0
 11
26.100006103515625
 21
44.0
 31
0.0
  0
LINE
  5
182
100
AcDbEntity
  8
0
  6
CONTINUOUS
 62
               7
100
AcDbLine
 10
-6.5
 20
45.428207397460938
 30
0.0
 11
-9.5
 21
45.428207397460938
 31
0.0
  0
LINE
  5
183
100
AcDbEntity
  8
0
  6
CONTINUOUS
 62
               7
100
AcDbLine
 10
-6.5
 20
31.571792602539063
 30
0.0
 11
-9.5
 21
31.571792602539063
 31
0.0
  0
LINE
  5
184
100
AcDbEntity
  8
0
  6
CONTINUOUS
 62
               7
100
AcDbLine
 10
-9.5
 20
45.428207397460938
 30
0.0
 11
-9.5
 21
31.571792602539063
 31
0.0
  0
LINE
  5
185
100
AcDbEntity
  8
0
  6
CONTINUOUS
 62
               7
100
AcDbLine
 10
-9.5
 20
35.035903930664062
 30
0.0
 11
-6.5
 21
35.035903930664062
 31
0.0
  0
LINE
  5
186
100
AcDbEntity
  8
0
  6
CONTINUOUS
 62
               7
100
AcDbLine
 10
22.29998779296875
 20
36.268478393554687
 30
0.0
 11
22.29998779296875
 21
42.231521606445313
 31
0.0
  0
LINE
  5
187
100
AcDbEntity
  8
0
  6
CONTINUOUS
 62
               7
100
AcDbLine
 10
22.5
 20
36.071823120117188
 30
0.0
 11
22.5
 21
34.0
 31
0.0
  0
LINE
  5
188
100
AcDbEntity
  8
0
  6
CONTINUOUS
 62
               7
100
AcDbLine
 10
24.5
 20
15.386749267578125
 30
0.0
 11
88.5
 21
15.386749267578125
 31
0.0
  0
LINE
  5
189
100
AcDbEntity
  8
0
  6
CONTINUOUS
 62
               7
100
AcDbLine
 10
88.850006103515625
 20
35.449996948242187
 30
0.0
 11
88.5
 21
35.449996948242187
 31
0.0
  0
LINE
  5
18A
100
AcDbEntity
  8
0
  6
CONTINUOUS
 62
               7
100
AcDbLine
 10
88.850006103515625
 20
43.050003051757813
 30
0.0
 11
88.5
 21
43.050003051757813
 31
0.0
  0
LINE
  5
18B
100
AcDbEntity
  8
0
  6
CONTINUOUS
 62
               7
100
AcDbLine
 10
90.70001220703125
 20
36.268478393554687
 30
0.0
 11
90.70001220703125
 21
42.231521606445313
 31
0.0
  0
LINE
  5
18C
100
AcDbEntity
  8
0
  6
CONTINUOUS
 62
               7
100
AcDbLine
 10
24.149993896484375
 20
43.050003051757813
 30
0.0
 11
24.5
 21
43.050003051757813
 31
0.0
  0
LINE
  5
18D
100
AcDbEntity
  8
0
  6
CONTINUOUS
 62
               7
100
AcDbLine
 10
24.149993896484375
 20
35.449996948242187
 30
0.0
 11
24.5
 21
35.449996948242187
 31
0.0
  0
LINE
  5
18E
100
AcDbEntity
  8
0
  6
CONTINUOUS
 62
               7
100
AcDbLine
 10
219.5
 20
4.0
 30
0.0
 11
-6.5
 21
4.0
 31
0.0
  0
LINE
  5
18F
100
AcDbEntity
  8
0
  6
CONTINUOUS
 62
               7
100
AcDbLine
 10
88.5
 20
44.0
 30
0.0
 11
88.5
 21
11.0
 31
0.0
  0
LINE
  5
190
100
AcDbEntity
  8
0
  6
CONTINUOUS
 62
               7
100
AcDbLine
 10
24.5
 20
44.0
 30
0.0
 11
24.5
 21
11.0
 31
0.0
  0
LINE
  5
191
100
AcDbEntity
  8
0
  6
CONTINUOUS
 62
               7
100
AcDbLine
 10
24.5
 20
2.0
 30
0.0
 11
88.5
 21
2.0
 31
0.0
  0
LINE
  5
192
100
AcDbEntity
  8
0
  6
CONTINUOUS
 62
               7
100
AcDbLine
 10
24.5
 20
4.0
 30
0.0
 11
24.5
 21
2.0
 31
0.0
  0
LINE
  5
193
100
AcDbEntity
  8
0
  6
CONTINUOUS
 62
               7
100
AcDbLine
 10
86.899993896484375
 20
48.0
 30
0.0
 11
86.899993896484375
 21
11.0
 31
0.0
  0
LINE
  5
194
100
AcDbEntity
  8
0
  6
CONTINUOUS
 62
               7
100
AcDbLine
 10
26.100006103515625
 20
48.0
 30
0.0
 11
26.100006103515625
 21
11.0
 31
0.0
  0
LINE
  5
195
100
AcDbEntity
  8
0
  6
CONTINUOUS
 62
               7
100
AcDbLine
 10
-6.5
 20
11.0
 30
0.0
 11
219.5
 21
11.0
 31
0.0
  0
LINE
  5
196
100
AcDbEntity
  8
0
  6
CONTINUOUS
 62
               7
100
AcDbLine
 10
9.6161537035200126
 20
6.6160996788635202
 30
0.0
 11
11.383920626232339
 21
8.3838666015758463
 31
0.0
  0
LINE
  5
197
100
AcDbEntity
  8
0
  6
CONTINUOUS
 62
               7
100
AcDbLine
 10
1.5
 20
11.0
 30
0.0
 11
1.5
 21
4.0
 31
0.0
  0
LINE
  5
198
100
AcDbEntity
  8
0
  6
CONTINUOUS
 62
               7
100
AcDbLine
 10
42.0
 20
11.249992370605469
 30
0.0
 11
71.0
 21
11.249992370605469
 31
0.0
  0
LINE
  5
199
100
AcDbEntity
  8
0
  6
CONTINUOUS
 62
               7
100
AcDbLine
 10
1.5
 20
5.899993896484375
 30
0.0
 11
8.9180755615234375
 21
5.899993896484375
 31
0.0
  0
LINE
  5
19A
100
AcDbEntity
  8
0
  6
CONTINUOUS
 62
               7
100
AcDbLine
 10
11.383920626232339
 20
6.6160996788635202
 30
0.0
 11
9.6161537035200126
 21
8.3838666015758463
 31
0.0
  0
LINE
  5
19B
100
AcDbEntity
  8
0
  6
CONTINUOUS
 62
               7
100
AcDbLine
 10
1.5
 20
9.100006103515625
 30
0.0
 11
8.9180755615234375
 21
9.100006103515625
 31
0.0
  0
LINE
  5
19C
100
AcDbEntity
  8
0
  6
CONTINUOUS
 62
               7
100
AcDbLine
 10
42.0
 20
11.249992370605469
 30
0.0
 11
42.0
 21
11.0
 31
0.0
  0
LINE
  5
19D
100
AcDbEntity
  8
0
  6
CONTINUOUS
 62
               7
100
AcDbLine
 10
71.0
 20
11.249992370605469
 30
0.0
 11
71.0
 21
11.0
 31
0.0
  0
LINE
  5
19E
100
AcDbEntity
  8
0
  6
CONTINUOUS
 62
               7
100
AcDbLine
 10
27.0
 20
14.566986083984375
 30
0.0
 11
86.0
 21
14.566986083984375
 31
0.0
  0
LINE
  5
19F
100
AcDbEntity
  8
0
  6
CONTINUOUS
 62
               7
100
AcDbLine
 10
27.0
 20
15.0
 30
0.0
 11
27.0
 21
11.0
 31
0.0
  0
LINE
  5
1A0
100
AcDbEntity
  8
0
  6
CONTINUOUS
 62
               7
100
AcDbLine
 10
27.0
 20
15.0
 30
0.0
 11
86.0
 21
15.0
 31
0.0
  0
LINE
  5
1A1
100
AcDbEntity
  8
0
  6
CONTINUOUS
 62
               7
100
AcDbLine
 10
27.0
 20
12.211326599121094
 30
0.0
 11
86.0
 21
12.211326599121094
 31
0.0
  0
LINE
  5
1A2
100
AcDbEntity
  8
0
  6
CONTINUOUS
 62
               7
100
AcDbLine
 10
86.0
 20
15.0
 30
0.0
 11
86.0
 21
11.0
 31
0.0
  0
LINE
  5
1A3
100
AcDbEntity
  8
0
  6
CONTINUOUS
 62
               7
100
AcDbLine
 10
26.100006103515625
 20
4.0
 30
0.0
 11
26.100006103515625
 21
2.0
 31
0.0
  0
LINE
  5
1A4
100
AcDbEntity
  8
0
  6
CONTINUOUS
 62
               7
100
AcDbLine
 10
201.61611698005015
 20
6.6161172119522007
 30
0.0
 11
203.38388390276248
 21
8.3838841346645268
 31
0.0
  0
LINE
  5
1A5
100
AcDbEntity
  8
0
  6
CONTINUOUS
 62
               7
100
AcDbLine
 10
211.5
 20
5.899993896484375
 30
0.0
 11
204.58192443847656
 21
5.899993896484375
 31
0.0
  0
LINE
  5
1A6
100
AcDbEntity
  8
0
  6
CONTINUOUS
 62
               7
100
AcDbLine
 10
203.0
 20
9.75
 30
0.0
 11
202.0
 21
9.75
 31
0.0
  0
LINE
  5
1A7
100
AcDbEntity
  8
0
  6
CONTINUOUS
 62
               7
100
AcDbLine
 10
12.081924438476563
 20
5.899993896484375
 30
0.0
 11
200.41807556152344
 21
5.899993896484375
 31
0.0
  0
LINE
  5
1A8
100
AcDbEntity
  8
0
  6
CONTINUOUS
 62
               7
100
AcDbLine
 10
211.5
 20
9.100006103515625
 30
0.0
 11
204.58192443847656
 21
9.100006103515625
 31
0.0
  0
LINE
  5
1A9
100
AcDbEntity
  8
0
  6
CONTINUOUS
 62
               7
100
AcDbLine
 10
203.0
 20
5.25
 30
0.0
 11
202.0
 21
5.25
 31
0.0
  0
LINE
  5
1AA
100
AcDbEntity
  8
0
  6
CONTINUOUS
 62
               7
100
AcDbLine
 10
211.5
 20
11.0
 30
0.0
 11
211.5
 21
4.0
 31
0.0
  0
LINE
  5
1AB
100
AcDbEntity
  8
0
  6
CONTINUOUS
 62
               7
100
AcDbLine
 10
203.38387311316944
 20
6.6161280015452348
 30
0.0
 11
201.61611698005015
 21
8.3838841346645268
 31
0.0
  0
LINE
  5
1AC
100
AcDbEntity
  8
0
  6
CONTINUOUS
 62
               7
100
AcDbLine
 10
12.081924438476563
 20
9.100006103515625
 30
0.0
 11
200.41807556152344
 21
9.100006103515625
 31
0.0
  0
LINE
  5
1AD
100
AcDbEntity
  8
0
  6
CONTINUOUS
 62
               7
100
AcDbLine
 10
86.899993896484375
 20
4.0
 30
0.0
 11
86.899993896484375
 21
2.0
 31
0.0
  0
LINE
  5
1AE
100
AcDbEntity
  8
0
  6
CONTINUOUS
 62
               7
100
AcDbLine
 10
88.5
 20
4.0
 30
0.0
 11
88.5
 21
2.0
 31
0.0
  0
LINE
  5
1AF
100
AcDbEntity
  8
0
  6
CONTINUOUS
 62
               7
100
AcDbLine
 10
86.0
 20
12.5
 30
0.0
 11
88.5
 21
12.5
 31
0.0
  0
LINE
  5
1B0
100
AcDbEntity
  8
0
  6
CONTINUOUS
 62
               7
100
AcDbLine
 10
16.5
 20
4.0
 30
0.0
 11
16.5
 21
0.0
 31
0.0
  0
LINE
  5
1B1
100
AcDbEntity
  8
0
  6
CONTINUOUS
 62
               7
100
AcDbLine
 10
196.5
 20
4.0
 30
0.0
 11
196.5
 21
0.0
 31
0.0
  0
CIRCLE
  5
1B2
100
AcDbEntity
  8
0
  6
CONTINUOUS
 62
               7
100
AcDbCircle
 10
205.5
 20
19.5
 30
0.0
 40
1.7000000476837158
  0
CIRCLE
  5
1B3
100
AcDbEntity
  8
0
  6
CONTINUOUS
 62
               2
100
AcDbCircle
 10
205.5
 20
19.5
 30
0.0
 40
4.8499999046325684
  0
CIRCLE
  5
1B4
100
AcDbEntity
  8
0
  6
CONTINUOUS
 62
               7
100
AcDbCircle
 10
205.5
 20
19.5
 30
0.0
 40
4.1500000953674316
  0
CIRCLE
  5
1B5
100
AcDbEntity
  8
0
  6
CONTINUOUS
 62
               7
100
AcDbCircle
 10
7.5
 20
19.5
 30
0.0
 40
1.7000000476837158
  0
CIRCLE
  5
1B6
100
AcDbEntity
  8
0
  6
CONTINUOUS
 62
               2
100
AcDbCircle
 10
7.5
 20
19.5
 30
0.0
 40
4.8499999046325684
  0
CIRCLE
  5
1B7
100
AcDbEntity
  8
0
  6
CONTINUOUS
 62
               7
100
AcDbCircle
 10
7.5
 20
19.5
 30
0.0
 40
4.1500000953674316
  0
ARC
  5
1B8
100
AcDbEntity
  8
0
  6
CONTINUOUS
 62
               7
100
AcDbCircle
 10
24.149993896484375
 20
20.550003051757813
 30
0.0
 40
2.5
100
AcDbArc
 50
90.000002504478161
 51
137.73142031146745
  0
ARC
  5
1B9
100
AcDbEntity
  8
0
  6
CONTINUOUS
 62
               7
100
AcDbCircle
 10
24.149993896484375
 20
17.949996948242188
 30
0.0
 40
2.5
100
AcDbArc
 50
222.26857968853255
 51
269.99999749552182
  0
ARC
  5
1BA
100
AcDbEntity
  8
0
  6
CONTINUOUS
 62
               7
100
AcDbCircle
 10
88.850006103515625
 20
20.550003051757813
 30
0.0
 40
2.5
100
AcDbArc
 50
42.26858469748889
 51
90.000002504478161
  0
ARC
  5
1BB
100
AcDbEntity
  8
0
  6
CONTINUOUS
 62
               7
100
AcDbCircle
 10
88.850006103515625
 20
17.949996948242188
 30
0.0
 40
2.5
100
AcDbArc
 50
269.99999749552182
 51
317.7314153025111
  0
ARC
  5
1BC
100
AcDbEntity
  8
0
  6
CONTINUOUS
 62
               7
100
AcDbCircle
 10
24.149993896484375
 20
40.550003051757813
 30
0.0
 40
2.5
100
AcDbArc
 50
90.000002504478161
 51
137.73142031146745
  0
ARC
  5
1BD
100
AcDbEntity
  8
0
  6
CONTINUOUS
 62
               7
100
AcDbCircle
 10
24.149993896484375
 20
37.949996948242187
 30
0.0
 40
2.5
100
AcDbArc
 50
222.26857968853255
 51
269.99999749552182
  0
ARC
  5
1BE
100
AcDbEntity
  8
0
  6
CONTINUOUS
 62
               7
100
AcDbCircle
 10
88.850006103515625
 20
37.949996948242187
 30
0.0
 40
2.5
100
AcDbArc
 50
270.00000432571102
 51
317.73141871760572
  0
ARC
  5
1BF
100
AcDbEntity
  8
0
  6
CONTINUOUS
 62
               7
100
AcDbCircle
 10
88.850006103515625
 20
40.550003051757813
 30
0.0
 40
2.5
100
AcDbArc
 50
42.268581282394301
 51
89.999995674288996
  0
CIRCLE
  5
1C0
100
AcDbEntity
  8
0
  6
CONTINUOUS
 62
               7
100
AcDbCircle
 10
10.5
 20
7.5
 30
0.0
 40
2.25
  0
CIRCLE
  5
1C1
100
AcDbEntity
  8
0
  6
CONTINUOUS
 62
               7
100
AcDbCircle
 10
10.5
 20
7.5
 30
0.0
 40
1.75
  0
ARC
  5
1C2
100
AcDbEntity
  8
0
  6
CONTINUOUS
 62
               7
100
AcDbCircle
 10
203.0
 20
7.5
 30
0.0
 40
2.25
100
AcDbArc
 50
269.99999749552182
 51
90.000002504478161
  0
CIRCLE
  5
1C3
100
AcDbEntity
  8
0
  6
CONTINUOUS
 62
               7
100
AcDbCircle
 10
202.5
 20
7.5
 30
0.0
 40
1.75
  0
ARC
  5
1C4
100
AcDbEntity
  8
0
  6
CONTINUOUS
 62
               7
100
AcDbCircle
 10
202.0
 20
7.5
 30
0.0
 40
2.25
100
AcDbArc
 50
90.000002504478161
 51
270.00000068324533
  0
LINE
  5
1C5
100
AcDbEntity
  8
0
  6
CONTINUOUS
 62
               2
100
AcDbLine
 10
-25.5
 20
34.0
 30
0.0
 11
-9.5
 21
34.0
 31
0.0
  0
LINE
  5
1C6
100
AcDbEntity
  8
0
  6
CONTINUOUS
 62
               2
100
AcDbLine
 10
-28.5
 20
38.5
 30
0.0
 11
29.556915283203125
 21
38.5
 31
0.0
  0
LINE
  5
1C7
100
AcDbEntity
  8
0
  6
CONTINUOUS
 62
               7
100
AcDbLine
 10
-25.0
 20
43.5
 30
0.0
 11
-9.5
 21
43.5
 31
0.0
  0
LINE
  5
1C8
100
AcDbEntity
  8
0
  6
CONTINUOUS
 62
               2
100
AcDbLine
 10
-25.5
 20
43.0
 30
0.0
 11
-9.5
 21
43.0
 31
0.0
  0
LINE
  5
1C9
100
AcDbEntity
  8
0
  6
CONTINUOUS
 62
               7
100
AcDbLine
 10
-25.0
 20
33.5
 30
0.0
 11
-9.5
 21
33.5
 31
0.0
  0
LINE
  5
1CA
100
AcDbEntity
  8
0
  6
CONTINUOUS
 62
               2
100
AcDbLine
 10
241.5
 20
38.5
 30
0.0
 11
175.74172973632812
 21
38.5
 31
0.0
  0
LINE
  5
1CB
100
AcDbEntity
  8
0
  6
CONTINUOUS
 62
               7
100
AcDbLine
 10
16.5
 20
43.5
 30
0.0
 11
22.0
 21
43.5
 31
0.0
  0
LINE
  5
1CC
100
AcDbEntity
  8
0
  6
CONTINUOUS
 62
               2
100
AcDbLine
 10
16.5
 20
43.0
 30
0.0
 11
22.5
 21
43.0
 31
0.0
  0
LINE
  5
1CD
100
AcDbEntity
  8
0
  6
CONTINUOUS
 62
               2
100
AcDbLine
 10
16.5
 20
34.0
 30
0.0
 11
22.5
 21
34.0
 31
0.0
  0
LINE
  5
1CE
100
AcDbEntity
  8
0
  6
CONTINUOUS
 62
               7
100
AcDbLine
 10
16.5
 20
33.5
 30
0.0
 11
22.0
 21
33.5
 31
0.0
  0
LINE
  5
1D0
100
AcDbEntity
  8
0
  6
CENTER
 62
               2
100
AcDbLine
 10
63.91040175778528
 20
7.5
 30
0.0
 11
40.997113163972301
 21
7.5
 31
0.0
  0
LINE
  5
1D1
100
AcDbEntity
  8
0
  6
CONTINUOUS
 62
               2
100
AcDbLine
 10
60.5
 20
10.44285714285715
 30
0.0
 11
60.5
 21
4.2000153265765334
 31
0.0
  0
LINE
  5
1D2
100
AcDbEntity
  8
0
  6
CONTINUOUS
 62
               2
100
AcDbLine
 10
44.747690531177852
 20
8.8000000000000114
 30
0.0
 11
43.24653579676675
 21
6.2000000000000028
 31
0.0
  0
LINE
  5
1D3
100
AcDbEntity
  8
0
  6
CONTINUOUS
 62
               7
100
AcDbLine
 10
47.0
 20
6.2000000000000028
 30
0.0
 11
43.24653579676675
 21
6.2000000000000028
 31
0.0
  0
LINE
  5
1D4
100
AcDbEntity
  8
0
  6
CONTINUOUS
 62
               7
100
AcDbLine
 10
47.0
 20
8.8000000000000114
 30
0.0
 11
44.747690531177852
 21
8.8000000000000114
 31
0.0
  0
LINE
  5
1D5
100
AcDbEntity
  8
0
  6
CONTINUOUS
 62
               7
100
AcDbLine
 10
58.600000000000023
 20
6.0
 30
0.0
 11
58.600000000000023
 21
9.0
 31
0.0
  0
LINE
  5
1D6
100
AcDbEntity
  8
0
  6
CONTINUOUS
 62
               7
100
AcDbLine
 10
52.100000000000023
 20
6.0
 30
0.0
 11
52.100000000000023
 21
9.0
 31
0.0
  0
LINE
  5
1D7
100
AcDbEntity
  8
0
  6
CONTINUOUS
 62
               7
100
AcDbLine
 10
62.500000004768367
 20
5.899993896484375
 30
0.0
 11
62.500000004768367
 21
9.100006103515625
 31
0.0
  0
LINE
  5
1D8
100
AcDbEntity
  8
0
  6
CONTINUOUS
 62
               7
100
AcDbLine
 10
47.0
 20
5.899993896484375
 30
0.0
 11
47.0
 21
9.100006103515625
 31
0.0
  0
LINE
  5
1D9
100
AcDbEntity
  8
0
  6
CONTINUOUS
 62
               7
100
AcDbLine
 10
62.500000004768367
 20
9.0
 30
0.0
 11
47.0
 21
9.0
 31
0.0
  0
LINE
  5
1DA
100
AcDbEntity
  8
0
  6
CONTINUOUS
 62
               7
100
AcDbLine
 10
62.500000004768367
 20
6.0
 30
0.0
 11
47.0
 21
6.0
 31
0.0
  0
CIRCLE
  5
1DB
100
AcDbEntity
  8
0
  6
CONTINUOUS
 62
               7
100
AcDbCircle
 10
60.5
 20
7.5
 30
0.0
 40
1.3999999999999997
  0
CIRCLE
  5
1DC
100
AcDbEntity
  8
0
  6
CONTINUOUS
 62
               7
100
AcDbCircle
 10
60.5
 20
7.5
 30
0.0
 40
1.25
  0
CIRCLE
  5
1DD
100
AcDbEntity
  8
0
  6
CONTINUOUS
 62
               2
100
AcDbCircle
 10
60.5
 20
7.5
 30
0.0
 40
1.05
  0
LINE
  5
1DE
100
AcDbEntity
  8
0
  6
CONTINUOUS
 62
               7
100
AcDbLine
 10
61.542802106093063
 20
6.8107513021209911
 30
0.0
 11
59.810751302120991
 21
8.5428021060930348
 31
0.0
  0
LINE
  5
1DF
100
AcDbEntity
  8
0
  6
CONTINUOUS
 62
               7
100
AcDbLine
 10
61.189248685836787
 20
6.4571979277474441
 30
0.0
 11
59.457197892325269
 21
8.1892487212589913
 31
0.0
  0
LINE
  5
1E0
100
AcDbEntity
  8
0
  6
CONTINUOUS
 62
               2
100
AcDbLine
 10
160.49999999523163
 20
10.44285714285715
 30
0.0
 11
160.49999999523163
 21
4.2000153265765334
 31
0.0
  0
LINE
  5
1E1
100
AcDbEntity
  8
0
  6
CENTER
 62
               2
100
AcDbLine
 10
163.91040175301691
 20
7.5
 30
0.0
 11
140.99711315920393
 21
7.5
 31
0.0
  0
LINE
  5
1E2
100
AcDbEntity
  8
0
  6
CONTINUOUS
 62
               7
100
AcDbLine
 10
161.18924868106842
 20
6.4571979277474441
 30
0.0
 11
159.4571978875569
 21
8.1892487212589913
 31
0.0
  0
LINE
  5
1E3
100
AcDbEntity
  8
0
  6
CONTINUOUS
 62
               7
100
AcDbLine
 10
161.5428021013247
 20
6.8107513021209911
 30
0.0
 11
159.81075129735262
 21
8.5428021060930348
 31
0.0
  0
CIRCLE
  5
1E4
100
AcDbEntity
  8
0
  6
CONTINUOUS
 62
               2
100
AcDbCircle
 10
160.49999999523163
 20
7.5
 30
0.0
 40
1.05
  0
CIRCLE
  5
1E5
100
AcDbEntity
  8
0
  6
CONTINUOUS
 62
               7
100
AcDbCircle
 10
160.49999999523163
 20
7.5
 30
0.0
 40
1.25
  0
CIRCLE
  5
1E6
100
AcDbEntity
  8
0
  6
CONTINUOUS
 62
               7
100
AcDbCircle
 10
160.49999999523163
 20
7.5
 30
0.0
 40
1.3999999999999997
  0
LINE
  5
1E7
100
AcDbEntity
  8
0
  6
CONTINUOUS
 62
               7
100
AcDbLine
 10
162.5
 20
6.0
 30
0.0
 11
146.99999999523163
 21
6.0
 31
0.0
  0
LINE
  5
1E8
100
AcDbEntity
  8
0
  6
CONTINUOUS
 62
               7
100
AcDbLine
 10
162.5
 20
9.0
 30
0.0
 11
146.99999999523163
 21
9.0
 31
0.0
  0
LINE
  5
1E9
100
AcDbEntity
  8
0
  6
CONTINUOUS
 62
               7
100
AcDbLine
 10
146.99999999523163
 20
5.899993896484375
 30
0.0
 11
146.99999999523163
 21
9.100006103515625
 31
0.0
  0
LINE
  5
1EA
100
AcDbEntity
  8
0
  6
CONTINUOUS
 62
               7
100
AcDbLine
 10
162.5
 20
5.899993896484375
 30
0.0
 11
162.5
 21
9.100006103515625
 31
0.0
  0
LINE
  5
1EB
100
AcDbEntity
  8
0
  6
CONTINUOUS
 62
               7
100
AcDbLine
 10
152.09999999523166
 20
6.0
 30
0.0
 11
152.09999999523166
 21
9.0
 31
0.0
  0
LINE
  5
1EC
100
AcDbEntity
  8
0
  6
CONTINUOUS
 62
               7
100
AcDbLine
 10
158.59999999523166
 20
6.0
 30
0.0
 11
158.59999999523166
 21
9.0
 31
0.0
  0
LINE
  5
1ED
100
AcDbEntity
  8
0
  6
CONTINUOUS
 62
               7
100
AcDbLine
 10
146.99999999523163
 20
8.8000000000000114
 30
0.0
 11
144.74769052640949
 21
8.8000000000000114
 31
0.0
  0
LINE
  5
1EE
100
AcDbEntity
  8
0
  6
CONTINUOUS
 62
               7
100
AcDbLine
 10
146.99999999523163
 20
6.2000000000000028
 30
0.0
 11
143.24653579199838
 21
6.2000000000000028
 31
0.0
  0
LINE
  5
1EF
100
AcDbEntity
  8
0
  6
CONTINUOUS
 62
               2
100
AcDbLine
 10
144.74769052640949
 20
8.8000000000000114
 30
0.0
 11
143.24653579199838
 21
6.2000000000000028
 31
0.0
  0
LINE
  5
1F0
100
AcDbEntity
  8
0
  6
CONTINUOUS
 62
               2
100
AcDbLine
 10
0.0
 20
-3.0
 30
0.0
 11
0.0
 21
3.0
 31
0.0
  0
LINE
  5
1F1
100
AcDbEntity
  8
0
  6
CONTINUOUS
 62
               2
100
AcDbLine
 10
213.0
 20
-3.0
 30
0.0
 11
213.0
 21
3.0
 31
0.0
  0
LINE
  5
1F2
100
AcDbEntity
  8
0
  6
CONTINUOUS
 62
               2
100
AcDbLine
 10
34.5
 20
45.0
 30
0.0
 11
34.5
 21
51.0
 31
0.0
  0
LINE
  5
1F3
100
AcDbEntity
  8
0
  6
CONTINUOUS
 62
               2
100
AcDbLine
 10
78.5
 20
45.0
 30
0.0
 11
78.5
 21
51.0
 31
0.0
  0
LINE
  5
1F4
100
AcDbEntity
  8
0
  6
PHANTOM
 62
               3
100
AcDbLine
 10
123.5
 20
63.673157894736846
 30
0.0
 11
123.5
 21
-25.518070175438595
 31
0.0
  0
ENDBLK
  5
1F5
100
AcDbEntity
  8
0
100
AcDbBlockEnd
  0
ENDSEC
  0
SECTION
  2
ENTITIES
  0
INSERT
  5
1F6
100
AcDbEntity
  8
0
  6
ByBlock
100
AcDbBlockReference
  2
MRVZS28-K2-3
 10
-50.0
 20
-70.0
 30
0.0
  0
INSERT
  5
1F7
100
AcDbEntity
  8
0
  6
ByBlock
100
AcDbBlockReference
  2
MRVZS28-K2-2
 10
-180.0
 20
80.0
 30
0.0
  0
INSERT
  5
1F8
100
AcDbEntity
  8
0
  6
ByBlock
100
AcDbBlockReference
  2
MRVZS28-K2-1
 10
-50.0
 20
80.0
 30
0.0
  0
MTEXT
  5
1F9
100
AcDbEntity
  8
0
  6
CONTINUOUS
 62
               7
100
AcDbMText
 10
-227.74748088175031
 20
150.5
 30
0.0
 40
6.3000001907348633
 41
0.0
 71
               4
 72
               1
  1
\W1.079;\A1;(WITH SENSOR SWITCH)
  0
MTEXT
  5
1FA
100
AcDbEntity
  8
0
  6
CONTINUOUS
 62
               7
100
AcDbMText
 10
138.6805966608508
 20
-119.62799907101675
 30
0.0
 40
4.5
 41
0.0
 71
               4
 72
               1
  1
\W0.833;\A1;（ｍｍ）
  0
LINE
  5
1FB
100
AcDbEntity
  8
0
  6
CONTINUOUS
 62
               7
100
AcDbLine
 10
153.4249267578125
 20
-124.0
 30
0.0
 11
153.4249267578125
 21
-140.0
 31
0.0
  0
MTEXT
  5
1FC
100
AcDbEntity
  8
0
  6
CONTINUOUS
 62
               7
100
AcDbMText
 10
-25.776256675548836
 20
-119.36376888795405
 30
0.0
 40
4.5
 41
0.0
 71
               4
 72
               1
  1
\W1.065;\A1;STRETCH LIST
  0
LINE
  5
1FD
100
AcDbEntity
  8
0
  6
CONTINUOUS
 62
               7
100
AcDbLine
 10
130.9249267578125
 20
-124.0
 30
0.0
 11
130.9249267578125
 21
-140.0
 31
0.0
  0
MTEXT
  5
1FE
100
AcDbEntity
  8
0
  6
CONTINUOUS
 62
               7
100
AcDbMText
 10
113.76867677038533
 20
-136.0
 30
0.0
 40
4.5
 41
0.0
 71
               4
 72
               1
  1
\W1.125;\A1;600
  0
MTEXT
  5
1FF
100
AcDbEntity
  8
0
  6
CONTINUOUS
 62
               7
100
AcDbMText
 10
113.76867677038533
 20
-128.0
 30
0.0
 40
4.5
 41
0.0
 71
               4
 72
               1
  1
\W1.125;\A1;700
  0
LINE
  5
200
100
AcDbEntity
  8
0
  6
CONTINUOUS
 62
               7
100
AcDbLine
 10
108.42492675781247
 20
-124.0
 30
0.0
 11
108.42492675781247
 21
-140.0
 31
0.0
  0
MTEXT
  5
201
100
AcDbEntity
  8
0
  6
CONTINUOUS
 62
               7
100
AcDbMText
 10
91.268676770385341
 20
-136.0
 30
0.0
 40
4.5
 41
0.0
 71
               4
 72
               1
  1
\W1.125;\A1;500
  0
MTEXT
  5
202
100
AcDbEntity
  8
0
  6
CONTINUOUS
 62
               7
100
AcDbMText
 10
91.268676770385341
 20
-128.0
 30
0.0
 40
4.5
 41
0.0
 71
               4
 72
               1
  1
\W1.125;\A1;600
  0
LINE
  5
203
100
AcDbEntity
  8
0
  6
CONTINUOUS
 62
               7
100
AcDbLine
 10
85.924926757812486
 20
-124.0
 30
0.0
 11
85.924926757812486
 21
-140.0
 31
0.0
  0
MTEXT
  5
204
100
AcDbEntity
  8
0
  6
CONTINUOUS
 62
               7
100
AcDbMText
 10
68.768676770385326
 20
-136.0
 30
0.0
 40
4.5
 41
0.0
 71
               4
 72
               1
  1
\W1.125;\A1;400
  0
MTEXT
  5
205
100
AcDbEntity
  8
0
  6
CONTINUOUS
 62
               7
100
AcDbMText
 10
68.768676770385326
 20
-128.0
 30
0.0
 40
4.5
 41
0.0
 71
               4
 72
               1
  1
\W1.125;\A1;500
  0
MTEXT
  5
206
100
AcDbEntity
  8
0
  6
CONTINUOUS
 62
               7
100
AcDbMText
 10
46.219044410439892
 20
-136.0
 30
0.0
 40
4.5
 41
0.0
 71
               4
 72
               1
  1
\W1.059;\A1;350
  0
MTEXT
  5
207
100
AcDbEntity
  8
0
  6
CONTINUOUS
 62
               7
100
AcDbMText
 10
46.219044410439892
 20
-128.0
 30
0.0
 40
4.5
 41
0.0
 71
               4
 72
               1
  1
\W1.059;\A1;450
  0
MTEXT
  5
208
100
AcDbEntity
  8
0
  6
CONTINUOUS
 62
               7
100
AcDbMText
 10
23.768676770385326
 20
-136.0
 30
0.0
 40
4.5
 41
0.0
 71
               4
 72
               1
  1
\W1.125;\A1;300
  0
MTEXT
  5
209
100
AcDbEntity
  8
0
  6
CONTINUOUS
 62
               7
100
AcDbMText
 10
23.768676770385326
 20
-128.0
 30
0.0
 40
4.5
 41
0.0
 71
               4
 72
               1
  1
\W1.125;\A1;400
  0
MTEXT
  5
20A
100
AcDbEntity
  8
0
  6
CONTINUOUS
 62
               7
100
AcDbMText
 10
-106.67507322072986
 20
-136.0
 30
0.0
 40
4.5
 41
0.0
 71
               4
 72
               1
  1
\W1.200;\A1;0
  0
MTEXT
  5
20B
100
AcDbEntity
  8
0
  6
CONTINUOUS
 62
               7
100
AcDbMText
 10
-111.11078751969097
 20
-128.0
 30
0.0
 40
4.5
 41
0.0
 71
               4
 72
               1
  1
\W1.286;\A1;100
  0
LINE
  5
20C
100
AcDbEntity
  8
0
  6
CONTINUOUS
 62
               7
100
AcDbLine
 10
63.424926757812486
 20
-124.0
 30
0.0
 11
63.424926757812486
 21
-140.0
 31
0.0
  0
LINE
  5
20D
100
AcDbEntity
  8
0
  6
CONTINUOUS
 62
               7
100
AcDbLine
 10
18.424926757812486
 20
-124.0
 30
0.0
 11
18.424926757812486
 21
-140.0
 31
0.0
  0
LINE
  5
20E
100
AcDbEntity
  8
0
  6
CONTINUOUS
 62
               7
100
AcDbLine
 10
40.924926757812486
 20
-124.0
 30
0.0
 11
40.924926757812486
 21
-140.0
 31
0.0
  0
LINE
  5
20F
100
AcDbEntity
  8
0
  6
CONTINUOUS
 62
               7
100
AcDbLine
 10
-26.575073242187528
 20
-124.0
 30
0.0
 11
-26.575073242187528
 21
-140.0
 31
0.0
  0
LINE
  5
210
100
AcDbEntity
  8
0
  6
CONTINUOUS
 62
               7
100
AcDbLine
 10
-4.0750732421875142
 20
-124.0
 30
0.0
 11
-4.0750732421875142
 21
-140.0
 31
0.0
  0
LINE
  5
211
100
AcDbEntity
  8
0
  6
CONTINUOUS
 62
               7
100
AcDbLine
 10
-49.075073242187528
 20
-124.0
 30
0.0
 11
-49.075073242187528
 21
-140.0
 31
0.0
  0
LINE
  5
212
100
AcDbEntity
  8
0
  6
CONTINUOUS
 62
               7
100
AcDbLine
 10
-71.575073242187528
 20
-124.0
 30
0.0
 11
-71.575073242187528
 21
-140.0
 31
0.0
  0
LINE
  5
213
100
AcDbEntity
  8
0
  6
CONTINUOUS
 62
               7
100
AcDbLine
 10
-94.075073242187528
 20
-124.0
 30
0.0
 11
-94.075073242187528
 21
-140.0
 31
0.0
  0
LINE
  5
214
100
AcDbEntity
  8
0
  6
CONTINUOUS
 62
               7
100
AcDbLine
 10
-116.57507324218753
 20
-124.0
 30
0.0
 11
-116.57507324218753
 21
-140.0
 31
0.0
  0
MTEXT
  5
215
100
AcDbEntity
  8
0
  6
CONTINUOUS
 62
               7
100
AcDbMText
 10
1.2190444104399236
 20
-136.0
 30
0.0
 40
4.5
 41
0.0
 71
               4
 72
               1
  1
\W1.059;\A1;250
  0
MTEXT
  5
216
100
AcDbEntity
  8
0
  6
CONTINUOUS
 62
               7
100
AcDbMText
 10
1.2190444104399236
 20
-128.0
 30
0.0
 40
4.5
 41
0.0
 71
               4
 72
               1
  1
\W1.059;\A1;350
  0
MTEXT
  5
217
100
AcDbEntity
  8
0
  6
CONTINUOUS
 62
               7
100
AcDbMText
 10
-21.231323229614674
 20
-136.0
 30
0.0
 40
4.5
 41
0.0
 71
               4
 72
               1
  1
\W1.125;\A1;200
  0
MTEXT
  5
218
100
AcDbEntity
  8
0
  6
CONTINUOUS
 62
               7
100
AcDbMText
 10
-21.231323229614674
 20
-128.0
 30
0.0
 40
4.5
 41
0.0
 71
               4
 72
               1
  1
\W1.125;\A1;300
  0
MTEXT
  5
219
100
AcDbEntity
  8
0
  6
CONTINUOUS
 62
               7
100
AcDbMText
 10
-43.675073242187544
 20
-136.0
 30
0.0
 40
4.5
 41
0.0
 71
               4
 72
               1
  1
\W1.200;\A1;150
  0
MTEXT
  5
21A
100
AcDbEntity
  8
0
  6
CONTINUOUS
 62
               7
100
AcDbMText
 10
-43.780955589560122
 20
-128.0
 30
0.0
 40
4.5
 41
0.0
 71
               4
 72
               1
  1
\W1.059;\A1;250
  0
MTEXT
  5
21B
100
AcDbEntity
  8
0
  6
CONTINUOUS
 62
               7
100
AcDbMText
 10
-66.110787519690973
 20
-136.0
 30
0.0
 40
4.5
 41
0.0
 71
               4
 72
               1
  1
\W1.286;\A1;100
  0
MTEXT
  5
21C
100
AcDbEntity
  8
0
  6
CONTINUOUS
 62
               7
100
AcDbMText
 10
-66.231323229614674
 20
-128.0
 30
0.0
 40
4.5
 41
0.0
 71
               4
 72
               1
  1
\W1.125;\A1;200
  0
MTEXT
  5
21D
100
AcDbEntity
  8
0
  6
CONTINUOUS
 62
               7
100
AcDbMText
 10
-86.506891415138909
 20
-136.0
 30
0.0
 40
4.5
 41
0.0
 71
               4
 72
               1
  1
\W1.091;\A1;50
  0
MTEXT
  5
21E
100
AcDbEntity
  8
0
  6
CONTINUOUS
 62
               7
100
AcDbMText
 10
-88.675073242187523
 20
-128.0
 30
0.0
 40
4.5
 41
0.0
 71
               4
 72
               1
  1
\W1.200;\A1;150
  0
MTEXT
  5
21F
100
AcDbEntity
  8
0
  6
CONTINUOUS
 62
               7
100
AcDbMText
 10
-149.5750732421875
 20
-136.0
 30
0.0
 40
4.5
 41
0.0
 71
               4
 72
               1
  1
\A1;STRETCH
  0
MTEXT
  5
220
100
AcDbEntity
  8
0
  6
CONTINUOUS
 62
               7
100
AcDbMText
 10
-147.3250732421875
 20
-128.0
 30
0.0
 40
4.5
 41
0.0
 71
               4
 72
               1
  1
\A1;STROKE
  0
LINE
  5
221
100
AcDbEntity
  8
0
  6
CONTINUOUS
 62
               7
100
AcDbLine
 10
-152.5750732421875
 20
-124.0
 30
0.0
 11
-152.5750732421875
 21
-140.0
 31
0.0
  0
MTEXT
  5
222
100
AcDbEntity
  8
0
  6
CONTINUOUS
 62
               7
100
AcDbMText
 10
136.26867677038535
 20
-136.0
 30
0.0
 40
4.5
 41
0.0
 71
               4
 72
               1
  1
\W1.125;\A1;700
  0
MTEXT
  5
223
100
AcDbEntity
  8
0
  6
CONTINUOUS
 62
               7
100
AcDbMText
 10
136.26867677038535
 20
-128.0
 30
0.0
 40
4.5
 41
0.0
 71
               4
 72
               1
  1
\W1.125;\A1;800
  0
LINE
  5
224
100
AcDbEntity
  8
0
  6
CONTINUOUS
 62
               7
100
AcDbLine
 10
-152.5750732421875
 20
-124.0
 30
0.0
 11
153.4249267578125
 21
-124.0
 31
0.0
  0
LINE
  5
225
100
AcDbEntity
  8
0
  6
CONTINUOUS
 62
               7
100
AcDbLine
 10
-152.5750732421875
 20
-132.0
 30
0.0
 11
153.4249267578125
 21
-132.0
 31
0.0
  0
LINE
  5
226
100
AcDbEntity
  8
0
  6
CONTINUOUS
 62
               7
100
AcDbLine
 10
-152.5750732421875
 20
-140.0
 30
0.0
 11
153.4249267578125
 21
-140.0
 31
0.0
  0
MTEXT
  5
227
100
AcDbEntity
  8
0
  6
CONTINUOUS
 62
               3
100
AcDbMText
 10
29.965785231262338
 20
137.93730027723115
 30
0.0
 40
6.3000001907348633
 41
0.0
 71
               4
 72
               1
  1
\W1.065;\A1;STRETCH LINE
  0
MTEXT
  5
228
100
AcDbEntity
  8
0
  6
CONTINUOUS
 62
               7
100
AcDbMText
 10
-251.73387189456005
 20
180.5
 30
0.0
 40
6.3000001907348633
 41
0.0
 71
               4
 72
               1
  1
\W0.968;\A1;MRVZS28-K2
  0
MTEXT
  5
229
100
AcDbEntity
  8
0
  6
CONTINUOUS
 62
               7
100
AcDbMText
 10
-270.54956481277219
 20
190.5
 30
0.0
 40
6.3000001907348633
 41
0.0
 71
               4
 72
               1
  1
\W1.048;\A1;RODLESS CYLINDER
  0
LINE
  5
22A
100
AcDbEntity
  8
0
  6
CONTINUOUS
 62
               7
100
AcDbLine
 10
-281.25
 20
175.5
 30
0.0
 11
-161.25
 21
175.5
 31
0.0
  0
LINE
  5
22B
100
AcDbEntity
  8
0
  6
CONTINUOUS
 62
               7
100
AcDbLine
 10
-161.25
 20
195.5
 30
0.0
 11
-161.25
 21
175.5
 31
0.0
  0
LINE
  5
22C
100
AcDbEntity
  8
0
  6
CONTINUOUS
 62
               7
100
AcDbLine
 10
162.0999755859375
 20
-175.0
 30
0.0
 11
162.0999755859375
 21
-195.0
 31
0.0
  0
LINE
  5
22D
100
AcDbEntity
  8
0
  6
CONTINUOUS
 62
               7
100
AcDbLine
 10
162.0999755859375
 20
-175.0
 30
0.0
 11
282.099853515625
 21
-175.0
 31
0.0
  0
MTEXT
  5
22E
100
AcDbEntity
  8
0
  6
CONTINUOUS
 62
               7
100
AcDbMText
 10
170.2809980228688
 20
-185.0
 30
0.0
 40
9.0
 41
0.0
 71
               4
 72
               1
  1
\W1.121;\A1;KOGANEI CORP.
  0
MTEXT
  5
22F
100
AcDbEntity
  8
0
  6
CONTINUOUS
 62
               7
100
AcDbMText
 10
198.2770240315611
 20
185.5
 30
0.0
 40
6.3000001907348633
 41
0.0
 71
               4
 72
               1
  1
\W1.311;\A1;Ver. 1.0
  0
LINE
  5
230
100
AcDbEntity
  8
0
  6
CONTINUOUS
 62
               7
100
AcDbLine
 10
162.0999755859375
 20
175.5
 30
0.0
 11
282.099853515625
 21
175.5
 31
0.0
  0
LINE
  5
231
100
AcDbEntity
  8
0
  6
CONTINUOUS
 62
               7
100
AcDbLine
 10
162.0999755859375
 20
195.5
 30
0.0
 11
162.0999755859375
 21
175.5
 31
0.0
  0
LINE
  5
232
100
AcDbEntity
  8
0
  6
CONTINUOUS
 62
               7
100
AcDbLine
 10
282.099853515625
 20
195.5
 30
0.0
 11
282.099853515625
 21
-195.0
 31
0.0
  0
LINE
  5
233
100
AcDbEntity
  8
0
  6
CONTINUOUS
 62
               7
100
AcDbLine
 10
-281.25
 20
195.5
 30
0.0
 11
282.099853515625
 21
195.5
 31
0.0
  0
LINE
  5
234
100
AcDbEntity
  8
0
  6
CONTINUOUS
 62
               7
100
AcDbLine
 10
-281.25
 20
195.5
 30
0.0
 11
-281.25
 21
-195.0
 31
0.0
  0
LINE
  5
235
100
AcDbEntity
  8
0
  6
CONTINUOUS
 62
               7
100
AcDbLine
 10
-281.25
 20
-195.0
 30
0.0
 11
282.099853515625
 21
-195.0
 31
0.0
  0
MTEXT
  5
236
100
AcDbEntity
  8
0
  6
CONTINUOUS
 62
               7
100
AcDbMText
 10
-268.27164185576407
 20
160.5
 30
0.0
 40
6.3000001907348633
 41
0.0
 71
               4
 72
               1
  1
\W1.075;\A1;MODEL:MRVZS28*ST(100)-K2
  0
ENDSEC
  0
SECTION
  2
OBJECTS
  0
DICTIONARY
  5
19
100
AcDbDictionary
  3
ACAD_GROUP
350
1A
  3
ACAD_MLINESTYLE
350
1B
  0
DICTIONARY
  5
1A
102
{ACAD_REACTORS
330
19
102
}
100
AcDbDictionary
  0
DICTIONARY
  5
1B
102
{ACAD_REACTORS
330
19
102
}
100
AcDbDictionary
  3
STANDARD
350
1C
  0
MLINESTYLE
  5
1C
102
{ACAD_REACTORS
330
1B
102
}
100
AcDbMlineStyle
  2
Standard
 70
               0
  3

 62
               0
 51
90.0
 52
90.0
 71
               2
 49
0.5
 62
             256
  6
ByLayer
 49
-0.5
 62
             256
  6
ByLayer
  0
ENDSEC
  0
EOF
