  0
SECTION
  2
HEADER
  9
$ACADVER
  1
AC1003
  9
$EXTMIN
 10
-2.81250000E+02
 20
-1.95000000E+02
  9
$EXTMAX
 10
2.82099854E+02
 20
1.95500000E+02
  9
$LIMMIN
 10
-2.81251000E+02
 20
-1.95001000E+02
  9
$LIMMAX
 10
2.82100854E+02
 20
1.95501000E+02
  9
$SNAPUNIT
 10
1
 20
1
  9
$SNAPBASE
 10
0
 20
0
  9
$GRIDMODE
 70
0
  9
$GRIDUNIT
 10
0
 20
0
  9
$LTSCALE
 40
9.38916423E+00
  9
$TEXTSIZE
 40
3.2
  9
$DIMTAD
 70
0
  9
$LUNITS
 70
2
  9
$LUPREC
 70
4
  9
$FILLETRAD
 40
0
  9
$AUNITS
 70
0
  9
$AUPREC
 70
0
  0
ENDSEC
  0
SECTION
  2
TABLES
  0
TABLE
  2
LTYPE
 70
2
  0
LTYPE
  2
CONTINUOUS
 70
64
  3
Solid-Line
 72
65
 73
0
 40
0
  0
LTYPE
  2
DASHED
 70
64
  3
DASHED
 72
65
 73
2
 40
.75
 49
.5
 49
-.25
  0
LTYPE
  2
HIDDEN
 70
64
  3
HIDDEN
 72
65
 73
2
 40
.375
 49
.25
 49
-.125
  0
LTYPE
  2
CENTER
 70
64
  3
CENTER
 72
65
 73
4
 40
2
 49
1.25
 49
-.25
 49
.25
 49
-.25
  0
LTYPE
  2
PHANTOM
 70
64
  3
PHANTOM
 72
65
 73
6
 40
2.5
 49
1.25
 49
-.25
 49
.25
 49
-.25
 49
.25
 49
-.25
  0
ENDTAB
  0
TABLE
  2
LAYER
 70
1
  0
LAYER
  2
0
 70
0
 62
3
  6
CONTINUOUS
 0
ENDTAB
  0
TABLE
  2
STYLE
 70
2
  0
STYLE
  2
MONOTXT
 70
0
 40
0
 41
1
 50
0
 71
0
 42
.2
  3
monotxt
  0
STYLE
  2
BIGFONT
 70
0
 40
0
 41
1
 50
0
 71
0
 42
.2
  3
txt
  4
bigfont
  0
ENDTAB
  0
ENDSEC
  0
SECTION
  2
ENTITIES
  0
LINE
  8
0
  6
PHANTOM
 10
1.93604769E+01
 20
1.30187128E+02
 11
1.93604769E+01
 21
-4.82072427E+01
  0
LINE
  8
0
 62
4
 10
3.41104807E+01
 20
-1.59821026E+01
 11
3.41104807E+01
 21
-1.54821026E+01
  0
LINE
  8
0
 62
6
 10
3.43304807E+01
 20
-1.59821026E+01
 11
3.43304807E+01
 21
-1.54821026E+01
  0
LINE
  8
0
 62
6
 10
3.63804807E+01
 20
-1.59821026E+01
 11
3.63804807E+01
 21
-1.54821026E+01
  0
LINE
  8
0
 62
4
 10
3.66104807E+01
 20
-1.59821026E+01
 11
3.66104807E+01
 21
-1.54821026E+01
  0
LINE
  8
0
 62
4
 10
3.41104807E+01
 20
-1.59821026E+01
 11
3.66104807E+01
 21
-1.59821026E+01
  0
LINE
  8
0
  6
CENTER
 62
6
 10
3.53604807E+01
 20
-1.62821026E+01
 11
3.53604807E+01
 21
-1.16321026E+01
  0
LINE
  8
0
 62
4
 10
-6.58895193E+01
 20
-1.59821026E+01
 11
-6.58895193E+01
 21
-1.54821026E+01
  0
LINE
  8
0
 62
6
 10
-6.56695193E+01
 20
-1.59821026E+01
 11
-6.56695193E+01
 21
-1.54821026E+01
  0
LINE
  8
0
 62
6
 10
-6.36195193E+01
 20
-1.59821026E+01
 11
-6.36195193E+01
 21
-1.54821026E+01
  0
LINE
  8
0
 62
4
 10
-6.33895193E+01
 20
-1.59821026E+01
 11
-6.33895193E+01
 21
-1.54821026E+01
  0
LINE
  8
0
 62
4
 10
-6.58895193E+01
 20
-1.59821026E+01
 11
-6.33895193E+01
 21
-1.59821026E+01
  0
LINE
  8
0
  6
CENTER
 62
6
 10
-6.46395193E+01
 20
-1.62821026E+01
 11
-6.46395193E+01
 21
-1.16321026E+01
  0
LINE
  8
0
  6
CENTER
 62
2
 10
3.93604807E+01
 20
1.19517882E+02
 11
3.93604807E+01
 21
-2.04821026E+01
  0
LINE
  8
0
  6
CENTER
 62
2
 10
1.38360481E+02
 20
8.51789739E+00
 11
1.22360481E+02
 21
8.51789739E+00
  0
LINE
  8
0
  6
CENTER
 62
2
 10
1.38360481E+02
 20
9.05178821E+01
 11
1.22360481E+02
 21
9.05178821E+01
  0
LINE
  8
0
  6
CENTER
 62
2
 10
1.30360465E+02
 20
9.85178974E+01
 11
1.30360465E+02
 21
8.25178974E+01
  0
LINE
  8
0
  6
CENTER
 62
2
 10
1.30360465E+02
 20
1.65178898E+01
 11
1.30360465E+02
 21
5.17889760E-01
  0
LINE
  8
0
  6
CENTER
 62
2
 10
-1.59639516E+02
 20
9.05178821E+01
 11
-1.43639516E+02
 21
9.05178821E+01
  0
LINE
  8
0
  6
CENTER
 62
2
 10
-1.51639516E+02
 20
9.85178974E+01
 11
-1.51639516E+02
 21
8.25178974E+01
  0
LINE
  8
0
  6
CENTER
 62
2
 10
-1.59639516E+02
 20
8.51789739E+00
 11
-1.43639516E+02
 21
8.51789739E+00
  0
LINE
  8
0
  6
CENTER
 62
2
 10
-1.51639516E+02
 20
1.65178898E+01
 11
-1.51639516E+02
 21
5.17889760E-01
  0
LINE
  8
0
 62
7
 10
-1.44639516E+02
 20
1.14517882E+02
 11
1.23360481E+02
 21
1.14517882E+02
  0
LINE
  8
0
 62
7
 10
-1.31639516E+02
 20
6.45178898E+01
 11
-1.25639517E+02
 21
6.45178898E+01
  0
LINE
  8
0
 62
7
 10
-1.44639516E+02
 20
6.45178898E+01
 11
-1.38639516E+02
 21
6.45178898E+01
  0
LINE
  8
0
 62
7
 10
-6.39526953E-01
 20
1.08517897E+02
 11
1.23360481E+02
 21
1.08517897E+02
  0
LINE
  8
0
 62
7
 10
1.23360481E+02
 20
5.12178943E+01
 11
-6.39526953E-01
 21
5.12178943E+01
  0
LINE
  8
0
 62
7
 10
1.37360481E+02
 20
1.08517897E+02
 11
1.37360481E+02
 21
-9.48210642E+00
  0
LINE
  8
0
 62
7
 10
-1.58639519E+02
 20
1.08517897E+02
 11
-1.58639519E+02
 21
-9.48210642E+00
  0
LINE
  8
0
 62
7
 10
-1.44639516E+02
 20
6.30178898E+01
 11
-1.38639516E+02
 21
6.30178898E+01
  0
LINE
  8
0
 62
7
 10
-1.20639517E+02
 20
5.12178943E+01
 11
-1.44639516E+02
 21
5.12178943E+01
  0
LINE
  8
0
 62
7
 10
-1.20639517E+02
 20
3.38178928E+01
 11
-1.44639516E+02
 21
3.38178928E+01
  0
LINE
  8
0
 62
7
 10
-1.44639516E+02
 20
1.14517882E+02
 11
-1.44639516E+02
 21
-1.54821026E+01
  0
LINE
  8
0
  6
CENTER
 62
2
 10
-6.06395193E+01
 20
1.19517882E+02
 11
-6.06395193E+01
 21
-2.04821026E+01
  0
LINE
  8
0
 62
7
 10
-1.20639517E+02
 20
1.13517897E+02
 11
-1.20639517E+02
 21
-1.44821064E+01
  0
LINE
  8
0
 62
7
 10
-6.39526953E-01
 20
1.13517897E+02
 11
-6.39526953E-01
 21
-1.44821064E+01
  0
LINE
  8
0
 62
7
 10
-1.41139516E+02
 20
8.06518543E+01
 11
-1.41139516E+02
 21
8.23839252E+01
  0
LINE
  8
0
 62
7
 10
-1.39639516E+02
 20
8.32499260E+01
 11
-1.41139521E+02
 21
8.23838982E+01
  0
LINE
  8
0
 62
7
 10
-1.38139516E+02
 20
8.06518543E+01
 11
-1.38139516E+02
 21
8.23839252E+01
  0
LINE
  8
0
 62
7
 10
-1.30639523E+02
 20
7.97858438E+01
 11
-1.32139527E+02
 21
8.06518716E+01
  0
LINE
  8
0
 62
7
 10
-1.38139516E+02
 20
8.06518499E+01
 11
-1.39639521E+02
 21
7.97858220E+01
  0
LINE
  8
0
 62
7
 10
-1.38139512E+02
 20
8.23839223E+01
 11
-1.39639523E+02
 21
8.32499540E+01
  0
LINE
  8
0
 62
2
 10
-1.36789509E+02
 20
7.25178974E+01
 11
-1.36789509E+02
 21
7.15178821E+01
  0
LINE
  8
0
 62
7
 10
-1.29139519E+02
 20
8.23839266E+01
 11
-1.30639524E+02
 21
8.32499544E+01
  0
LINE
  8
0
 62
7
 10
-1.29139511E+02
 20
8.06518532E+01
 11
-1.30639518E+02
 21
7.97858235E+01
  0
LINE
  8
0
 62
7
 10
-1.32139516E+02
 20
8.06518543E+01
 11
-1.32139516E+02
 21
8.23839252E+01
  0
LINE
  8
0
 62
7
 10
-1.29139516E+02
 20
8.06518543E+01
 11
-1.29139516E+02
 21
8.23839252E+01
  0
LINE
  8
0
 62
7
 10
-1.39639512E+02
 20
7.97858461E+01
 11
-1.41139523E+02
 21
8.06518778E+01
  0
LINE
  8
0
 62
7
 10
-1.30639511E+02
 20
8.32499294E+01
 11
-1.32139518E+02
 21
8.23838997E+01
  0
LINE
  8
0
 62
7
 10
-1.33139516E+02
 20
7.25178974E+01
 11
-1.33139516E+02
 21
7.15178821E+01
  0
LINE
  8
0
 62
2
 10
-1.33489522E+02
 20
7.25178974E+01
 11
-1.33489522E+02
 21
7.15178821E+01
  0
LINE
  8
0
 62
7
 10
-1.37139516E+02
 20
7.25178974E+01
 11
-1.37139516E+02
 21
7.15178821E+01
  0
LINE
  8
0
 62
7
 10
-1.38639516E+02
 20
6.50178974E+01
 11
-1.38639516E+02
 21
6.10178898E+01
  0
LINE
  8
0
 62
7
 10
-1.31639516E+02
 20
6.50178974E+01
 11
-1.31639516E+02
 21
6.10178898E+01
  0
LINE
  8
0
 62
7
 10
-1.25639517E+02
 20
7.25178974E+01
 11
-1.44639516E+02
 21
7.25178974E+01
  0
LINE
  8
0
 62
7
 10
-1.25639517E+02
 20
7.15178821E+01
 11
-1.44639516E+02
 21
7.15178821E+01
  0
LINE
  8
0
 62
7
 10
-1.25639517E+02
 20
6.50178974E+01
 11
-1.44639516E+02
 21
6.50178974E+01
  0
LINE
  8
0
 62
7
 10
-1.25639517E+02
 20
1.03017882E+02
 11
-1.25639517E+02
 21
6.45178898E+01
  0
LINE
  8
0
 62
7
 10
-1.20639517E+02
 20
7.70178821E+01
 11
-1.25639517E+02
 21
7.70178821E+01
  0
LINE
  8
0
 62
2
 10
-1.20639517E+02
 20
7.62678974E+01
 11
-1.25639517E+02
 21
7.62678974E+01
  0
LINE
  8
0
 62
2
 10
-1.20639517E+02
 20
6.77678821E+01
 11
-1.25639517E+02
 21
6.77678821E+01
  0
LINE
  8
0
 62
7
 10
-1.20639517E+02
 20
6.70178821E+01
 11
-1.25639517E+02
 21
6.70178821E+01
  0
LINE
  8
0
 62
7
 10
1.04360481E+02
 20
1.03017882E+02
 11
1.04360481E+02
 21
6.45178898E+01
  0
LINE
  8
0
 62
7
 10
1.23360481E+02
 20
2.20178898E+01
 11
-6.39526953E-01
 21
2.20178898E+01
  0
LINE
  8
0
 62
7
 10
-1.20639517E+02
 20
2.20178898E+01
 11
-1.44639516E+02
 21
2.20178898E+01
  0
LINE
  8
0
 62
7
 10
1.23360481E+02
 20
1.05017897E+02
 11
-6.39526953E-01
 21
1.05017897E+02
  0
LINE
  8
0
 62
7
 10
-1.25639517E+02
 20
1.00017897E+02
 11
-1.20639517E+02
 21
1.00017897E+02
  0
LINE
  8
0
 62
7
 10
-1.25639517E+02
 20
8.80178821E+01
 11
-1.20639517E+02
 21
8.80178821E+01
  0
LINE
  8
0
 62
7
 10
1.04360481E+02
 20
7.92678821E+01
 11
-6.39526953E-01
 21
7.92678821E+01
  0
LINE
  8
0
 62
7
 10
1.04360481E+02
 20
8.37678974E+01
 11
-6.39526953E-01
 21
8.37678974E+01
  0
LINE
  8
0
 62
7
 10
-6.39526953E-01
 20
1.00017897E+02
 11
1.04360481E+02
 21
1.00017897E+02
  0
LINE
  8
0
 62
7
 10
-6.39526953E-01
 20
8.80178821E+01
 11
1.04360481E+02
 21
8.80178821E+01
  0
LINE
  8
0
 62
7
 10
-1.44639516E+02
 20
1.03017882E+02
 11
-1.25639517E+02
 21
1.03017882E+02
  0
LINE
  8
0
 62
7
 10
-1.44639516E+02
 20
1.08517897E+02
 11
-1.20639517E+02
 21
1.08517897E+02
  0
LINE
  8
0
 62
7
 10
-1.44639516E+02
 20
1.05017897E+02
 11
-1.20639517E+02
 21
1.05017897E+02
  0
LINE
  8
0
 62
7
 10
-1.25639517E+02
 20
8.70178821E+01
 11
-1.20639517E+02
 21
8.70178821E+01
  0
LINE
  8
0
 62
7
 10
-6.39526953E-01
 20
8.70178821E+01
 11
1.04360481E+02
 21
8.70178821E+01
  0
LINE
  8
0
 62
7
 10
-1.20639517E+02
 20
8.37678974E+01
 11
-1.25639517E+02
 21
8.37678974E+01
  0
LINE
  8
0
 62
7
 10
-1.20639517E+02
 20
7.92678821E+01
 11
-1.25639517E+02
 21
7.92678821E+01
  0
LINE
  8
0
 62
7
 10
-6.39526953E-01
 20
-9.82106425E-01
 11
1.22360481E+02
 21
-9.82106425E-01
  0
LINE
  8
0
 62
7
 10
-6.39526953E-01
 20
1.10178974E+01
 11
1.22360481E+02
 21
1.10178974E+01
  0
LINE
  8
0
 62
7
 10
-1.43639516E+02
 20
1.10178974E+01
 11
-1.20639517E+02
 21
1.10178974E+01
  0
LINE
  8
0
 62
7
 10
-1.43639516E+02
 20
-9.82106425E-01
 11
-1.20639517E+02
 21
-9.82106425E-01
  0
LINE
  8
0
 62
7
 10
-1.43639516E+02
 20
-9.82106425E-01
 11
-1.43639516E+02
 21
1.10178974E+01
  0
LINE
  8
0
 62
7
 10
1.22360481E+02
 20
1.10178974E+01
 11
1.22360481E+02
 21
-9.82106425E-01
  0
LINE
  8
0
 62
7
 10
-1.44639516E+02
 20
-1.54821026E+01
 11
1.23360481E+02
 21
-1.54821026E+01
  0
LINE
  8
0
 62
7
 10
-1.44639516E+02
 20
-9.48210642E+00
 11
-1.20639517E+02
 21
-9.48210642E+00
  0
LINE
  8
0
 62
7
 10
-6.39526953E-01
 20
-5.98210642E+00
 11
1.23360481E+02
 21
-5.98210642E+00
  0
LINE
  8
0
 62
7
 10
-1.44639516E+02
 20
-5.98210642E+00
 11
-1.20639517E+02
 21
-5.98210642E+00
  0
LINE
  8
0
 62
7
 10
-6.39526953E-01
 20
-9.48210642E+00
 11
1.23360481E+02
 21
-9.48210642E+00
  0
LINE
  8
0
 62
7
 10
-1.43639516E+02
 20
6.71789434E+00
 11
-1.44639516E+02
 21
6.71789434E+00
  0
LINE
  8
0
 62
7
 10
-1.43639516E+02
 20
3.31789281E+00
 11
-1.44639516E+02
 21
3.31789281E+00
  0
LINE
  8
0
 62
7
 10
1.23360481E+02
 20
3.31789281E+00
 11
1.22360481E+02
 21
3.31789281E+00
  0
LINE
  8
0
 62
7
 10
1.23360481E+02
 20
6.71789434E+00
 11
1.22360481E+02
 21
6.71789434E+00
  0
LINE
  8
0
 62
7
 10
7.68604807E+01
 20
6.70178821E+01
 11
1.04360481E+02
 21
6.70178821E+01
  0
LINE
  8
0
 62
2
 10
7.68604807E+01
 20
6.77678821E+01
 11
1.04360481E+02
 21
6.77678821E+01
  0
LINE
  8
0
 62
2
 10
7.68604807E+01
 20
7.62678974E+01
 11
1.04360481E+02
 21
7.62678974E+01
  0
LINE
  8
0
 62
7
 10
7.68604807E+01
 20
7.70178821E+01
 11
1.04360481E+02
 21
7.70178821E+01
  0
LINE
  8
0
 62
7
 10
1.04360481E+02
 20
6.50178974E+01
 11
1.23360481E+02
 21
6.50178974E+01
  0
LINE
  8
0
 62
7
 10
1.04360481E+02
 20
7.15178821E+01
 11
1.23360481E+02
 21
7.15178821E+01
  0
LINE
  8
0
 62
7
 10
1.04360481E+02
 20
7.25178974E+01
 11
1.23360481E+02
 21
7.25178974E+01
  0
LINE
  8
0
 62
7
 10
1.10360481E+02
 20
6.50178974E+01
 11
1.10360481E+02
 21
6.10178898E+01
  0
LINE
  8
0
 62
7
 10
1.17360481E+02
 20
6.50178974E+01
 11
1.17360481E+02
 21
6.10178898E+01
  0
LINE
  8
0
 62
7
 10
1.15860481E+02
 20
7.25178974E+01
 11
1.15860481E+02
 21
7.15178821E+01
  0
LINE
  8
0
 62
2
 10
1.12210487E+02
 20
7.25178974E+01
 11
1.12210487E+02
 21
7.15178821E+01
  0
LINE
  8
0
 62
7
 10
1.11860481E+02
 20
7.25178974E+01
 11
1.11860481E+02
 21
7.15178821E+01
  0
LINE
  8
0
 62
7
 10
1.09360460E+02
 20
8.32499165E+01
 11
1.10860464E+02
 21
8.23838887E+01
  0
LINE
  8
0
 62
7
 10
1.18360466E+02
 20
7.97858576E+01
 11
1.19860470E+02
 21
8.06518854E+01
  0
LINE
  8
0
 62
7
 10
1.07860481E+02
 20
8.06518543E+01
 11
1.07860481E+02
 21
8.23839252E+01
  0
LINE
  8
0
 62
7
 10
1.10860481E+02
 20
8.06518543E+01
 11
1.10860481E+02
 21
8.23839252E+01
  0
LINE
  8
0
 62
7
 10
1.07860475E+02
 20
8.06518668E+01
 11
1.09360479E+02
 21
7.97858390E+01
  0
LINE
  8
0
 62
7
 10
1.07860476E+02
 20
8.23839347E+01
 11
1.09360480E+02
 21
8.32499626E+01
  0
LINE
  8
0
 62
2
 10
1.15510475E+02
 20
7.25178974E+01
 11
1.15510475E+02
 21
7.15178821E+01
  0
LINE
  8
0
 62
7
 10
1.16860467E+02
 20
8.23839321E+01
 11
1.18360471E+02
 21
8.32499599E+01
  0
LINE
  8
0
 62
7
 10
1.16860473E+02
 20
8.06518502E+01
 11
1.18360477E+02
 21
7.97858224E+01
  0
LINE
  8
0
 62
7
 10
1.09360476E+02
 20
7.97858586E+01
 11
1.10860480E+02
 21
8.06518864E+01
  0
LINE
  8
0
 62
7
 10
1.16860481E+02
 20
8.06518543E+01
 11
1.16860481E+02
 21
8.23839252E+01
  0
LINE
  8
0
 62
7
 10
1.18360481E+02
 20
8.32499396E+01
 11
1.19860485E+02
 21
8.23839118E+01
  0
LINE
  8
0
 62
7
 10
1.19860481E+02
 20
8.06518543E+01
 11
1.19860481E+02
 21
8.23839252E+01
  0
LINE
  8
0
 62
7
 10
1.10360481E+02
 20
6.45178898E+01
 11
1.04360481E+02
 21
6.45178898E+01
  0
LINE
  8
0
 62
7
 10
1.23360481E+02
 20
1.03017882E+02
 11
1.04360481E+02
 21
1.03017882E+02
  0
LINE
  8
0
 62
7
 10
1.23360481E+02
 20
6.45178898E+01
 11
1.17360481E+02
 21
6.45178898E+01
  0
LINE
  8
0
 62
7
 10
6.38604807E+01
 20
7.05178821E+01
 11
7.33604807E+01
 21
7.05178821E+01
  0
LINE
  8
0
 62
7
 10
6.33604807E+01
 20
7.30178821E+01
 11
6.33604807E+01
 21
7.10178974E+01
  0
LINE
  8
0
  6
CENTER
 62
2
 10
5.83604807E+01
 20
7.20178821E+01
 11
1.39860481E+02
 21
7.20178821E+01
  0
LINE
  8
0
 62
7
 10
7.68604807E+01
 20
7.70178821E+01
 11
7.68604807E+01
 21
6.70178821E+01
  0
LINE
  8
0
 62
7
 10
6.38604807E+01
 20
7.35178974E+01
 11
7.33604807E+01
 21
7.35178974E+01
  0
LINE
  8
0
 62
7
 10
7.33604807E+01
 20
7.62678974E+01
 11
7.68604807E+01
 21
7.62678974E+01
  0
LINE
  8
0
 62
7
 10
7.33604807E+01
 20
6.77678821E+01
 11
7.68604807E+01
 21
6.77678821E+01
  0
LINE
  8
0
 62
7
 10
7.33604807E+01
 20
7.62678974E+01
 11
7.33604807E+01
 21
6.77678821E+01
  0
LINE
  8
0
 62
7
 10
6.38604857E+01
 20
7.35178973E+01
 11
6.33604960E+01
 21
7.30179076E+01
  0
LINE
  8
0
 62
7
 10
6.33604912E+01
 20
7.10179102E+01
 11
6.38604911E+01
 21
7.05179103E+01
  0
LINE
  8
0
 62
7
 10
1.17360481E+02
 20
6.30178898E+01
 11
1.23360481E+02
 21
6.30178898E+01
  0
LINE
  8
0
 62
7
 10
-6.39526953E-01
 20
6.30178898E+01
 11
1.10360481E+02
 21
6.30178898E+01
  0
LINE
  8
0
 62
7
 10
1.10360481E+02
 20
6.10178898E+01
 11
1.17360481E+02
 21
6.10178898E+01
  0
LINE
  8
0
 62
7
 10
-1.31639516E+02
 20
6.10178898E+01
 11
-1.38639516E+02
 21
6.10178898E+01
  0
LINE
  8
0
 62
7
 10
-1.31639516E+02
 20
6.30178898E+01
 11
-1.20639517E+02
 21
6.30178898E+01
  0
LINE
  8
0
 62
7
 10
-1.44639516E+02
 20
7.75178974E+01
 11
-1.25639517E+02
 21
7.75178974E+01
  0
LINE
  8
0
 62
7
 10
1.23360481E+02
 20
7.75178974E+01
 11
1.04360481E+02
 21
7.75178974E+01
  0
LINE
  8
0
 62
7
 10
1.23360481E+02
 20
1.14517882E+02
 11
1.23360481E+02
 21
-1.54821026E+01
  0
LINE
  8
0
 62
7
 10
-1.58639519E+02
 20
-9.48210642E+00
 11
-1.44639516E+02
 21
-9.48210642E+00
  0
LINE
  8
0
 62
7
 10
-1.58639519E+02
 20
1.08517897E+02
 11
-1.44639516E+02
 21
1.08517897E+02
  0
LINE
  8
0
 62
7
 10
-1.20639517E+02
 20
1.13517897E+02
 11
-6.39526953E-01
 21
1.13517897E+02
  0
LINE
  8
0
 62
7
 10
-1.20639517E+02
 20
-1.44821064E+01
 11
-6.39526953E-01
 21
-1.44821064E+01
  0
LINE
  8
0
  6
CENTER
 62
2
 10
-1.06395270E+01
 20
9.95178821E+01
 11
-1.06395270E+01
 21
8.95178821E+01
  0
LINE
  8
0
  6
CENTER
 62
2
 10
-1.15639517E+02
 20
9.45178821E+01
 11
-5.63952695E+00
 21
9.45178821E+01
  0
LINE
  8
0
  6
CENTER
 62
2
 10
-1.10639518E+02
 20
9.95178821E+01
 11
-1.10639518E+02
 21
8.95178821E+01
  0
LINE
  8
0
  6
CENTER
 62
2
 10
-1.06395270E+01
 20
9.51788976E+00
 11
-1.06395270E+01
 21
-4.82106425E-01
  0
LINE
  8
0
  6
CENTER
 62
2
 10
-1.10639518E+02
 20
9.51788976E+00
 11
-1.10639518E+02
 21
-4.82106425E-01
  0
LINE
  8
0
  6
CENTER
 62
2
 10
-1.15639517E+02
 20
4.51788976E+00
 11
-5.63952695E+00
 21
4.51788976E+00
  0
LINE
  8
0
 62
7
 10
-1.20639517E+02
 20
1.00178745E+01
 11
-6.39526953E-01
 21
1.00178745E+01
  0
LINE
  8
0
 62
7
 10
-1.20639517E+02
 20
8.90179126E+01
 11
-6.39526953E-01
 21
8.90179126E+01
  0
LINE
  8
0
 62
7
 10
1.23360481E+02
 20
1.08517897E+02
 11
1.37360481E+02
 21
1.08517897E+02
  0
LINE
  8
0
 62
7
 10
1.23360481E+02
 20
-9.48210642E+00
 11
1.37360481E+02
 21
-9.48210642E+00
  0
LINE
  8
0
 62
7
 10
1.23360481E+02
 20
3.38178928E+01
 11
-6.39526953E-01
 21
3.38178928E+01
  0
LINE
  8
0
 62
7
 10
-6.39526953E-01
 20
1.20178898E+01
 11
1.23360481E+02
 21
1.20178898E+01
  0
LINE
  8
0
 62
7
 10
-1.44639516E+02
 20
1.20178898E+01
 11
-1.20639517E+02
 21
1.20178898E+01
  0
CIRCLE
  8
0
 62
4
 10
-1.06395270E+01
 20
9.45178821E+01
 40
2.09999990E+00
  0
CIRCLE
  8
0
 62
6
 10
-1.06395270E+01
 20
9.45178821E+01
 40
2.50000000E+00
  0
CIRCLE
  8
0
 62
7
 10
-1.39639516E+02
 20
8.15178821E+01
 40
3.49999976E+00
  0
CIRCLE
  8
0
 62
7
 10
-1.30639516E+02
 20
8.15178821E+01
 40
3.49999976E+00
  0
CIRCLE
  8
0
 62
7
 10
-1.51639516E+02
 20
8.51789739E+00
 40
5.49999952E+00
  0
CIRCLE
  8
0
 62
7
 10
-1.51639516E+02
 20
9.05178821E+01
 40
5.49999952E+00
  0
CIRCLE
  8
0
 62
7
 10
-1.51639516E+02
 20
9.05178821E+01
 40
3.29999995E+00
  0
CIRCLE
  8
0
 62
7
 10
-1.51639516E+02
 20
8.51789739E+00
 40
3.29999995E+00
  0
CIRCLE
  8
0
 62
7
 10
1.30360465E+02
 20
8.51789739E+00
 40
3.29999995E+00
  0
CIRCLE
  8
0
 62
7
 10
1.30360465E+02
 20
9.05178821E+01
 40
3.29999995E+00
  0
CIRCLE
  8
0
 62
7
 10
1.30360465E+02
 20
9.05178821E+01
 40
5.49999952E+00
  0
CIRCLE
  8
0
 62
7
 10
1.30360465E+02
 20
8.51789739E+00
 40
5.49999952E+00
  0
CIRCLE
  8
0
 62
4
 10
-1.10639518E+02
 20
9.45178821E+01
 40
2.09999990E+00
  0
CIRCLE
  8
0
 62
6
 10
-1.10639518E+02
 20
9.45178821E+01
 40
2.50000000E+00
  0
CIRCLE
  8
0
 62
4
 10
-1.06395270E+01
 20
4.51788976E+00
 40
2.09999990E+00
  0
CIRCLE
  8
0
 62
6
 10
-1.06395270E+01
 20
4.51788976E+00
 40
2.50000000E+00
  0
CIRCLE
  8
0
 62
6
 10
-1.10639518E+02
 20
4.51788976E+00
 40
2.50000000E+00
  0
CIRCLE
  8
0
 62
4
 10
-1.10639518E+02
 20
4.51788976E+00
 40
2.09999990E+00
  0
CIRCLE
  8
0
 62
7
 10
1.18360481E+02
 20
8.15178821E+01
 40
3.49999976E+00
  0
CIRCLE
  8
0
 62
7
 10
1.09360481E+02
 20
8.15178821E+01
 40
3.49999976E+00
  0
LINE
  8
0
 62
4
 10
-5.81395193E+01
 20
9.55178821E+01
 11
-5.81395193E+01
 21
9.35178821E+01
  0
LINE
  8
0
 62
4
 10
-6.31395193E+01
 20
9.55178821E+01
 11
-6.31395193E+01
 21
9.35178821E+01
  0
LINE
  8
0
  6
CENTER
 62
2
 10
-6.57017740E+01
 20
9.55178821E+01
 11
-5.59345668E+01
 21
9.55178821E+01
  0
LINE
  8
0
  6
CENTER
 62
2
 10
-6.57017740E+01
 20
9.35178821E+01
 11
-5.59345668E+01
 21
9.35178821E+01
  0
ARC
  8
0
 62
4
 10
-6.06395193E+01
 20
9.55178821E+01
 40
2.50000000E+00
 50
0.00000000E+00
 51
1.80000000E+02
  0
ARC
  8
0
 62
4
 10
-6.06395193E+01
 20
9.35178821E+01
 40
2.50000000E+00
 50
1.80000000E+02
 51
0.00000000E+00
  0
CIRCLE
  8
0
 62
4
 10
-6.06395193E+01
 20
4.51788976E+00
 40
2.50000000E+00
  0
LINE
  8
0
 62
7
 10
6.38604857E+01
 20
7.35178974E+01
 11
6.38604857E+01
 21
7.05178821E+01
  0
ARC
  8
0
 62
4
 10
-2.27264404E+02
 20
-1.30821030E+01
 40
1.30000000E+00
 50
2.40000000E+02
 51
2.70000000E+02
  0
ARC
  8
0
 62
4
 10
-2.29346734E+02
 20
-1.48820904E+01
 40
1.30000000E+00
 50
5.99999994E+01
 51
9.00000002E+01
  0
ARC
  8
0
 62
4
 10
-2.28650066E+02
 20
-1.22820904E+01
 40
1.30000000E+00
 50
5.99999994E+01
 51
9.00000002E+01
  0
ARC
  8
0
 62
4
 10
-2.26567736E+02
 20
-1.04821030E+01
 40
1.30000000E+00
 50
2.40000000E+02
 51
2.70000000E+02
  0
LINE
  8
0
 62
4
 10
-2.27217736E+02
 20
-1.16079360E+01
 11
-2.28000066E+02
 21
-1.11562574E+01
  0
LINE
  8
0
 62
4
 10
-2.27914404E+02
 20
-1.42079360E+01
 11
-2.28696734E+02
 21
-1.37562574E+01
  0
LINE
  8
0
 62
4
 10
-2.26089526E+02
 20
-1.43821030E+01
 11
-2.27264404E+02
 21
-1.43821030E+01
  0
LINE
  8
0
 62
4
 10
-2.25736579E+02
 20
-1.17821030E+01
 11
-2.26567736E+02
 21
-1.17821030E+01
  0
LINE
  8
0
 62
4
 10
-2.29346734E+02
 20
-1.35820904E+01
 11
-2.30639532E+02
 21
-1.35820904E+01
  0
LINE
  8
0
 62
4
 10
-2.28650066E+02
 20
-1.09820904E+01
 11
-2.30639532E+02
 21
-1.09820904E+01
  0
CIRCLE
  8
0
 62
4
 10
-2.30639532E+02
 20
-1.22820904E+01
 40
1.30000000E+00
  0
ARC
  8
0
 62
4
 10
-2.24039524E+02
 20
-1.29321087E+01
 40
2.05000229E+00
 50
9.00000002E+01
 51
1.79999936E+02
  0
ARC
  8
0
 62
4
 10
-2.24039528E+02
 20
-1.29321087E+01
 40
2.05000229E+00
 50
6.39705167E-05
 51
9.00000002E+01
  0
LINE
  8
0
 62
4
 10
-2.22789526E+02
 20
-1.59821064E+01
 11
-2.25289526E+02
 21
-1.59821064E+01
  0
LINE
  8
0
 62
4
 10
-2.25289526E+02
 20
-1.59821064E+01
 11
-2.25289526E+02
 21
-1.54821064E+01
  0
LINE
  8
0
 62
6
 10
-2.25059526E+02
 20
-1.59821064E+01
 11
-2.25059526E+02
 21
-1.54821064E+01
  0
LINE
  8
0
 62
6
 10
-2.23019526E+02
 20
-1.59821064E+01
 11
-2.23019526E+02
 21
-1.54821064E+01
  0
LINE
  8
0
 62
4
 10
-2.22789526E+02
 20
-1.59821064E+01
 11
-2.22789526E+02
 21
-1.54821064E+01
  0
LINE
  8
0
 62
4
 10
-2.22789526E+02
 20
-1.17121064E+01
 11
-2.25289526E+02
 21
-1.17121064E+01
  0
LINE
  8
0
 62
4
 10
-2.25289526E+02
 20
-1.28921064E+01
 11
-2.25289526E+02
 21
-1.17121064E+01
  0
LINE
  8
0
 62
6
 10
-2.25059526E+02
 20
-1.28921064E+01
 11
-2.25059526E+02
 21
-1.14821064E+01
  0
LINE
  8
0
 62
6
 10
-2.23019526E+02
 20
-1.28921064E+01
 11
-2.23019526E+02
 21
-1.14821064E+01
  0
LINE
  8
0
 62
4
 10
-2.22789526E+02
 20
-1.28921064E+01
 11
-2.22789526E+02
 21
-1.17121064E+01
  0
LINE
  8
0
 62
4
 10
-2.23019526E+02
 20
-1.14821064E+01
 11
-2.22789526E+02
 21
-1.17121064E+01
  0
LINE
  8
0
 62
4
 10
-2.25059526E+02
 20
-1.14821064E+01
 11
-2.25289526E+02
 21
-1.17121064E+01
  0
LINE
  8
0
 62
4
 10
-2.23019526E+02
 20
-1.14821064E+01
 11
-2.25059526E+02
 21
-1.14821064E+01
  0
LINE
  8
0
 62
4
 10
-2.21989526E+02
 20
-1.28921064E+01
 11
-2.26089526E+02
 21
-1.28921064E+01
  0
LINE
  8
0
 62
4
 10
-2.21989526E+02
 20
-1.36821064E+01
 11
-2.26089526E+02
 21
-1.36821064E+01
  0
LINE
  8
0
 62
4
 10
-2.26089526E+02
 20
-1.44821064E+01
 11
-2.26089526E+02
 21
-1.29321064E+01
  0
LINE
  8
0
 62
4
 10
-2.26089526E+02
 20
-1.44821064E+01
 11
-2.25539526E+02
 21
-1.50321064E+01
  0
LINE
  8
0
 62
4
 10
-2.25539526E+02
 20
-1.54821064E+01
 11
-2.25539526E+02
 21
-1.50321064E+01
  0
LINE
  8
0
 62
4
 10
-2.22539526E+02
 20
-1.54821064E+01
 11
-2.25539526E+02
 21
-1.54821064E+01
  0
LINE
  8
0
 62
4
 10
-2.22539526E+02
 20
-1.54821064E+01
 11
-2.22539526E+02
 21
-1.50321064E+01
  0
LINE
  8
0
 62
4
 10
-2.21989526E+02
 20
-1.44821064E+01
 11
-2.22539526E+02
 21
-1.50321064E+01
  0
LINE
  8
0
 62
4
 10
-2.21989526E+02
 20
-1.44821064E+01
 11
-2.21989526E+02
 21
-1.29321064E+01
  0
LINE
  8
0
  6
CENTER
 62
6
 10
-2.24039526E+02
 20
-1.75321064E+01
 11
-2.24039526E+02
 21
-1.05621064E+01
  0
LINE
  8
0
  6
CENTER
 62
2
 10
-2.65639517E+02
 20
8.51789739E+00
 11
-2.53639517E+02
 21
8.51789739E+00
  0
LINE
  8
0
  6
CENTER
 62
2
 10
-2.65639517E+02
 20
9.05178821E+01
 11
-2.53639517E+02
 21
9.05178821E+01
  0
LINE
  8
0
 62
7
 10
-2.06639517E+02
 20
1.00178974E+01
 11
-2.06639517E+02
 21
-1.44821026E+01
  0
LINE
  8
0
 62
7
 10
-2.07639502E+02
 20
8.80178821E+01
 11
-2.07639502E+02
 21
1.10178974E+01
  0
LINE
  8
0
 62
7
 10
-2.06639530E+02
 20
8.90178905E+01
 11
-2.07639520E+02
 21
8.80179004E+01
  0
LINE
  8
0
 62
7
 10
-2.06639517E+02
 20
1.13517897E+02
 11
-2.06639517E+02
 21
8.90178974E+01
  0
LINE
  8
0
 62
7
 10
-2.59639517E+02
 20
-9.48210261E+00
 11
-2.59639517E+02
 21
1.08517897E+02
  0
LINE
  8
0
 62
7
 10
-2.07639507E+02
 20
1.10178746E+01
 11
-2.06639517E+02
 21
1.00178843E+01
  0
LINE
  8
0
 62
7
 10
-2.18639502E+02
 20
1.08517897E+02
 11
-2.18639502E+02
 21
1.13517897E+02
  0
LINE
  8
0
 62
7
 10
-2.18639502E+02
 20
-9.48210261E+00
 11
-2.18639502E+02
 21
-1.44821026E+01
  0
LINE
  8
0
  6
CENTER
 62
2
 10
-2.30639502E+02
 20
4.75178974E+01
 11
-2.30639502E+02
 21
3.75178974E+01
  0
LINE
  8
0
  6
CENTER
 62
2
 10
-2.43639502E+02
 20
1.65178898E+01
 11
-2.33639502E+02
 21
1.65178898E+01
  0
LINE
  8
0
  6
CENTER
 62
2
 10
-2.35639502E+02
 20
4.25178974E+01
 11
-2.25639502E+02
 21
4.25178974E+01
  0
LINE
  8
0
 62
7
 10
-2.08639502E+02
 20
1.08517897E+02
 11
-2.59639517E+02
 21
1.08517897E+02
  0
LINE
  8
0
 62
7
 10
-2.08639502E+02
 20
-9.48210261E+00
 11
-2.59639517E+02
 21
-9.48210261E+00
  0
LINE
  8
0
 62
7
 10
-2.27639523E+02
 20
-1.44821105E+01
 11
-2.29025142E+02
 21
-1.36821227E+01
  0
LINE
  8
0
 62
7
 10
-2.28274893E+02
 20
-1.08820965E+01
 11
-2.30639532E+02
 21
-1.08820965E+01
  0
LINE
  8
0
 62
7
 10
-2.33339514E+02
 20
-1.09820988E+01
 11
-2.33339514E+02
 21
-1.24821026E+01
  0
LINE
  8
0
 62
7
 10
-2.20639532E+02
 20
-1.54821064E+01
 11
-2.22439520E+02
 21
-1.54821064E+01
  0
LINE
  8
0
 62
7
 10
-2.21939503E+02
 20
-1.44820851E+01
 11
-2.22439508E+02
 21
-1.49820910E+01
  0
LINE
  8
0
 62
7
 10
-2.20639532E+02
 20
-1.29821064E+01
 11
-2.20639532E+02
 21
-1.54821064E+01
  0
LINE
  8
0
 62
7
 10
-2.26139497E+02
 20
-1.44821013E+01
 11
-2.25639508E+02
 21
-1.49820910E+01
  0
LINE
  8
0
 62
7
 10
-2.26139532E+02
 20
-1.44821026E+01
 11
-2.27639517E+02
 21
-1.44821026E+01
  0
LINE
  8
0
 62
7
 10
-2.25762884E+02
 20
-1.16821034E+01
 11
-2.26889273E+02
 21
-1.16821034E+01
  0
LINE
  8
0
 62
7
 10
-2.21939505E+02
 20
-1.44821026E+01
 11
-2.21939505E+02
 21
-1.28821003E+01
  0
LINE
  8
0
 62
7
 10
-2.26889265E+02
 20
-1.16821070E+01
 11
-2.28274898E+02
 21
-1.08821116E+01
  0
LINE
  8
0
 62
7
 10
-2.25639532E+02
 20
-1.54821064E+01
 11
-2.27907461E+02
 21
-1.54821064E+01
  0
LINE
  8
0
 62
7
 10
-2.25639532E+02
 20
-1.49821026E+01
 11
-2.25639532E+02
 21
-1.54821064E+01
  0
LINE
  8
0
 62
7
 10
-2.22439520E+02
 20
-1.49821026E+01
 11
-2.22439520E+02
 21
-1.54821064E+01
  0
LINE
  8
0
 62
7
 10
-2.27907476E+02
 20
-1.54821080E+01
 11
-2.28773502E+02
 21
-1.49821080E+01
  0
LINE
  8
0
 62
7
 10
-2.29025152E+02
 20
-1.36821034E+01
 11
-2.30639532E+02
 21
-1.36821034E+01
  0
LINE
  8
0
 62
7
 10
-2.28773504E+02
 20
-1.49821026E+01
 11
-2.30839514E+02
 21
-1.49821026E+01
  0
LINE
  8
0
 62
7
 10
-2.25639532E+02
 20
1.14517882E+02
 11
-2.27907461E+02
 21
1.14517882E+02
  0
LINE
  8
0
 62
7
 10
-2.22439520E+02
 20
1.14017897E+02
 11
-2.22439520E+02
 21
1.14517882E+02
  0
LINE
  8
0
 62
7
 10
-2.20639532E+02
 20
1.14517882E+02
 11
-2.22439520E+02
 21
1.14517882E+02
  0
LINE
  8
0
 62
7
 10
-2.27639509E+02
 20
1.13517860E+02
 11
-2.29025142E+02
 21
1.12717864E+02
  0
LINE
  8
0
 62
7
 10
-2.26889259E+02
 20
1.10717870E+02
 11
-2.28274905E+02
 21
1.09917867E+02
  0
LINE
  8
0
 62
7
 10
-2.26139532E+02
 20
1.13517897E+02
 11
-2.27639517E+02
 21
1.13517897E+02
  0
LINE
  8
0
 62
7
 10
-2.21939505E+02
 20
1.13517897E+02
 11
-2.21939505E+02
 21
1.11917876E+02
  0
LINE
  8
0
 62
7
 10
-2.25762884E+02
 20
1.10717894E+02
 11
-2.26889273E+02
 21
1.10717894E+02
  0
LINE
  8
0
 62
7
 10
-2.26139497E+02
 20
1.13517840E+02
 11
-2.25639496E+02
 21
1.14017841E+02
  0
LINE
  8
0
 62
7
 10
-2.20639532E+02
 20
1.12017882E+02
 11
-2.20639532E+02
 21
1.14517882E+02
  0
LINE
  8
0
 62
7
 10
-2.28274893E+02
 20
1.09917891E+02
 11
-2.30639532E+02
 21
1.09917891E+02
  0
LINE
  8
0
 62
7
 10
-2.33339514E+02
 20
1.10017897E+02
 11
-2.33339514E+02
 21
1.11517897E+02
  0
LINE
  8
0
 62
7
 10
-2.25639532E+02
 20
1.14017897E+02
 11
-2.25639532E+02
 21
1.14517882E+02
  0
LINE
  8
0
 62
7
 10
-2.21939507E+02
 20
1.13517852E+02
 11
-2.22439508E+02
 21
1.14017852E+02
  0
LINE
  8
0
 62
7
 10
-2.27907462E+02
 20
1.14517857E+02
 11
-2.28773501E+02
 21
1.14017850E+02
  0
LINE
  8
0
 62
7
 10
-2.29025152E+02
 20
1.12717879E+02
 11
-2.30639532E+02
 21
1.12717879E+02
  0
LINE
  8
0
 62
7
 10
-2.28773504E+02
 20
1.14017897E+02
 11
-2.30839514E+02
 21
1.14017897E+02
  0
LINE
  8
0
 62
7
 10
-2.08639502E+02
 20
1.08517897E+02
 11
-2.08639502E+02
 21
-9.48210261E+00
  0
LINE
  8
0
  6
CENTER
 62
2
 10
-2.38639502E+02
 20
2.15178898E+01
 11
-2.38639502E+02
 21
1.15178898E+01
  0
LINE
  8
0
 62
7
 10
-2.43389517E+02
 20
-9.48210261E+00
 11
-2.43389517E+02
 21
-1.04821064E+01
  0
LINE
  8
0
 62
7
 10
-2.49889502E+02
 20
-9.48210261E+00
 11
-2.49889502E+02
 21
-1.04821064E+01
  0
LINE
  8
0
 62
7
 10
-2.37139517E+02
 20
-1.04821064E+01
 11
-2.43389517E+02
 21
-1.04821064E+01
  0
LINE
  8
0
 62
7
 10
-2.49889502E+02
 20
-1.04821064E+01
 11
-2.59139502E+02
 21
-1.04821064E+01
  0
LINE
  8
0
 62
7
 10
-2.34339514E+02
 20
-9.98209498E+00
 11
-2.36139502E+02
 21
-9.98209498E+00
  0
LINE
  8
0
 62
7
 10
-2.59139502E+02
 20
-1.04821064E+01
 11
-2.59139502E+02
 21
-9.48210261E+00
  0
LINE
  8
0
 62
7
 10
-2.37139517E+02
 20
-1.04821064E+01
 11
-2.37139517E+02
 21
-9.48210261E+00
  0
LINE
  8
0
 62
7
 10
-2.37139517E+02
 20
1.09517882E+02
 11
-2.43389517E+02
 21
1.09517882E+02
  0
LINE
  8
0
 62
7
 10
-2.49889502E+02
 20
1.09517882E+02
 11
-2.59139502E+02
 21
1.09517882E+02
  0
LINE
  8
0
 62
7
 10
-2.49889502E+02
 20
1.08517897E+02
 11
-2.49889502E+02
 21
1.09517882E+02
  0
LINE
  8
0
 62
7
 10
-2.34339514E+02
 20
1.09017897E+02
 11
-2.36139502E+02
 21
1.09017897E+02
  0
LINE
  8
0
 62
7
 10
-2.59139502E+02
 20
1.09517882E+02
 11
-2.59139502E+02
 21
1.08517897E+02
  0
LINE
  8
0
 62
7
 10
-2.37139517E+02
 20
1.09517882E+02
 11
-2.37139517E+02
 21
1.08517897E+02
  0
LINE
  8
0
 62
7
 10
-2.43389517E+02
 20
1.08517897E+02
 11
-2.43389517E+02
 21
1.09517882E+02
  0
LINE
  8
0
 62
7
 10
-2.06639517E+02
 20
1.13517897E+02
 11
-2.18639502E+02
 21
1.13517897E+02
  0
LINE
  8
0
 62
7
 10
-2.06639517E+02
 20
-1.44821026E+01
 11
-2.18639502E+02
 21
-1.44821026E+01
  0
LINE
  8
0
 62
7
 10
-2.20489508E+02
 20
7.69754627E+01
 11
-2.20489508E+02
 21
6.70603168E+01
  0
LINE
  8
0
 62
7
 10
-2.21789511E+02
 20
7.69754627E+01
 11
-2.21789511E+02
 21
6.70603168E+01
  0
CIRCLE
  8
0
 62
7
 10
-2.38639502E+02
 20
1.65178898E+01
 40
2.09999990E+00
  0
CIRCLE
  8
0
 62
2
 10
-2.38639502E+02
 20
1.65178898E+01
 40
2.50000000E+00
  0
ARC
  8
0
 62
7
 10
-2.24039511E+02
 20
-1.28821003E+01
 40
2.09999990E+00
 50
2.50447806E-06
 51
1.45150057E+02
  0
ARC
  8
0
 62
7
 10
-2.30639532E+02
 20
-1.22820904E+01
 40
1.39999986E+00
 50
9.00000002E+01
 51
2.70000000E+02
  0
ARC
  8
0
 62
7
 10
-2.24139517E+02
 20
-1.29821064E+01
 40
3.49999976E+00
 50
2.50447806E-06
 51
9.00000002E+01
  0
ARC
  8
0
 62
7
 10
-2.30839514E+02
 20
-1.24821026E+01
 40
2.50000000E+00
 50
1.79999991E+02
 51
2.70000000E+02
  0
ARC
  8
0
 62
7
 10
-2.24039511E+02
 20
1.11917876E+02
 40
2.09999990E+00
 50
2.14849942E+02
 51
3.59999996E+02
  0
ARC
  8
0
 62
7
 10
-2.30639532E+02
 20
1.11317885E+02
 40
1.39999986E+00
 50
9.00000002E+01
 51
2.70000000E+02
  0
ARC
  8
0
 62
7
 10
-2.24139517E+02
 20
1.12017882E+02
 40
3.49999976E+00
 50
2.70000000E+02
 51
2.50447795E-06
  0
ARC
  8
0
 62
7
 10
-2.30839514E+02
 20
1.11517897E+02
 40
2.50000000E+00
 50
9.00000002E+01
 51
1.80000005E+02
  0
CIRCLE
  8
0
 62
7
 10
-2.30639502E+02
 20
4.25178974E+01
 40
2.09999990E+00
  0
CIRCLE
  8
0
 62
2
 10
-2.30639502E+02
 20
4.25178974E+01
 40
2.50000000E+00
  0
ARC
  8
0
 62
7
 10
-2.34339514E+02
 20
-1.09820988E+01
 40
1.00000000E+00
 50
3.59999996E+02
 51
9.00000002E+01
  0
ARC
  8
0
 62
7
 10
-2.36139502E+02
 20
-8.98210261E+00
 40
1.00000000E+00
 50
2.10000508E+02
 51
2.70000000E+02
  0
ARC
  8
0
 62
7
 10
-2.34339514E+02
 20
1.10017897E+02
 40
1.00000000E+00
 50
2.70000000E+02
 51
4.32571070E-06
  0
ARC
  8
0
 62
7
 10
-2.36139502E+02
 20
1.08017882E+02
 40
1.00000000E+00
 50
9.00000002E+01
 51
1.49999492E+02
  0
CIRCLE
  8
0
 62
7
 10
-2.21139502E+02
 20
7.20178821E+01
 40
5.99999952E+00
  0
CIRCLE
  8
0
 62
2
 10
-2.21139502E+02
 20
7.20178821E+01
 40
4.50000000E+00
  0
CIRCLE
  8
0
 62
7
 10
-2.21139502E+02
 20
7.20178821E+01
 40
5.00000000E+00
  0
LINE
  8
0
  6
CENTER
 62
2
 10
-2.31139502E+02
 20
7.20178821E+01
 11
-2.11139502E+02
 21
7.20178821E+01
  0
LINE
  8
0
  6
CENTER
 62
2
 10
-2.21139502E+02
 20
6.20178821E+01
 11
-2.21139502E+02
 21
8.20178821E+01
  0
ARC
  8
0
 62
4
 10
1.77288685E+02
 20
-1.04821030E+01
 40
1.30000000E+00
 50
2.70000000E+02
 51
3.00000000E+02
  0
ARC
  8
0
 62
4
 10
1.77985353E+02
 20
-1.30821030E+01
 40
1.30000000E+00
 50
2.70000000E+02
 51
3.00000000E+02
  0
ARC
  8
0
 62
4
 10
1.80067683E+02
 20
-1.48820904E+01
 40
1.30000000E+00
 50
9.00000002E+01
 51
1.20000000E+02
  0
ARC
  8
0
 62
4
 10
1.79371015E+02
 20
-1.22820904E+01
 40
1.30000000E+00
 50
9.00000002E+01
 51
1.20000000E+02
  0
CIRCLE
  8
0
 62
4
 10
1.74760460E+02
 20
-1.31816310E+01
 40
1.30000000E+00
  0
ARC
  8
0
 62
4
 10
1.74760462E+02
 20
-1.29321087E+01
 40
2.05000229E+00
 50
9.00000002E+01
 51
1.79999936E+02
  0
ARC
  8
0
 62
4
 10
1.74760458E+02
 20
-1.29321087E+01
 40
2.05000229E+00
 50
6.39705167E-05
 51
9.00000002E+01
  0
LINE
  8
0
 62
4
 10
1.76010460E+02
 20
-1.59821064E+01
 11
1.73510460E+02
 21
-1.59821064E+01
  0
LINE
  8
0
 62
4
 10
1.73510460E+02
 20
-1.59821064E+01
 11
1.73510460E+02
 21
-1.54821064E+01
  0
LINE
  8
0
 62
6
 10
1.73740460E+02
 20
-1.59821064E+01
 11
1.73740460E+02
 21
-1.54821064E+01
  0
LINE
  8
0
 62
6
 10
1.75780460E+02
 20
-1.59821064E+01
 11
1.75780460E+02
 21
-1.54821064E+01
  0
LINE
  8
0
 62
4
 10
1.76010460E+02
 20
-1.59821064E+01
 11
1.76010460E+02
 21
-1.54821064E+01
  0
LINE
  8
0
 62
4
 10
1.72710460E+02
 20
-1.44821064E+01
 11
1.72710460E+02
 21
-1.29321064E+01
  0
LINE
  8
0
 62
4
 10
1.72710460E+02
 20
-1.44821064E+01
 11
1.73260460E+02
 21
-1.50321064E+01
  0
LINE
  8
0
 62
4
 10
1.73260460E+02
 20
-1.54821064E+01
 11
1.73260460E+02
 21
-1.50321064E+01
  0
LINE
  8
0
 62
4
 10
1.76260460E+02
 20
-1.54821064E+01
 11
1.73260460E+02
 21
-1.54821064E+01
  0
LINE
  8
0
 62
4
 10
1.76260460E+02
 20
-1.54821064E+01
 11
1.76260460E+02
 21
-1.50321064E+01
  0
LINE
  8
0
 62
4
 10
1.76810460E+02
 20
-1.44821064E+01
 11
1.76260460E+02
 21
-1.50321064E+01
  0
LINE
  8
0
 62
4
 10
1.76810460E+02
 20
-1.44821064E+01
 11
1.76810460E+02
 21
-1.29321064E+01
  0
LINE
  8
0
  6
CENTER
 62
6
 10
1.74760460E+02
 20
-1.75321064E+01
 11
1.74760460E+02
 21
-1.05621064E+01
  0
LINE
  8
0
 62
4
 10
1.78635353E+02
 20
-1.42079360E+01
 11
1.79417683E+02
 21
-1.37562574E+01
  0
LINE
  8
0
 62
7
 10
1.76810460E+02
 20
-1.43821030E+01
 11
1.77985353E+02
 21
-1.43821030E+01
  0
LINE
  8
0
 62
4
 10
1.76457513E+02
 20
-1.17821030E+01
 11
1.77288685E+02
 21
-1.17821030E+01
  0
LINE
  8
0
 62
4
 10
1.77938685E+02
 20
-1.16079360E+01
 11
1.78721015E+02
 21
-1.11562574E+01
  0
LINE
  8
0
 62
4
 10
1.80067683E+02
 20
-1.35820904E+01
 11
1.81360481E+02
 21
-1.35820904E+01
  0
LINE
  8
0
 62
4
 10
1.79371015E+02
 20
-1.09820904E+01
 11
1.81360481E+02
 21
-1.09820904E+01
  0
CIRCLE
  8
0
 62
4
 10
1.81360481E+02
 20
-1.22820904E+01
 40
1.30000000E+00
  0
LINE
  8
0
  6
CENTER
 62
2
 10
1.71860481E+02
 20
8.20178821E+01
 11
1.71860481E+02
 21
6.20178821E+01
  0
LINE
  8
0
  6
CENTER
 62
2
 10
1.81860481E+02
 20
7.20178821E+01
 11
1.61860481E+02
 21
7.20178821E+01
  0
LINE
  8
0
  6
CENTER
 62
2
 10
2.04360477E+02
 20
8.51789739E+00
 11
2.16360477E+02
 21
8.51789739E+00
  0
LINE
  8
0
  6
CENTER
 62
2
 10
2.04360477E+02
 20
9.05178821E+01
 11
2.16360477E+02
 21
9.05178821E+01
  0
LINE
  8
0
 62
7
 10
2.00610477E+02
 20
1.08517882E+02
 11
2.00610477E+02
 21
1.09517882E+02
  0
LINE
  8
0
 62
7
 10
1.94110477E+02
 20
1.08517882E+02
 11
1.94110477E+02
 21
1.09517882E+02
  0
LINE
  8
0
 62
7
 10
1.94110477E+02
 20
-9.48210261E+00
 11
1.94110477E+02
 21
-1.04821255E+01
  0
LINE
  8
0
 62
7
 10
2.00610477E+02
 20
-9.48210261E+00
 11
2.00610477E+02
 21
-1.04821255E+01
  0
LINE
  8
0
 62
7
 10
1.76360481E+02
 20
-1.54821064E+01
 11
1.78628425E+02
 21
-1.54821064E+01
  0
LINE
  8
0
 62
7
 10
1.73160438E+02
 20
-1.49821026E+01
 11
1.73160438E+02
 21
-1.54821064E+01
  0
LINE
  8
0
 62
7
 10
1.71360481E+02
 20
-1.54821064E+01
 11
1.73160438E+02
 21
-1.54821064E+01
  0
LINE
  8
0
 62
7
 10
1.76360481E+02
 20
1.14517882E+02
 11
1.78628425E+02
 21
1.14517882E+02
  0
LINE
  8
0
 62
7
 10
1.71360481E+02
 20
1.14517882E+02
 11
1.73160438E+02
 21
1.14517882E+02
  0
LINE
  8
0
 62
7
 10
1.78360434E+02
 20
1.13517884E+02
 11
1.79746080E+02
 21
1.12717881E+02
  0
LINE
  8
0
 62
7
 10
1.76860481E+02
 20
1.13517882E+02
 11
1.78360481E+02
 21
1.13517882E+02
  0
LINE
  8
0
 62
7
 10
1.76860453E+02
 20
1.13517852E+02
 11
1.76360453E+02
 21
1.14017853E+02
  0
LINE
  8
0
 62
7
 10
1.72660438E+02
 20
1.13517882E+02
 11
1.72660438E+02
 21
1.11917876E+02
  0
LINE
  8
0
 62
7
 10
1.71360481E+02
 20
1.12017882E+02
 11
1.71360481E+02
 21
1.14517882E+02
  0
LINE
  8
0
 62
7
 10
1.57360466E+02
 20
1.13517897E+02
 11
1.57360466E+02
 21
8.90178974E+01
  0
LINE
  8
0
 62
7
 10
1.57360465E+02
 20
8.90178802E+01
 11
1.58360455E+02
 21
8.80178899E+01
  0
LINE
  8
0
 62
7
 10
1.78360477E+02
 20
-1.44821077E+01
 11
1.79746096E+02
 21
-1.36821199E+01
  0
LINE
  8
0
 62
7
 10
1.58360466E+02
 20
8.80178821E+01
 11
1.58360466E+02
 21
1.10178898E+01
  0
LINE
  8
0
 62
7
 10
1.57360466E+02
 20
1.00178974E+01
 11
1.57360466E+02
 21
-1.44821064E+01
  0
LINE
  8
0
 62
7
 10
1.72660431E+02
 20
1.13517831E+02
 11
1.73160464E+02
 21
1.14017864E+02
  0
LINE
  8
0
 62
7
 10
1.76483803E+02
 20
1.10717894E+02
 11
1.77610206E+02
 21
1.10717894E+02
  0
LINE
  8
0
 62
7
 10
1.77610232E+02
 20
-1.16820966E+01
 11
1.78995852E+02
 21
-1.08821089E+01
  0
LINE
  8
0
 62
4
 10
1.76860481E+02
 20
-1.44821026E+01
 11
1.78360481E+02
 21
-1.44821026E+01
  0
LINE
  8
0
 62
7
 10
1.72660438E+02
 20
-1.44821026E+01
 11
1.72660438E+02
 21
-1.28820965E+01
  0
LINE
  8
0
 62
7
 10
1.76483803E+02
 20
-1.16821034E+01
 11
1.77610206E+02
 21
-1.16821034E+01
  0
LINE
  8
0
 62
7
 10
1.76860459E+02
 20
-1.44821164E+01
 11
1.76360469E+02
 21
-1.49821061E+01
  0
LINE
  8
0
 62
7
 10
1.71360481E+02
 20
-1.29821064E+01
 11
1.71360481E+02
 21
-1.54821064E+01
  0
LINE
  8
0
 62
7
 10
1.78995857E+02
 20
-1.08820965E+01
 11
1.81360481E+02
 21
-1.08820965E+01
  0
LINE
  8
0
 62
7
 10
1.84060493E+02
 20
-1.08820965E+01
 11
1.84060493E+02
 21
-1.24821026E+01
  0
LINE
  8
0
 62
7
 10
1.76360481E+02
 20
-1.49821026E+01
 11
1.76360481E+02
 21
-1.54821064E+01
  0
LINE
  8
0
 62
7
 10
1.79746101E+02
 20
1.12717879E+02
 11
1.81360481E+02
 21
1.12717879E+02
  0
LINE
  8
0
 62
7
 10
1.72660448E+02
 20
-1.44821272E+01
 11
1.73160448E+02
 21
-1.49821277E+01
  0
LINE
  8
0
 62
7
 10
1.58360439E+02
 20
1.10178675E+01
 11
1.57360459E+02
 21
1.00178880E+01
  0
LINE
  8
0
 62
7
 10
1.69360481E+02
 20
1.08517882E+02
 11
1.69360481E+02
 21
1.13517897E+02
  0
LINE
  8
0
 62
7
 10
1.69360481E+02
 20
-9.48210261E+00
 11
1.69360481E+02
 21
-1.44821064E+01
  0
LINE
  8
0
 62
7
 10
1.73160438E+02
 20
1.14017897E+02
 11
1.73160438E+02
 21
1.14517882E+02
  0
LINE
  8
0
 62
7
 10
1.78995857E+02
 20
1.09917876E+02
 11
1.81360481E+02
 21
1.09917876E+02
  0
LINE
  8
0
 62
7
 10
1.76360481E+02
 20
1.14017897E+02
 11
1.76360481E+02
 21
1.14517882E+02
  0
LINE
  8
0
 62
7
 10
1.84060493E+02
 20
1.10017897E+02
 11
1.84060493E+02
 21
1.11517897E+02
  0
LINE
  8
0
 62
7
 10
1.77610197E+02
 20
1.10717886E+02
 11
1.78995843E+02
 21
1.09917883E+02
  0
LINE
  8
0
 62
7
 10
1.78628387E+02
 20
1.14517881E+02
 11
1.79494439E+02
 21
1.14017866E+02
  0
LINE
  8
0
 62
7
 10
1.78628430E+02
 20
-1.54821053E+01
 11
1.79494455E+02
 21
-1.49821053E+01
  0
LINE
  8
0
 62
7
 10
1.79746101E+02
 20
-1.36821034E+01
 11
1.81360481E+02
 21
-1.36821034E+01
  0
LINE
  8
0
 62
7
 10
1.79494453E+02
 20
1.14017897E+02
 11
1.81560493E+02
 21
1.14017897E+02
  0
LINE
  8
0
 62
7
 10
1.79494453E+02
 20
-1.49821026E+01
 11
1.81560493E+02
 21
-1.49821026E+01
  0
LINE
  8
0
 62
7
 10
1.59360481E+02
 20
1.08517882E+02
 11
1.59360481E+02
 21
-9.48210261E+00
  0
LINE
  8
0
 62
7
 10
1.85060463E+02
 20
-9.98209498E+00
 11
1.86860481E+02
 21
-9.98209498E+00
  0
LINE
  8
0
 62
7
 10
1.87860451E+02
 20
-1.04821064E+01
 11
1.87860451E+02
 21
-9.48210261E+00
  0
LINE
  8
0
 62
7
 10
1.59360481E+02
 20
-9.48210261E+00
 11
2.10360477E+02
 21
-9.48210261E+00
  0
LINE
  8
0
 62
7
 10
1.87860451E+02
 20
1.09517882E+02
 11
1.87860451E+02
 21
1.08517882E+02
  0
LINE
  8
0
 62
7
 10
1.85060463E+02
 20
1.09017897E+02
 11
1.86860481E+02
 21
1.09017897E+02
  0
LINE
  8
0
 62
7
 10
1.59360481E+02
 20
1.08517882E+02
 11
2.10360477E+02
 21
1.08517882E+02
  0
LINE
  8
0
 62
7
 10
1.72510445E+02
 20
7.69754474E+01
 11
1.72510445E+02
 21
6.70603168E+01
  0
LINE
  8
0
 62
7
 10
1.71210487E+02
 20
7.69754474E+01
 11
1.71210487E+02
 21
6.70603168E+01
  0
ARC
  8
0
 62
7
 10
1.81360481E+02
 20
1.11317870E+02
 40
1.39999986E+00
 50
2.70000000E+02
 51
9.00000002E+01
  0
ARC
  8
0
 62
7
 10
1.74860451E+02
 20
1.12017882E+02
 40
3.49999976E+00
 50
1.79999991E+02
 51
2.70000000E+02
  0
ARC
  8
0
 62
7
 10
1.81560493E+02
 20
1.11517897E+02
 40
2.50000000E+00
 50
3.60000000E+02
 51
9.00000002E+01
  0
ARC
  8
0
 62
7
 10
1.74760475E+02
 20
1.11917876E+02
 40
2.09999990E+00
 50
1.80000008E+02
 51
3.25150053E+02
  0
ARC
  8
0
 62
7
 10
1.74760475E+02
 20
-1.28820965E+01
 40
2.09999990E+00
 50
3.48499474E+01
 51
1.79999991E+02
  0
ARC
  8
0
 62
7
 10
1.81360481E+02
 20
-1.22820904E+01
 40
1.39999986E+00
 50
2.70000000E+02
 51
9.00000002E+01
  0
ARC
  8
0
 62
7
 10
1.74860451E+02
 20
-1.29821064E+01
 40
3.49999976E+00
 50
9.00000002E+01
 51
1.79999991E+02
  0
ARC
  8
0
 62
7
 10
1.81560493E+02
 20
-1.24821026E+01
 40
2.50000000E+00
 50
2.70000000E+02
 51
2.50447807E-06
  0
ARC
  8
0
 62
7
 10
1.86860481E+02
 20
-8.98210261E+00
 40
1.00000000E+00
 50
2.70000000E+02
 51
3.29999491E+02
  0
ARC
  8
0
 62
7
 10
1.86860481E+02
 20
1.08017882E+02
 40
1.00000000E+00
 50
3.00005097E+01
 51
9.00000002E+01
  0
ARC
  8
0
 62
7
 10
1.85060463E+02
 20
1.10017897E+02
 40
1.00000000E+00
 50
1.79999991E+02
 51
2.70000000E+02
  0
ARC
  8
0
 62
7
 10
1.85060463E+02
 20
-1.09820988E+01
 40
1.00000000E+00
 50
9.00000002E+01
 51
1.80000005E+02
  0
CIRCLE
  8
0
 62
7
 10
1.71860481E+02
 20
7.20178821E+01
 40
5.99999952E+00
  0
CIRCLE
  8
0
 62
7
 10
1.71860481E+02
 20
7.20178821E+01
 40
5.00000000E+00
  0
CIRCLE
  8
0
 62
2
 10
1.71860481E+02
 20
7.20178821E+01
 40
4.50000000E+00
  0
LINE
  8
0
  6
DASHED
 62
2
 10
1.94110477E+02
 20
1.06017867E+02
 11
1.94110477E+02
 21
1.08517882E+02
  0
LINE
  8
0
  6
DASHED
 62
2
 10
2.00610477E+02
 20
1.06017867E+02
 11
2.00610477E+02
 21
1.08517882E+02
  0
LINE
  8
0
  6
CENTER
 62
2
 10
1.97360481E+02
 20
9.70178821E+01
 11
1.97360481E+02
 21
1.12017882E+02
  0
LINE
  8
0
  6
DASHED
 62
2
 10
1.92110481E+02
 20
1.00517867E+02
 11
1.92110481E+02
 21
1.06017867E+02
  0
LINE
  8
0
  6
DASHED
 62
2
 10
2.02610481E+02
 20
1.00517867E+02
 11
2.02610481E+02
 21
1.06017867E+02
  0
LINE
  8
0
  6
DASHED
 62
2
 10
1.92110481E+02
 20
1.06017867E+02
 11
2.02610481E+02
 21
1.06017867E+02
  0
LINE
  8
0
  6
DASHED
 62
2
 10
1.92360481E+02
 20
1.01517867E+02
 11
2.02360481E+02
 21
1.01517867E+02
  0
LINE
  8
0
  6
DASHED
 62
2
 10
2.02360481E+02
 20
1.01517867E+02
 11
2.02360481E+02
 21
1.06017867E+02
  0
LINE
  8
0
  6
DASHED
 62
2
 10
1.92360481E+02
 20
1.01517867E+02
 11
1.92360481E+02
 21
1.06017867E+02
  0
LINE
  8
0
  6
DASHED
 62
2
 10
2.00360477E+02
 20
1.01517867E+02
 11
2.00360477E+02
 21
1.06017867E+02
  0
LINE
  8
0
  6
DASHED
 62
2
 10
1.94360477E+02
 20
1.01517867E+02
 11
1.94360477E+02
 21
1.06017867E+02
  0
LINE
  8
0
  6
DASHED
 62
2
 10
1.99860481E+02
 20
1.01517867E+02
 11
1.99860481E+02
 21
1.06017867E+02
  0
LINE
  8
0
  6
DASHED
 62
2
 10
1.94860481E+02
 20
1.01517867E+02
 11
1.94860481E+02
 21
1.06017867E+02
  0
LINE
  8
0
  6
DASHED
 62
2
 10
1.94110477E+02
 20
9.95178821E+01
 11
1.94110477E+02
 21
1.00517867E+02
  0
LINE
  8
0
  6
DASHED
 62
2
 10
1.92110481E+02
 20
1.00517867E+02
 11
1.94110477E+02
 21
1.00517867E+02
  0
LINE
  8
0
  6
DASHED
 62
2
 10
2.00610477E+02
 20
9.95178821E+01
 11
2.00610477E+02
 21
1.00517867E+02
  0
LINE
  8
0
  6
DASHED
 62
2
 10
2.00610477E+02
 20
1.00517867E+02
 11
2.02610481E+02
 21
1.00517867E+02
  0
LINE
  8
0
  6
DASHED
 62
2
 10
1.94110477E+02
 20
9.95178821E+01
 11
2.00610477E+02
 21
9.95178821E+01
  0
LINE
  8
0
 62
7
 10
2.00610477E+02
 20
1.09517882E+02
 11
2.09860481E+02
 21
1.09517882E+02
  0
LINE
  8
0
 62
7
 10
2.09860481E+02
 20
1.09517882E+02
 11
2.09860481E+02
 21
1.08517882E+02
  0
LINE
  8
0
 62
7
 10
2.10360477E+02
 20
-9.48210261E+00
 11
2.10360477E+02
 21
1.08517882E+02
  0
LINE
  8
0
  6
DASHED
 62
2
 10
2.02360481E+02
 20
9.70178821E+01
 11
2.02360481E+02
 21
8.70178821E+01
  0
LINE
  8
0
  6
DASHED
 62
2
 10
2.00360477E+02
 20
9.52678669E+01
 11
2.00360477E+02
 21
8.87678669E+01
  0
LINE
  8
0
  6
DASHED
 62
2
 10
2.06860477E+02
 20
9.72678669E+01
 11
2.06860477E+02
 21
8.67678821E+01
  0
LINE
  8
0
  6
DASHED
 62
2
 10
2.01360481E+02
 20
9.72678669E+01
 11
2.01360481E+02
 21
9.52678669E+01
  0
LINE
  8
0
  6
DASHED
 62
2
 10
2.00360477E+02
 20
9.52678669E+01
 11
2.01360481E+02
 21
9.52678669E+01
  0
LINE
  8
0
  6
DASHED
 62
2
 10
2.06860477E+02
 20
9.52678669E+01
 11
2.10360477E+02
 21
9.52678669E+01
  0
LINE
  8
0
  6
DASHED
 62
2
 10
2.01360481E+02
 20
9.72678669E+01
 11
2.06860477E+02
 21
9.72678669E+01
  0
LINE
  8
0
  6
DASHED
 62
2
 10
2.02360481E+02
 20
9.70178821E+01
 11
2.06860477E+02
 21
9.70178821E+01
  0
LINE
  8
0
  6
DASHED
 62
2
 10
2.02360481E+02
 20
9.50178669E+01
 11
2.06860477E+02
 21
9.50178669E+01
  0
LINE
  8
0
  6
DASHED
 62
2
 10
2.02360481E+02
 20
9.45178821E+01
 11
2.06860477E+02
 21
9.45178821E+01
  0
LINE
  8
0
  6
DASHED
 62
2
 10
2.01360481E+02
 20
8.67678821E+01
 11
2.06860477E+02
 21
8.67678821E+01
  0
LINE
  8
0
  6
DASHED
 62
2
 10
2.06860477E+02
 20
8.87678669E+01
 11
2.10360477E+02
 21
8.87678669E+01
  0
LINE
  8
0
  6
CENTER
 62
2
 10
1.97860477E+02
 20
9.20178821E+01
 11
2.12860477E+02
 21
9.20178821E+01
  0
LINE
  8
0
  6
DASHED
 62
2
 10
2.02360481E+02
 20
8.70178821E+01
 11
2.06860477E+02
 21
8.70178821E+01
  0
LINE
  8
0
  6
DASHED
 62
2
 10
2.02360481E+02
 20
8.90178669E+01
 11
2.06860477E+02
 21
8.90178669E+01
  0
LINE
  8
0
  6
DASHED
 62
2
 10
2.02360481E+02
 20
8.95178821E+01
 11
2.06860477E+02
 21
8.95178821E+01
  0
LINE
  8
0
  6
DASHED
 62
2
 10
2.01360481E+02
 20
8.87678669E+01
 11
2.01360481E+02
 21
8.67678821E+01
  0
LINE
  8
0
  6
DASHED
 62
2
 10
2.00360477E+02
 20
8.87678669E+01
 11
2.01360481E+02
 21
8.87678669E+01
  0
LINE
  8
0
 62
7
 10
1.87860481E+02
 20
1.09517882E+02
 11
1.94110477E+02
 21
1.09517882E+02
  0
LINE
  8
0
  6
DASHED
 62
2
 10
2.06860477E+02
 20
1.02678745E+01
 11
2.10360477E+02
 21
1.02678745E+01
  0
LINE
  8
0
  6
DASHED
 62
2
 10
2.02360481E+02
 20
2.01788213E+00
 11
2.02360481E+02
 21
1.20178821E+01
  0
LINE
  8
0
  6
DASHED
 62
2
 10
2.00360477E+02
 20
3.76787450E+00
 11
2.00360477E+02
 21
1.02678745E+01
  0
LINE
  8
0
  6
DASHED
 62
2
 10
2.06860477E+02
 20
1.76788213E+00
 11
2.06860477E+02
 21
1.22678745E+01
  0
LINE
  8
0
  6
DASHED
 62
2
 10
2.01360481E+02
 20
1.02678745E+01
 11
2.01360481E+02
 21
1.22678745E+01
  0
LINE
  8
0
  6
DASHED
 62
2
 10
2.00360477E+02
 20
1.02678745E+01
 11
2.01360481E+02
 21
1.02678745E+01
  0
LINE
  8
0
  6
DASHED
 62
2
 10
2.01360481E+02
 20
1.22678745E+01
 11
2.06860477E+02
 21
1.22678745E+01
  0
LINE
  8
0
  6
DASHED
 62
2
 10
2.02360481E+02
 20
1.20178821E+01
 11
2.06860477E+02
 21
1.20178821E+01
  0
LINE
  8
0
  6
DASHED
 62
2
 10
2.02360481E+02
 20
1.00178745E+01
 11
2.06860477E+02
 21
1.00178745E+01
  0
LINE
  8
0
  6
DASHED
 62
2
 10
2.02360481E+02
 20
9.51788213E+00
 11
2.06860477E+02
 21
9.51788213E+00
  0
LINE
  8
0
  6
DASHED
 62
2
 10
2.01360481E+02
 20
1.76788213E+00
 11
2.06860477E+02
 21
1.76788213E+00
  0
LINE
  8
0
  6
CENTER
 62
2
 10
1.97860477E+02
 20
7.01788213E+00
 11
2.12860477E+02
 21
7.01788213E+00
  0
LINE
  8
0
  6
DASHED
 62
2
 10
2.06860477E+02
 20
3.76787450E+00
 11
2.10360477E+02
 21
3.76787450E+00
  0
LINE
  8
0
  6
DASHED
 62
2
 10
2.02360481E+02
 20
2.01788213E+00
 11
2.06860477E+02
 21
2.01788213E+00
  0
LINE
  8
0
  6
DASHED
 62
2
 10
2.02360481E+02
 20
4.01787450E+00
 11
2.06860477E+02
 21
4.01787450E+00
  0
LINE
  8
0
  6
DASHED
 62
2
 10
2.02360481E+02
 20
4.51788213E+00
 11
2.06860477E+02
 21
4.51788213E+00
  0
LINE
  8
0
  6
DASHED
 62
2
 10
2.00360477E+02
 20
3.76787450E+00
 11
2.01360481E+02
 21
3.76787450E+00
  0
LINE
  8
0
  6
DASHED
 62
2
 10
2.01360481E+02
 20
1.76788213E+00
 11
2.01360481E+02
 21
3.76787450E+00
  0
LINE
  8
0
 62
7
 10
2.00610477E+02
 20
-1.04821255E+01
 11
2.09860481E+02
 21
-1.04821255E+01
  0
LINE
  8
0
 62
7
 10
2.09860481E+02
 20
-1.04821255E+01
 11
2.09860481E+02
 21
-9.48210261E+00
  0
LINE
  8
0
  6
DASHED
 62
2
 10
2.02610481E+02
 20
-1.48212550E+00
 11
2.02610481E+02
 21
-6.98211787E+00
  0
LINE
  8
0
  6
DASHED
 62
2
 10
1.92110481E+02
 20
-1.48212550E+00
 11
1.92110481E+02
 21
-6.98211787E+00
  0
LINE
  8
0
  6
CENTER
 62
2
 10
1.97360481E+02
 20
2.01788213E+00
 11
1.97360481E+02
 21
-1.29821255E+01
  0
LINE
  8
0
 62
7
 10
1.87860481E+02
 20
-1.04821255E+01
 11
1.94110477E+02
 21
-1.04821255E+01
  0
LINE
  8
0
  6
DASHED
 62
2
 10
1.94110477E+02
 20
-6.98211787E+00
 11
1.94110477E+02
 21
-9.48210261E+00
  0
LINE
  8
0
  6
DASHED
 62
2
 10
1.92110481E+02
 20
-6.98211787E+00
 11
2.02610481E+02
 21
-6.98211787E+00
  0
LINE
  8
0
  6
DASHED
 62
2
 10
2.00610477E+02
 20
-6.98211787E+00
 11
2.00610477E+02
 21
-9.48210261E+00
  0
LINE
  8
0
  6
DASHED
 62
2
 10
1.92360481E+02
 20
-2.48212550E+00
 11
2.02360481E+02
 21
-2.48212550E+00
  0
LINE
  8
0
  6
DASHED
 62
2
 10
2.02360481E+02
 20
-2.48212550E+00
 11
2.02360481E+02
 21
-6.98211787E+00
  0
LINE
  8
0
  6
DASHED
 62
2
 10
1.92360481E+02
 20
-2.48212550E+00
 11
1.92360481E+02
 21
-6.98211787E+00
  0
LINE
  8
0
  6
DASHED
 62
2
 10
2.00360477E+02
 20
-2.48212550E+00
 11
2.00360477E+02
 21
-6.98211787E+00
  0
LINE
  8
0
  6
DASHED
 62
2
 10
1.94360477E+02
 20
-2.48212550E+00
 11
1.94360477E+02
 21
-6.98211787E+00
  0
LINE
  8
0
  6
DASHED
 62
2
 10
1.99860481E+02
 20
-2.48212550E+00
 11
1.99860481E+02
 21
-6.98211787E+00
  0
LINE
  8
0
  6
DASHED
 62
2
 10
1.94860481E+02
 20
-2.48212550E+00
 11
1.94860481E+02
 21
-6.98211787E+00
  0
LINE
  8
0
  6
DASHED
 62
2
 10
2.00610477E+02
 20
-4.82117869E-01
 11
2.00610477E+02
 21
-1.48212550E+00
  0
LINE
  8
0
  6
DASHED
 62
2
 10
1.94110477E+02
 20
-4.82117869E-01
 11
1.94110477E+02
 21
-1.48212550E+00
  0
LINE
  8
0
  6
DASHED
 62
2
 10
1.92110481E+02
 20
-1.48212550E+00
 11
1.94110477E+02
 21
-1.48212550E+00
  0
LINE
  8
0
  6
DASHED
 62
2
 10
2.00610477E+02
 20
-1.48212550E+00
 11
2.02610481E+02
 21
-1.48212550E+00
  0
LINE
  8
0
  6
DASHED
 62
2
 10
1.94110477E+02
 20
-4.82117869E-01
 11
2.00610477E+02
 21
-4.82117869E-01
  0
LINE
  8
0
 62
7
 10
1.57360466E+02
 20
1.13517897E+02
 11
1.69360481E+02
 21
1.13517897E+02
  0
LINE
  8
0
 62
7
 10
1.57360466E+02
 20
-1.44821064E+01
 11
1.69360481E+02
 21
-1.44821064E+01
  0
LINE
  8
0
  6
PHANTOM
 10
1.93604769E+01
 20
-4.82072427E+01
 11
1.93604769E+01
 21
-1.39224779E+02
  0
CIRCLE
  8
0
 62
4
 10
3.53604959E+01
 20
-9.45550669E+01
 40
1.25000000E+00
  0
CIRCLE
  8
0
 62
6
 10
3.53604959E+01
 20
-9.45550669E+01
 40
1.00000000E+00
  0
LINE
  8
0
 62
4
 10
5.53604807E+01
 20
-9.29487803E+01
 11
5.53604807E+01
 21
-9.61487803E+01
  0
LINE
  8
0
 62
4
 10
3.33604807E+01
 20
-9.29487803E+01
 11
3.33604807E+01
 21
-9.61487803E+01
  0
LINE
  8
0
 62
4
 10
3.46304807E+01
 20
-9.55487803E+01
 11
3.63704807E+01
 21
-9.38187803E+01
  0
LINE
  8
0
 62
4
 10
3.43504807E+01
 20
-9.52687803E+01
 11
3.60904807E+01
 21
-9.35387803E+01
  0
LINE
  8
0
 62
4
 10
5.53604807E+01
 20
-9.58487803E+01
 11
5.84504807E+01
 21
-9.58487803E+01
  0
LINE
  8
0
 62
4
 10
5.53604807E+01
 20
-9.32487803E+01
 11
5.69404807E+01
 21
-9.32487803E+01
  0
LINE
  8
0
 62
6
 10
5.64404807E+01
 20
-9.23887803E+01
 11
5.89404807E+01
 21
-9.67087803E+01
  0
LINE
  8
0
 62
4
 10
3.33604807E+01
 20
-9.30487803E+01
 11
5.53604807E+01
 21
-9.30487803E+01
  0
LINE
  8
0
 62
4
 10
3.33604807E+01
 20
-9.60487803E+01
 11
5.53604807E+01
 21
-9.60487803E+01
  0
LINE
  8
0
  6
CENTER
 62
6
 10
3.05604807E+01
 20
-9.45487803E+01
 11
6.07604807E+01
 21
-9.45487803E+01
  0
LINE
  8
0
  6
CENTER
 62
6
 10
3.53604807E+01
 20
-9.17187803E+01
 11
3.53604807E+01
 21
-9.72987803E+01
  0
CIRCLE
  8
0
 62
4
 10
-6.46395041E+01
 20
-9.45550669E+01
 40
1.25000000E+00
  0
CIRCLE
  8
0
 62
6
 10
-6.46395041E+01
 20
-9.45550669E+01
 40
1.00000000E+00
  0
LINE
  8
0
 62
4
 10
-4.46395193E+01
 20
-9.29487803E+01
 11
-4.46395193E+01
 21
-9.61487803E+01
  0
LINE
  8
0
 62
4
 10
-6.66395193E+01
 20
-9.29487803E+01
 11
-6.66395193E+01
 21
-9.61487803E+01
  0
LINE
  8
0
 62
4
 10
-6.53695193E+01
 20
-9.55487803E+01
 11
-6.36295193E+01
 21
-9.38187803E+01
  0
LINE
  8
0
 62
4
 10
-6.56495193E+01
 20
-9.52687803E+01
 11
-6.39095193E+01
 21
-9.35387803E+01
  0
LINE
  8
0
 62
4
 10
-4.46395193E+01
 20
-9.58487803E+01
 11
-4.15495193E+01
 21
-9.58487803E+01
  0
LINE
  8
0
 62
4
 10
-4.46395193E+01
 20
-9.32487803E+01
 11
-4.30595193E+01
 21
-9.32487803E+01
  0
LINE
  8
0
 62
6
 10
-4.35595193E+01
 20
-9.23887803E+01
 11
-4.10595193E+01
 21
-9.67087803E+01
  0
LINE
  8
0
 62
4
 10
-6.66395193E+01
 20
-9.30487803E+01
 11
-4.46395193E+01
 21
-9.30487803E+01
  0
LINE
  8
0
 62
4
 10
-6.66395193E+01
 20
-9.60487803E+01
 11
-4.46395193E+01
 21
-9.60487803E+01
  0
LINE
  8
0
  6
CENTER
 62
6
 10
-6.94395193E+01
 20
-9.45487803E+01
 11
-3.92395193E+01
 21
-9.45487803E+01
  0
LINE
  8
0
  6
CENTER
 62
6
 10
-6.46395193E+01
 20
-9.17187803E+01
 11
-6.46395193E+01
 21
-9.72987803E+01
  0
LINE
  8
0
  6
CENTER
 62
2
 10
1.30360465E+02
 20
-1.36148776E+02
 11
1.30360465E+02
 21
-1.24148776E+02
  0
LINE
  8
0
  6
CENTER
 62
2
 10
-1.51639516E+02
 20
-1.36148776E+02
 11
-1.51639516E+02
 21
-1.24148776E+02
  0
LINE
  8
0
 62
7
 10
7.68604807E+01
 20
-8.66487797E+01
 11
1.04360481E+02
 21
-8.66487797E+01
  0
LINE
  8
0
 62
2
 10
7.68604807E+01
 20
-8.73987797E+01
 11
1.04360481E+02
 21
-8.73987797E+01
  0
LINE
  8
0
 62
7
 10
7.33604807E+01
 20
-8.73987797E+01
 11
7.68604807E+01
 21
-8.73987797E+01
  0
LINE
  8
0
 62
7
 10
7.33604807E+01
 20
-9.11487797E+01
 11
7.33604807E+01
 21
-8.73987797E+01
  0
LINE
  8
0
 62
7
 10
7.68604807E+01
 20
-9.11487797E+01
 11
7.68604807E+01
 21
-8.66487797E+01
  0
LINE
  8
0
 62
7
 10
6.38604807E+01
 20
-9.01487797E+01
 11
7.33604807E+01
 21
-9.01487797E+01
  0
LINE
  8
0
 62
7
 10
6.33604807E+01
 20
-9.11487797E+01
 11
6.33604807E+01
 21
-9.06487797E+01
  0
LINE
  8
0
 62
7
 10
6.33604383E+01
 20
-9.06487904E+01
 11
6.38604496E+01
 21
-9.01487791E+01
  0
LINE
  8
0
 62
7
 10
1.37360481E+02
 20
-7.91487803E+01
 11
1.04360481E+02
 21
-7.91487803E+01
  0
LINE
  8
0
 62
7
 10
1.23360481E+02
 20
-8.71487797E+01
 11
1.04360481E+02
 21
-8.71487797E+01
  0
LINE
  8
0
 62
7
 10
1.12360481E+02
 20
-8.17827559E+01
 11
1.12360481E+02
 21
-8.35148059E+01
  0
LINE
  8
0
 62
7
 10
1.13860455E+02
 20
-8.43808226E+01
 11
1.12360477E+02
 21
-8.35148100E+01
  0
LINE
  8
0
 62
7
 10
1.15360468E+02
 20
-8.35148051E+01
 11
1.13860490E+02
 21
-8.43808177E+01
  0
LINE
  8
0
 62
7
 10
1.13860468E+02
 20
-8.09167289E+01
 11
1.12360490E+02
 21
-8.17827415E+01
  0
LINE
  8
0
 62
7
 10
1.15360455E+02
 20
-8.17827464E+01
 11
1.13860477E+02
 21
-8.09167338E+01
  0
LINE
  8
0
 62
7
 10
1.15360481E+02
 20
-8.17827559E+01
 11
1.15360481E+02
 21
-8.35148059E+01
  0
LINE
  8
0
 62
7
 10
-1.20639517E+02
 20
-8.66487797E+01
 11
-1.25639517E+02
 21
-8.66487797E+01
  0
LINE
  8
0
 62
2
 10
-1.20639517E+02
 20
-8.73987797E+01
 11
-1.25639517E+02
 21
-8.73987797E+01
  0
LINE
  8
0
 62
7
 10
-1.58639519E+02
 20
-7.91487803E+01
 11
-1.25639517E+02
 21
-7.91487803E+01
  0
LINE
  8
0
 62
7
 10
-1.44639516E+02
 20
-8.71487797E+01
 11
-1.25639517E+02
 21
-8.71487797E+01
  0
LINE
  8
0
 62
7
 10
-1.20639517E+02
 20
-8.91487797E+01
 11
-6.39526953E-01
 21
-8.91487797E+01
  0
LINE
  8
0
 62
7
 10
1.04360481E+02
 20
-7.91487801E+01
 11
1.04360481E+02
 21
-9.11487797E+01
  0
LINE
  8
0
 62
7
 10
1.37360481E+02
 20
-7.91487801E+01
 11
1.37360481E+02
 21
-1.30148776E+02
  0
LINE
  8
0
 62
7
 10
1.23360481E+02
 20
-7.91487801E+01
 11
1.23360481E+02
 21
-1.30148776E+02
  0
LINE
  8
0
 62
7
 10
-1.36639516E+02
 20
-8.17827559E+01
 11
-1.36639516E+02
 21
-8.35148059E+01
  0
LINE
  8
0
 62
7
 10
-1.33639516E+02
 20
-8.17827559E+01
 11
-1.33639516E+02
 21
-8.35148059E+01
  0
LINE
  8
0
 62
7
 10
-1.36639518E+02
 20
-8.17827497E+01
 11
-1.35139517E+02
 21
-8.09167238E+01
  0
LINE
  8
0
 62
7
 10
-1.35139518E+02
 20
-8.43808267E+01
 11
-1.33639517E+02
 21
-8.35148008E+01
  0
LINE
  8
0
 62
7
 10
-1.36639516E+02
 20
-8.35148061E+01
 11
-1.35139519E+02
 21
-8.43808301E+01
  0
LINE
  8
0
 62
7
 10
-1.35139516E+02
 20
-8.09167300E+01
 11
-1.33639519E+02
 21
-8.17827540E+01
  0
LINE
  8
0
 62
7
 10
-1.25639517E+02
 20
-7.91487801E+01
 11
-1.25639517E+02
 21
-9.11487797E+01
  0
LINE
  8
0
 62
7
 10
-1.20639517E+02
 20
-7.71487797E+01
 11
-6.39526953E-01
 21
-7.71487797E+01
  0
LINE
  8
0
 62
7
 10
-1.58639519E+02
 20
-1.30148776E+02
 11
1.37360481E+02
 21
-1.30148776E+02
  0
LINE
  8
0
 62
7
 10
-1.20639517E+02
 20
-7.71487797E+01
 11
-1.20639517E+02
 21
-8.91487797E+01
  0
LINE
  8
0
  6
CENTER
 62
2
 10
-6.06395193E+01
 20
-7.21487797E+01
 11
-6.06395193E+01
 21
-1.35148780E+02
  0
LINE
  8
0
 62
7
 10
-1.58639519E+02
 20
-7.91487801E+01
 11
-1.58639519E+02
 21
-1.30148776E+02
  0
LINE
  8
0
 62
7
 10
-1.44639516E+02
 20
-1.30148776E+02
 11
-1.44639516E+02
 21
-7.91487801E+01
  0
LINE
  8
0
 62
7
 10
-1.44639516E+02
 20
-9.29487818E+01
 11
1.23360481E+02
 21
-9.29487818E+01
  0
LINE
  8
0
 62
7
 10
-1.44639516E+02
 20
-9.11487797E+01
 11
1.23360481E+02
 21
-9.11487797E+01
  0
LINE
  8
0
 62
7
 10
-1.44639516E+02
 20
-9.61487788E+01
 11
1.23360481E+02
 21
-9.61487788E+01
  0
LINE
  8
0
 62
7
 10
-1.44639516E+02
 20
-1.03848780E+02
 11
1.23360481E+02
 21
-1.03848780E+02
  0
LINE
  8
0
 62
7
 10
-1.44639516E+02
 20
-1.06648780E+02
 11
1.23360481E+02
 21
-1.06648780E+02
  0
LINE
  8
0
 62
7
 10
-6.39526953E-01
 20
-7.71487797E+01
 11
-6.39526953E-01
 21
-8.91487797E+01
  0
LINE
  8
0
  6
CENTER
 62
2
 10
3.93604807E+01
 20
-8.61487797E+01
 11
3.93604807E+01
 21
-1.35148780E+02
  0
LINE
  8
0
 62
7
 10
-1.44639516E+02
 20
-1.13898776E+02
 11
1.23360481E+02
 21
-1.13898776E+02
  0
LINE
  8
0
 62
7
 10
-1.44639516E+02
 20
-1.20398776E+02
 11
1.23360481E+02
 21
-1.20398776E+02
  0
LINE
  8
0
 62
7
 10
-1.17339532E+02
 20
-8.91487797E+01
 11
-1.17339532E+02
 21
-9.11487797E+01
  0
LINE
  8
0
 62
7
 10
-8.39395071E+01
 20
-8.91487797E+01
 11
-8.39395071E+01
 21
-9.11487797E+01
  0
LINE
  8
0
 62
7
 10
-3.73395315E+01
 20
-8.91487797E+01
 11
-3.73395315E+01
 21
-9.11487797E+01
  0
LINE
  8
0
 62
7
 10
-3.93951475E+00
 20
-8.91487797E+01
 11
-3.93951475E+00
 21
-9.11487797E+01
  0
CIRCLE
  8
0
 62
7
 10
-1.35139516E+02
 20
-8.26487800E+01
 40
3.49999976E+00
  0
CIRCLE
  8
0
 62
7
 10
1.13860481E+02
 20
-8.26487800E+01
 40
3.49999976E+00
  0
TEXT
  8
0
 10
-1.75398028E+01
 20
1.34852586E+02
 40
6.30000019E+00
  1
STRETCH LINE
 41
1.05263158E+00
  7
MONOTXT
  0
LINE
  8
0
 62
7
 10
-2.71250000E+02
 20
-1.85000000E+02
 11
-2.71250000E+02
 21
-1.69000000E+02
  0
LINE
  8
0
 62
7
 10
-2.35250000E+02
 20
-1.85000000E+02
 11
-2.35250000E+02
 21
-1.69000000E+02
  0
LINE
  8
0
 62
7
 10
-2.17250000E+02
 20
-1.85000000E+02
 11
-2.17250000E+02
 21
-1.69000000E+02
  0
LINE
  8
0
 62
7
 10
-1.99250000E+02
 20
-1.85000000E+02
 11
-1.99250000E+02
 21
-1.69000000E+02
  0
LINE
  8
0
 62
7
 10
-1.81250000E+02
 20
-1.85000000E+02
 11
-1.81250000E+02
 21
-1.69000000E+02
  0
LINE
  8
0
 62
7
 10
-1.63250000E+02
 20
-1.85000000E+02
 11
-1.63250000E+02
 21
-1.69000000E+02
  0
LINE
  8
0
 62
7
 10
-1.45250000E+02
 20
-1.85000000E+02
 11
-1.45250000E+02
 21
-1.69000000E+02
  0
LINE
  8
0
 62
7
 10
-1.27250000E+02
 20
-1.85000000E+02
 11
-1.27250000E+02
 21
-1.69000000E+02
  0
TEXT
  8
0
 62
7
 10
-1.43013691E+02
 20
-1.66923793E+02
 40
4.50000000E+00
  1
(mm)
 41
1.00000000E+00
  7
MONOTXT
  0
TEXT
  8
0
 62
7
 10
-2.24161438E+02
 20
-1.66542818E+02
 40
4.50000000E+00
  1
STRETCH LIST
 41
1.05263158E+00
  7
MONOTXT
  0
TEXT
  8
0
 62
7
 10
-2.68507812E+02
 20
-1.83250000E+02
 40
4.50000000E+00
  1
STRETCH
 41
1.00000000E+00
  7
MONOTXT
  0
TEXT
  8
0
 62
7
 10
-2.28007812E+02
 20
-1.83250000E+02
 40
4.50000000E+00
  1
0
 41
1.00000000E+00
  7
MONOTXT
  0
TEXT
  8
0
 62
7
 10
-2.14507812E+02
 20
-1.83250000E+02
 40
4.50000000E+00
  1
100
 41
1.00000000E+00
  7
MONOTXT
  0
TEXT
  8
0
 62
7
 10
-1.96507812E+02
 20
-1.83250000E+02
 40
4.50000000E+00
  1
200
 41
1.00000000E+00
  7
MONOTXT
  0
TEXT
  8
0
 62
7
 10
-1.78507812E+02
 20
-1.83250000E+02
 40
4.50000000E+00
  1
300
 41
1.00000000E+00
  7
MONOTXT
  0
TEXT
  8
0
 62
7
 10
-1.60507812E+02
 20
-1.83250000E+02
 40
4.50000000E+00
  1
400
 41
1.00000000E+00
  7
MONOTXT
  0
TEXT
  8
0
 62
7
 10
-1.42507812E+02
 20
-1.83250000E+02
 40
4.50000000E+00
  1
500
 41
1.00000000E+00
  7
MONOTXT
  0
TEXT
  8
0
 62
7
 10
-1.42507812E+02
 20
-1.75250000E+02
 40
4.50000000E+00
  1
600
 41
1.00000000E+00
  7
MONOTXT
  0
TEXT
  8
0
 62
7
 10
-1.60507812E+02
 20
-1.75250000E+02
 40
4.50000000E+00
  1
500
 41
1.00000000E+00
  7
MONOTXT
  0
TEXT
  8
0
 62
7
 10
-1.78507812E+02
 20
-1.75250000E+02
 40
4.50000000E+00
  1
400
 41
1.00000000E+00
  7
MONOTXT
  0
TEXT
  8
0
 62
7
 10
-1.96507812E+02
 20
-1.75250000E+02
 40
4.50000000E+00
  1
300
 41
1.00000000E+00
  7
MONOTXT
  0
TEXT
  8
0
 62
7
 10
-2.14507812E+02
 20
-1.75250000E+02
 40
4.50000000E+00
  1
200
 41
1.00000000E+00
  7
MONOTXT
  0
TEXT
  8
0
 62
7
 10
-2.32507812E+02
 20
-1.75250000E+02
 40
4.50000000E+00
  1
100
 41
1.00000000E+00
  7
MONOTXT
  0
TEXT
  8
0
 62
7
 10
-2.66257812E+02
 20
-1.75250000E+02
 40
4.50000000E+00
  1
STROKE
 41
1.00000000E+00
  7
MONOTXT
  0
LINE
  8
0
 62
7
 10
-2.71250000E+02
 20
-1.69000000E+02
 11
-1.27250000E+02
 21
-1.69000000E+02
  0
LINE
  8
0
 62
7
 10
-2.71250000E+02
 20
-1.77000000E+02
 11
-1.27250000E+02
 21
-1.77000000E+02
  0
LINE
  8
0
 62
7
 10
-2.71250000E+02
 20
-1.85000000E+02
 11
-1.27250000E+02
 21
-1.85000000E+02
  0
TEXT
  8
0
 62
7
 10
-2.29800561E+02
 20
1.47350000E+02
 40
6.30000019E+00
  1
(WITH SENSOR SWITCH)
 41
1.06382979E+00
  7
MONOTXT
  0
LINE
  8
0
 62
7
 10
2.82099854E+02
 20
1.95500000E+02
 11
2.82099854E+02
 21
-1.95000000E+02
  0
LINE
  8
0
 62
7
 10
-2.81250000E+02
 20
1.95500000E+02
 11
2.82099854E+02
 21
1.95500000E+02
  0
LINE
  8
0
 62
7
 10
-2.81250000E+02
 20
1.95500000E+02
 11
-2.81250000E+02
 21
-1.95000000E+02
  0
LINE
  8
0
 62
7
 10
-2.81250000E+02
 20
-1.95000000E+02
 11
2.82099854E+02
 21
-1.95000000E+02
  0
LINE
  8
0
 62
7
 10
1.62099976E+02
 20
-1.75000000E+02
 11
1.62099976E+02
 21
-1.95000000E+02
  0
LINE
  8
0
 62
7
 10
1.62099976E+02
 20
-1.75000000E+02
 11
2.82099854E+02
 21
-1.75000000E+02
  0
LINE
  8
0
 62
7
 10
1.62099976E+02
 20
1.75500000E+02
 11
2.82099854E+02
 21
1.75500000E+02
  0
LINE
  8
0
 62
7
 10
-2.81250000E+02
 20
1.75500000E+02
 11
-1.61250000E+02
 21
1.75500000E+02
  0
LINE
  8
0
 62
7
 10
1.62099976E+02
 20
1.95500000E+02
 11
1.62099976E+02
 21
1.75500000E+02
  0
LINE
  8
0
 62
7
 10
-1.61250000E+02
 20
1.95500000E+02
 11
-1.61250000E+02
 21
1.75500000E+02
  0
TEXT
  8
0
 62
7
 10
1.97799694E+02
 20
1.82350000E+02
 40
6.30000019E+00
  1
Ver. 1.0
 41
1.08108108E+00
  7
MONOTXT
  0
TEXT
  8
0
 62
7
 10
1.69885289E+02
 20
-1.89500000E+02
 40
9.00000000E+00
  1
KOGANEI CORP.
 41
1.04838710E+00
  7
MONOTXT
  0
TEXT
  8
0
 62
7
 10
-2.70750283E+02
 20
1.82350000E+02
 40
6.30000019E+00
  1
RODLESS CYLINDER
 41
1.03896104E+00
  7
MONOTXT
  0
TEXT
  8
0
 62
7
 10
-2.67600562E+02
 20
1.57350000E+02
 40
6.30000019E+00
  1
MODEL:MRW16*ST(100)
 41
1.00000000E+00
  7
MONOTXT
  0
ENDSEC
  0
EOF
