  0
SECTION
  2
HEADER
  9
$ACADVER
  1
AC1003
  9
$EXTMIN
 10
-5.64500000E+02
 20
-4.00500000E+02
  9
$EXTMAX
 10
5.74500000E+02
 20
4.00500000E+02
  9
$LIMMIN
 10
-5.64501000E+02
 20
-4.00501000E+02
  9
$LIMMAX
 10
5.74501000E+02
 20
4.00501000E+02
  9
$SNAPUNIT
 10
1
 20
1
  9
$SNAPBASE
 10
0
 20
0
  9
$GRIDMODE
 70
0
  9
$GRIDUNIT
 10
0
 20
0
  9
$LTSCALE
 40
1.89833333E+01
  9
$TEXTSIZE
 40
3.2
  9
$DIMTAD
 70
0
  9
$LUNITS
 70
2
  9
$LUPREC
 70
4
  9
$FILLETRAD
 40
0
  9
$AUNITS
 70
0
  9
$AUPREC
 70
0
  0
ENDSEC
  0
SECTION
  2
TABLES
  0
TABLE
  2
LTYPE
 70
2
  0
LTYPE
  2
CONTINUOUS
 70
64
  3
Solid-Line
 72
65
 73
0
 40
0
  0
LTYPE
  2
DASHED
 70
64
  3
DASHED
 72
65
 73
2
 40
.75
 49
.5
 49
-.25
  0
LTYPE
  2
HIDDEN
 70
64
  3
HIDDEN
 72
65
 73
2
 40
.375
 49
.25
 49
-.125
  0
LTYPE
  2
CENTER
 70
64
  3
CENTER
 72
65
 73
4
 40
2
 49
1.25
 49
-.25
 49
.25
 49
-.25
  0
LTYPE
  2
PHANTOM
 70
64
  3
PHANTOM
 72
65
 73
6
 40
2.5
 49
1.25
 49
-.25
 49
.25
 49
-.25
 49
.25
 49
-.25
  0
ENDTAB
  0
TABLE
  2
LAYER
 70
1
  0
LAYER
  2
0
 70
0
 62
3
  6
CONTINUOUS
 0
ENDTAB
  0
TABLE
  2
STYLE
 70
2
  0
STYLE
  2
MONOTXT
 70
0
 40
0
 41
1
 50
0
 71
0
 42
.2
  3
monotxt
  0
STYLE
  2
BIGFONT
 70
0
 40
0
 41
1
 50
0
 71
0
 42
.2
  3
txt
  4
bigfont
  0
ENDTAB
  0
ENDSEC
  0
SECTION
  2
ENTITIES
  0
LINE
  8
0
  6
PHANTOM
 62
1
 10
6.49999454E+00
 20
2.51597213E+02
 11
6.49999454E+00
 21
-3.48365372E+01
  0
LINE
  8
0
  6
CENTER
 62
6
 10
1.52500011E+02
 20
1.81999982E+01
 11
1.52500011E+02
 21
2.28499982E+01
  0
LINE
  8
0
 62
4
 10
1.51250011E+02
 20
1.84999982E+01
 11
1.51250011E+02
 21
1.89999982E+01
  0
LINE
  8
0
 62
6
 10
1.51470011E+02
 20
1.84999982E+01
 11
1.51470011E+02
 21
1.89999982E+01
  0
LINE
  8
0
 62
6
 10
1.53520011E+02
 20
1.84999982E+01
 11
1.53520011E+02
 21
1.89999982E+01
  0
LINE
  8
0
 62
4
 10
1.53750011E+02
 20
1.84999982E+01
 11
1.53750011E+02
 21
1.89999982E+01
  0
LINE
  8
0
 62
4
 10
1.51250011E+02
 20
1.84999982E+01
 11
1.53750011E+02
 21
1.84999982E+01
  0
LINE
  8
0
  6
CENTER
 62
6
 10
-1.47499989E+02
 20
1.81999982E+01
 11
-1.47499989E+02
 21
2.28499982E+01
  0
LINE
  8
0
 62
4
 10
-1.48749989E+02
 20
1.84999982E+01
 11
-1.48749989E+02
 21
1.89999982E+01
  0
LINE
  8
0
 62
6
 10
-1.48529989E+02
 20
1.84999982E+01
 11
-1.48529989E+02
 21
1.89999982E+01
  0
LINE
  8
0
 62
6
 10
-1.46479989E+02
 20
1.84999982E+01
 11
-1.46479989E+02
 21
1.89999982E+01
  0
LINE
  8
0
 62
4
 10
-1.46249989E+02
 20
1.84999982E+01
 11
-1.46249989E+02
 21
1.89999982E+01
  0
LINE
  8
0
 62
4
 10
-1.48749989E+02
 20
1.84999982E+01
 11
-1.46249989E+02
 21
1.84999982E+01
  0
LINE
  8
0
  6
CENTER
 62
2
 10
-1.43499997E+02
 20
2.35846703E+02
 11
-1.43499997E+02
 21
1.39999982E+01
  0
LINE
  8
0
 62
7
 10
-2.46499996E+02
 20
2.22499992E+02
 11
-2.46499996E+02
 21
2.04999991E+01
  0
LINE
  8
0
 62
7
 10
-4.05000046E+01
 20
2.22499992E+02
 11
-4.05000046E+01
 21
2.04999991E+01
  0
LINE
  8
0
 62
7
 10
-2.86499999E+02
 20
2.24000008E+02
 11
-2.86499999E+02
 21
1.89999982E+01
  0
LINE
  8
0
  6
CENTER
 62
2
 10
1.56500003E+02
 20
2.35846703E+02
 11
1.56500003E+02
 21
1.39999982E+01
  0
LINE
  8
0
 62
7
 10
-2.51499996E+02
 20
2.05500004E+02
 11
-2.46499996E+02
 21
2.05500004E+02
  0
LINE
  8
0
 62
7
 10
-2.51499996E+02
 20
1.90500004E+02
 11
-2.46499996E+02
 21
1.90500004E+02
  0
LINE
  8
0
 62
7
 10
-4.05000046E+01
 20
2.05500004E+02
 11
2.64499995E+02
 21
2.05500004E+02
  0
LINE
  8
0
 62
7
 10
-4.05000046E+01
 20
1.90500004E+02
 11
2.64499995E+02
 21
1.90500004E+02
  0
LINE
  8
0
  6
CENTER
 62
2
 10
3.26500003E+02
 20
1.64999992E+02
 11
2.01500003E+02
 21
1.64999992E+02
  0
LINE
  8
0
 62
7
 10
-4.05000046E+01
 20
1.51500008E+02
 11
2.64499995E+02
 21
1.51500008E+02
  0
LINE
  8
0
 62
7
 10
-4.05000046E+01
 20
3.75000020E+01
 11
2.98500011E+02
 21
3.75000020E+01
  0
LINE
  8
0
 62
7
 10
-4.05000046E+01
 20
5.25000020E+01
 11
2.98500011E+02
 21
5.25000020E+01
  0
LINE
  8
0
 62
7
 10
-2.85499995E+02
 20
3.75000020E+01
 11
-2.46499996E+02
 21
3.75000020E+01
  0
LINE
  8
0
 62
7
 10
-2.85499995E+02
 20
3.75000020E+01
 11
-2.85499995E+02
 21
5.25000020E+01
  0
LINE
  8
0
 62
7
 10
-2.85499995E+02
 20
5.25000020E+01
 11
-2.46499996E+02
 21
5.25000020E+01
  0
LINE
  8
0
 62
7
 10
-2.51499996E+02
 20
2.11500008E+02
 11
-2.86499999E+02
 21
2.11500008E+02
  0
LINE
  8
0
 62
7
 10
-2.51499996E+02
 20
1.50999996E+02
 11
-2.86499999E+02
 21
1.50999996E+02
  0
LINE
  8
0
 62
7
 10
-2.75500000E+02
 20
1.50999996E+02
 11
-2.75500000E+02
 21
1.43000004E+02
  0
LINE
  8
0
 62
7
 10
-2.62499998E+02
 20
1.50999996E+02
 11
-2.62499998E+02
 21
1.43000004E+02
  0
LINE
  8
0
 62
7
 10
-2.62499998E+02
 20
1.43000004E+02
 11
-2.75500000E+02
 21
1.43000004E+02
  0
LINE
  8
0
 62
7
 10
-2.51499996E+02
 20
2.11500008E+02
 11
-2.51499996E+02
 21
1.49999992E+02
  0
LINE
  8
0
 62
7
 10
-2.51499996E+02
 20
1.64000008E+02
 11
-2.86499999E+02
 21
1.64000008E+02
  0
LINE
  8
0
 62
7
 10
-2.51499996E+02
 20
1.65999996E+02
 11
-2.86499999E+02
 21
1.65999996E+02
  0
LINE
  8
0
 62
2
 10
-2.72399991E+02
 20
1.65999996E+02
 11
-2.72399991E+02
 21
1.64000008E+02
  0
LINE
  8
0
 62
2
 10
-2.65600002E+02
 20
1.65999996E+02
 11
-2.65600002E+02
 21
1.64000008E+02
  0
LINE
  8
0
 62
7
 10
-2.64999998E+02
 20
1.65999996E+02
 11
-2.64999998E+02
 21
1.64000008E+02
  0
LINE
  8
0
 62
7
 10
-2.73000000E+02
 20
1.65999996E+02
 11
-2.73000000E+02
 21
1.64000008E+02
  0
LINE
  8
0
 62
7
 10
-2.77499996E+02
 20
1.77535881E+02
 11
-2.80500001E+02
 21
1.79267935E+02
  0
LINE
  8
0
 62
7
 10
-2.74499994E+02
 20
1.82732037E+02
 11
-2.77499999E+02
 21
1.84464090E+02
  0
LINE
  8
0
 62
7
 10
-2.77499995E+02
 20
1.84464106E+02
 11
-2.80499983E+02
 21
1.82732062E+02
  0
LINE
  8
0
 62
7
 10
-2.74499993E+02
 20
1.79267950E+02
 11
-2.77499981E+02
 21
1.77535906E+02
  0
LINE
  8
0
 62
7
 10
-2.63499997E+02
 20
1.79267952E+02
 11
-2.63499997E+02
 21
1.82732060E+02
  0
LINE
  8
0
 62
7
 10
-2.57499998E+02
 20
1.79267952E+02
 11
-2.57499998E+02
 21
1.82732060E+02
  0
LINE
  8
0
 62
7
 10
-2.60499984E+02
 20
1.84464108E+02
 11
-2.63499997E+02
 21
1.82732050E+02
  0
LINE
  8
0
 62
7
 10
-2.57499982E+02
 20
1.79267953E+02
 11
-2.60499995E+02
 21
1.77535894E+02
  0
LINE
  8
0
 62
7
 10
-2.60499993E+02
 20
1.77535883E+02
 11
-2.63499998E+02
 21
1.79267937E+02
  0
LINE
  8
0
 62
7
 10
-2.57499992E+02
 20
1.82732039E+02
 11
-2.60499997E+02
 21
1.84464093E+02
  0
LINE
  8
0
 62
7
 10
-2.74499996E+02
 20
1.79267952E+02
 11
-2.74499996E+02
 21
1.82732060E+02
  0
LINE
  8
0
 62
7
 10
-2.80500000E+02
 20
1.79267952E+02
 11
-2.80500000E+02
 21
1.82732060E+02
  0
LINE
  8
0
 62
7
 10
-2.46499996E+02
 20
1.74999992E+02
 11
-2.51499996E+02
 21
1.74999992E+02
  0
LINE
  8
0
 62
2
 10
-2.46499996E+02
 20
1.74000008E+02
 11
-2.51499996E+02
 21
1.74000008E+02
  0
LINE
  8
0
 62
2
 10
-2.46499996E+02
 20
1.55999996E+02
 11
-2.51499996E+02
 21
1.55999996E+02
  0
LINE
  8
0
 62
7
 10
-2.46499996E+02
 20
1.54999992E+02
 11
-2.51499996E+02
 21
1.54999992E+02
  0
LINE
  8
0
 62
7
 10
2.86000011E+02
 20
1.65999996E+02
 11
2.86000011E+02
 21
1.64000008E+02
  0
LINE
  8
0
 62
7
 10
2.78000018E+02
 20
1.65999996E+02
 11
2.78000018E+02
 21
1.64000008E+02
  0
LINE
  8
0
 62
2
 10
2.78599994E+02
 20
1.65999996E+02
 11
2.78599994E+02
 21
1.64000008E+02
  0
LINE
  8
0
 62
2
 10
2.85400035E+02
 20
1.65999996E+02
 11
2.85400035E+02
 21
1.64000008E+02
  0
LINE
  8
0
 62
7
 10
2.64499995E+02
 20
1.65999996E+02
 11
2.99499995E+02
 21
1.65999996E+02
  0
LINE
  8
0
 62
7
 10
2.64499995E+02
 20
1.64000008E+02
 11
2.99499995E+02
 21
1.64000008E+02
  0
LINE
  8
0
 62
7
 10
2.64499995E+02
 20
2.11500008E+02
 11
2.64499995E+02
 21
1.49999992E+02
  0
LINE
  8
0
 62
7
 10
2.64499995E+02
 20
1.50999996E+02
 11
2.99499995E+02
 21
1.50999996E+02
  0
LINE
  8
0
 62
7
 10
2.75500018E+02
 20
1.43000004E+02
 11
2.88500011E+02
 21
1.43000004E+02
  0
LINE
  8
0
 62
7
 10
2.75500018E+02
 20
1.50999996E+02
 11
2.75500018E+02
 21
1.43000004E+02
  0
LINE
  8
0
 62
7
 10
2.88500011E+02
 20
1.50999996E+02
 11
2.88500011E+02
 21
1.43000004E+02
  0
LINE
  8
0
 62
7
 10
2.64499995E+02
 20
2.11500008E+02
 11
2.99499995E+02
 21
2.11500008E+02
  0
LINE
  8
0
 62
7
 10
2.90499951E+02
 20
1.77535869E+02
 11
2.93499973E+02
 21
1.79267932E+02
  0
LINE
  8
0
 62
7
 10
2.87499950E+02
 20
1.82732023E+02
 11
2.90499972E+02
 21
1.84464086E+02
  0
LINE
  8
0
 62
7
 10
2.90500005E+02
 20
1.84464033E+02
 11
2.93500002E+02
 21
1.82731984E+02
  0
LINE
  8
0
 62
7
 10
2.87500013E+02
 20
1.79267894E+02
 11
2.90500010E+02
 21
1.77535845E+02
  0
LINE
  8
0
 62
7
 10
2.76500003E+02
 20
1.79267952E+02
 11
2.76500003E+02
 21
1.82732060E+02
  0
LINE
  8
0
 62
7
 10
2.70500018E+02
 20
1.79267952E+02
 11
2.70500018E+02
 21
1.82732060E+02
  0
LINE
  8
0
 62
7
 10
2.73499996E+02
 20
1.84464057E+02
 11
2.76500001E+02
 21
1.82732003E+02
  0
LINE
  8
0
 62
7
 10
2.70500003E+02
 20
1.79267918E+02
 11
2.73500008E+02
 21
1.77535864E+02
  0
LINE
  8
0
 62
7
 10
2.73499974E+02
 20
1.77535884E+02
 11
2.76499930E+02
 21
1.79267909E+02
  0
LINE
  8
0
 62
7
 10
2.70499975E+02
 20
1.82732035E+02
 11
2.73499930E+02
 21
1.84464061E+02
  0
LINE
  8
0
 62
7
 10
2.87500026E+02
 20
1.79267952E+02
 11
2.87500026E+02
 21
1.82732060E+02
  0
LINE
  8
0
 62
7
 10
2.93500011E+02
 20
1.79267952E+02
 11
2.93500011E+02
 21
1.82732060E+02
  0
LINE
  8
0
 62
7
 10
2.64499995E+02
 20
1.89000008E+02
 11
-4.05000046E+01
 21
1.89000008E+02
  0
LINE
  8
0
 62
7
 10
2.99499995E+02
 20
1.49999992E+02
 11
2.88500011E+02
 21
1.49999992E+02
  0
LINE
  8
0
 62
7
 10
2.99499995E+02
 20
6.64999982E+01
 11
-4.05000046E+01
 21
6.64999982E+01
  0
LINE
  8
0
 62
7
 10
2.99499995E+02
 20
5.39999982E+01
 11
-4.05000046E+01
 21
5.39999982E+01
  0
LINE
  8
0
 62
7
 10
-2.51499996E+02
 20
1.49999992E+02
 11
-2.62499998E+02
 21
1.49999992E+02
  0
LINE
  8
0
 62
7
 10
-2.46499996E+02
 20
6.64999982E+01
 11
-2.86499999E+02
 21
6.64999982E+01
  0
LINE
  8
0
 62
7
 10
-2.46499996E+02
 20
5.39999982E+01
 11
-2.86499999E+02
 21
5.39999982E+01
  0
LINE
  8
0
 62
7
 10
2.98500011E+02
 20
3.75000020E+01
 11
2.98500011E+02
 21
5.25000020E+01
  0
LINE
  8
0
 62
7
 10
2.26999998E+02
 20
1.55999986E+02
 11
2.28000001E+02
 21
1.54999982E+02
  0
LINE
  8
0
 62
7
 10
2.22500007E+02
 20
1.55999996E+02
 11
2.27000014E+02
 21
1.55999996E+02
  0
LINE
  8
0
 62
7
 10
2.22500007E+02
 20
1.74000008E+02
 11
2.22500007E+02
 21
1.55999996E+02
  0
LINE
  8
0
 62
7
 10
2.27000014E+02
 20
1.74000008E+02
 11
2.27000014E+02
 21
1.55999996E+02
  0
LINE
  8
0
 62
7
 10
2.27000025E+02
 20
1.74000019E+02
 11
2.28000004E+02
 21
1.74999998E+02
  0
LINE
  8
0
 62
2
 10
2.27000014E+02
 20
1.74000008E+02
 11
2.64499995E+02
 21
1.74000008E+02
  0
LINE
  8
0
 62
2
 10
2.27000014E+02
 20
1.55999996E+02
 11
2.64499995E+02
 21
1.55999996E+02
  0
LINE
  8
0
 62
7
 10
2.22500007E+02
 20
1.74000008E+02
 11
2.27000014E+02
 21
1.74000008E+02
  0
LINE
  8
0
 62
7
 10
2.28000018E+02
 20
1.54999992E+02
 11
2.64499995E+02
 21
1.54999992E+02
  0
LINE
  8
0
 62
7
 10
2.28000018E+02
 20
1.74999992E+02
 11
2.64499995E+02
 21
1.74999992E+02
  0
LINE
  8
0
 62
7
 10
2.22500007E+02
 20
1.62000000E+02
 11
2.07500007E+02
 21
1.62000000E+02
  0
LINE
  8
0
 62
7
 10
2.22500007E+02
 20
1.68000004E+02
 11
2.07500007E+02
 21
1.68000004E+02
  0
LINE
  8
0
 62
7
 10
2.06500003E+02
 20
1.67000000E+02
 11
2.06500003E+02
 21
1.63000004E+02
  0
LINE
  8
0
 62
7
 10
2.06500013E+02
 20
1.67000001E+02
 11
2.07499992E+02
 21
1.67999980E+02
  0
LINE
  8
0
 62
7
 10
2.06500030E+02
 20
1.63000013E+02
 11
2.07500031E+02
 21
1.62000012E+02
  0
LINE
  8
0
 62
7
 10
-2.51499996E+02
 20
1.51500008E+02
 11
-2.46499996E+02
 21
1.51500008E+02
  0
LINE
  8
0
 62
7
 10
-2.75500000E+02
 20
1.49999992E+02
 11
-2.86499999E+02
 21
1.49999992E+02
  0
LINE
  8
0
 62
7
 10
-3.08499997E+02
 20
2.18000004E+02
 11
-3.08499997E+02
 21
2.50000020E+01
  0
LINE
  8
0
  6
CENTER
 62
2
 10
-2.83749998E+02
 20
2.04000008E+02
 11
-3.11250003E+02
 21
2.04000008E+02
  0
LINE
  8
0
  6
CENTER
 62
2
 10
-2.97500003E+02
 20
2.17750008E+02
 11
-2.97500003E+02
 21
1.90250008E+02
  0
LINE
  8
0
  6
CENTER
 62
2
 10
-2.83749998E+02
 20
3.89999982E+01
 11
-3.11250003E+02
 21
3.89999982E+01
  0
LINE
  8
0
  6
CENTER
 62
2
 10
-2.97500003E+02
 20
5.27499982E+01
 11
-2.97500003E+02
 21
2.52499982E+01
  0
LINE
  8
0
 62
7
 10
3.21500003E+02
 20
2.18000004E+02
 11
3.21500003E+02
 21
2.50000020E+01
  0
LINE
  8
0
  6
CENTER
 62
2
 10
2.96750018E+02
 20
3.89999982E+01
 11
3.24250018E+02
 21
3.89999982E+01
  0
LINE
  8
0
  6
CENTER
 62
2
 10
2.96750018E+02
 20
2.04000008E+02
 11
3.24250018E+02
 21
2.04000008E+02
  0
LINE
  8
0
  6
CENTER
 62
2
 10
3.10500018E+02
 20
2.17750008E+02
 11
3.10500018E+02
 21
1.90250008E+02
  0
LINE
  8
0
  6
CENTER
 62
2
 10
3.10500018E+02
 20
5.27499982E+01
 11
3.10500018E+02
 21
2.52499982E+01
  0
LINE
  8
0
 62
7
 10
-4.05000046E+01
 20
1.85250008E+02
 11
2.64499995E+02
 21
1.85250008E+02
  0
LINE
  8
0
 62
7
 10
-4.05000046E+01
 20
1.76750004E+02
 11
2.64499995E+02
 21
1.76750004E+02
  0
LINE
  8
0
 62
7
 10
-2.51499996E+02
 20
1.85250008E+02
 11
-2.46499996E+02
 21
1.85250008E+02
  0
LINE
  8
0
 62
7
 10
-2.51499996E+02
 20
1.76750004E+02
 11
-2.46499996E+02
 21
1.76750004E+02
  0
LINE
  8
0
 62
7
 10
-2.85499995E+02
 20
4.33000012E+01
 11
-2.86499999E+02
 21
4.33000012E+01
  0
LINE
  8
0
 62
7
 10
-2.85499995E+02
 20
4.66999932E+01
 11
-2.86499999E+02
 21
4.66999932E+01
  0
LINE
  8
0
 62
7
 10
2.99499995E+02
 20
4.66999932E+01
 11
2.98500011E+02
 21
4.66999932E+01
  0
LINE
  8
0
 62
7
 10
2.99499995E+02
 20
4.33000012E+01
 11
2.98500011E+02
 21
4.33000012E+01
  0
LINE
  8
0
 62
7
 10
-2.46499996E+02
 20
2.22499992E+02
 11
-4.05000046E+01
 21
2.22499992E+02
  0
LINE
  8
0
 62
7
 10
2.75500018E+02
 20
1.49999992E+02
 11
2.64499995E+02
 21
1.49999992E+02
  0
LINE
  8
0
 62
7
 10
-2.86499999E+02
 20
1.89999982E+01
 11
2.99499995E+02
 21
1.89999982E+01
  0
LINE
  8
0
 62
7
 10
-2.86499999E+02
 20
2.50000020E+01
 11
-2.46499996E+02
 21
2.50000020E+01
  0
LINE
  8
0
 62
7
 10
-2.86499999E+02
 20
2.95000001E+01
 11
-2.46499996E+02
 21
2.95000001E+01
  0
LINE
  8
0
 62
7
 10
-4.05000046E+01
 20
2.95000001E+01
 11
2.99499995E+02
 21
2.95000001E+01
  0
LINE
  8
0
 62
7
 10
-4.05000046E+01
 20
2.50000020E+01
 11
2.99499995E+02
 21
2.50000020E+01
  0
LINE
  8
0
 62
7
 10
-2.46499996E+02
 20
2.04999991E+01
 11
-4.05000046E+01
 21
2.04999991E+01
  0
LINE
  8
0
 62
7
 10
2.99499995E+02
 20
3.30000039E+01
 11
-4.05000046E+01
 21
3.30000039E+01
  0
LINE
  8
0
 62
7
 10
-2.46499996E+02
 20
3.30000039E+01
 11
-2.86499999E+02
 21
3.30000039E+01
  0
LINE
  8
0
 62
7
 10
3.21500003E+02
 20
2.50000020E+01
 11
2.99499995E+02
 21
2.50000020E+01
  0
LINE
  8
0
 62
7
 10
-3.08499997E+02
 20
2.50000020E+01
 11
-2.86499999E+02
 21
2.50000020E+01
  0
LINE
  8
0
 62
7
 10
-2.86499999E+02
 20
2.18000004E+02
 11
-3.08499997E+02
 21
2.18000004E+02
  0
LINE
  8
0
 62
7
 10
-2.86499999E+02
 20
2.24000008E+02
 11
2.99499995E+02
 21
2.24000008E+02
  0
LINE
  8
0
 62
7
 10
-4.05000046E+01
 20
2.18000004E+02
 11
2.99499995E+02
 21
2.18000004E+02
  0
LINE
  8
0
 62
7
 10
-4.05000046E+01
 20
2.13499996E+02
 11
2.99499995E+02
 21
2.13499996E+02
  0
LINE
  8
0
 62
7
 10
-2.86499999E+02
 20
2.13499996E+02
 11
-2.46499996E+02
 21
2.13499996E+02
  0
LINE
  8
0
 62
7
 10
-2.86499999E+02
 20
2.18000004E+02
 11
-2.46499996E+02
 21
2.18000004E+02
  0
LINE
  8
0
 62
7
 10
3.21500003E+02
 20
2.18000004E+02
 11
2.99499995E+02
 21
2.18000004E+02
  0
LINE
  8
0
 62
7
 10
2.99499995E+02
 20
2.24000008E+02
 11
2.99499995E+02
 21
1.89999982E+01
  0
LINE
  8
0
  6
CENTER
 62
2
 10
-2.38499997E+02
 20
1.98499996E+02
 11
-4.84999969E+01
 21
1.98499996E+02
  0
LINE
  8
0
  6
CENTER
 62
2
 10
-5.84999969E+01
 20
2.08499996E+02
 11
-5.84999969E+01
 21
1.88499996E+02
  0
LINE
  8
0
  6
CENTER
 62
2
 10
-2.28499997E+02
 20
2.08499996E+02
 11
-2.28499997E+02
 21
1.88499996E+02
  0
LINE
  8
0
  6
CENTER
 62
2
 10
-2.38499997E+02
 20
4.45000001E+01
 11
-4.84999969E+01
 21
4.45000001E+01
  0
LINE
  8
0
  6
CENTER
 62
2
 10
-5.84999969E+01
 20
5.45000001E+01
 11
-5.84999969E+01
 21
3.45000001E+01
  0
LINE
  8
0
  6
CENTER
 62
2
 10
-2.28499997E+02
 20
5.45000001E+01
 11
-2.28499997E+02
 21
3.45000001E+01
  0
LINE
  8
0
 62
7
 10
-2.46499996E+02
 20
5.29999848E+01
 11
-4.05000046E+01
 21
5.29999848E+01
  0
LINE
  8
0
 62
7
 10
-2.46499996E+02
 20
1.90000031E+02
 11
-4.05000046E+01
 21
1.90000031E+02
  0
LINE
  8
0
 62
7
 10
2.99499995E+02
 20
8.87000008E+01
 11
-4.05000046E+01
 21
8.87000008E+01
  0
LINE
  8
0
 62
7
 10
2.99499995E+02
 20
1.30299999E+02
 11
-4.05000046E+01
 21
1.30299999E+02
  0
LINE
  8
0
 62
7
 10
-2.46499996E+02
 20
1.30299999E+02
 11
-2.86499999E+02
 21
1.30299999E+02
  0
LINE
  8
0
 62
7
 10
-2.46499996E+02
 20
8.87000008E+01
 11
-2.86499999E+02
 21
8.87000008E+01
  0
ARC
  8
0
 62
7
 10
-2.84499996E+02
 20
1.49500000E+02
 40
2.00000003E+00
 50
1.65522490E+02
 51
1.80000005E+02
  0
CIRCLE
  8
0
 62
7
 10
-2.60500000E+02
 20
1.80999996E+02
 40
6.99999988E+00
  0
CIRCLE
  8
0
 62
7
 10
-2.77499998E+02
 20
1.80999996E+02
 40
6.99999988E+00
  0
CIRCLE
  8
0
 62
7
 10
-2.77499998E+02
 20
1.80999996E+02
 40
6.49999976E+00
  0
CIRCLE
  8
0
 62
7
 10
-2.60500000E+02
 20
1.80999996E+02
 40
6.49999976E+00
  0
CIRCLE
  8
0
 62
7
 10
2.90500018E+02
 20
1.80999996E+02
 40
6.99999988E+00
  0
CIRCLE
  8
0
 62
7
 10
2.73500011E+02
 20
1.80999996E+02
 40
6.99999988E+00
  0
CIRCLE
  8
0
 62
7
 10
2.90500018E+02
 20
1.80999996E+02
 40
6.49999976E+00
  0
CIRCLE
  8
0
 62
7
 10
2.73500011E+02
 20
1.80999996E+02
 40
6.49999976E+00
  0
CIRCLE
  8
0
 62
6
 10
-2.28499997E+02
 20
1.98499996E+02
 40
5.00000000E+00
  0
CIRCLE
  8
0
 62
6
 10
-5.84999969E+01
 20
1.98499996E+02
 40
5.00000000E+00
  0
CIRCLE
  8
0
 62
6
 10
-5.84999969E+01
 20
4.45000001E+01
 40
5.00000000E+00
  0
CIRCLE
  8
0
 62
6
 10
-2.28499997E+02
 20
4.45000001E+01
 40
5.00000000E+00
  0
CIRCLE
  8
0
 62
4
 10
-2.28499997E+02
 20
4.45000001E+01
 40
4.25000012E+00
  0
CIRCLE
  8
0
 62
4
 10
-5.84999969E+01
 20
4.45000001E+01
 40
4.25000012E+00
  0
CIRCLE
  8
0
 62
4
 10
-5.84999969E+01
 20
1.98499996E+02
 40
4.25000012E+00
  0
CIRCLE
  8
0
 62
4
 10
-2.28499997E+02
 20
1.98499996E+02
 40
4.25000012E+00
  0
CIRCLE
  8
0
 62
7
 10
-2.97500003E+02
 20
2.04000008E+02
 40
5.50000012E+00
  0
CIRCLE
  8
0
 62
7
 10
-2.97500003E+02
 20
2.04000008E+02
 40
8.75000000E+00
  0
CIRCLE
  8
0
 62
7
 10
-2.97500003E+02
 20
3.89999982E+01
 40
8.75000000E+00
  0
CIRCLE
  8
0
 62
7
 10
-2.97500003E+02
 20
3.89999982E+01
 40
5.50000012E+00
  0
CIRCLE
  8
0
 62
7
 10
3.10500018E+02
 20
3.89999982E+01
 40
5.50000012E+00
  0
CIRCLE
  8
0
 62
7
 10
3.10500018E+02
 20
2.04000008E+02
 40
8.75000000E+00
  0
CIRCLE
  8
0
 62
7
 10
3.10500018E+02
 20
3.89999982E+01
 40
8.75000000E+00
  0
CIRCLE
  8
0
 62
7
 10
3.10500018E+02
 20
2.04000008E+02
 40
5.50000012E+00
  0
LINE
  8
0
  6
CENTER
 62
6
 10
-1.51864424E+02
 20
1.99499996E+02
 11
-1.35963265E+02
 21
1.99499996E+02
  0
LINE
  8
0
  6
CENTER
 62
6
 10
-1.51864424E+02
 20
1.97499996E+02
 11
-1.35963265E+02
 21
1.97499996E+02
  0
LINE
  8
0
 62
4
 10
-1.38499997E+02
 20
1.99499996E+02
 11
-1.38499997E+02
 21
1.97499996E+02
  0
LINE
  8
0
 62
4
 10
-1.48499997E+02
 20
1.99499996E+02
 11
-1.48499997E+02
 21
1.97499996E+02
  0
ARC
  8
0
 62
4
 10
-1.43499997E+02
 20
1.99499996E+02
 40
5.00000000E+00
 50
0.00000000E+00
 51
1.80000000E+02
  0
ARC
  8
0
 62
4
 10
-1.43499997E+02
 20
1.97499996E+02
 40
5.00000000E+00
 50
1.80000000E+02
 51
0.00000000E+00
  0
CIRCLE
  8
0
 62
4
 10
-1.43499997E+02
 20
4.45000001E+01
 40
5.00000000E+00
  0
LINE
  8
0
 62
7
 10
2.07500007E+02
 20
1.68000004E+02
 11
2.07500007E+02
 21
1.62000000E+02
  0
LINE
  8
0
  6
CENTER
 62
6
 10
-4.13899999E+02
 20
1.69499982E+01
 11
-4.13899999E+02
 21
2.39199982E+01
  0
LINE
  8
0
 62
4
 10
-4.11849999E+02
 20
1.99999982E+01
 11
-4.11849999E+02
 21
2.15499982E+01
  0
LINE
  8
0
 62
4
 10
-4.11849999E+02
 20
1.99999982E+01
 11
-4.12399999E+02
 21
1.94499982E+01
  0
LINE
  8
0
 62
4
 10
-4.12399999E+02
 20
1.89999982E+01
 11
-4.12399999E+02
 21
1.94499982E+01
  0
LINE
  8
0
 62
4
 10
-4.12399999E+02
 20
1.89999982E+01
 11
-4.15399999E+02
 21
1.89999982E+01
  0
LINE
  8
0
 62
4
 10
-4.15399999E+02
 20
1.89999982E+01
 11
-4.15399999E+02
 21
1.94499982E+01
  0
LINE
  8
0
 62
4
 10
-4.15949999E+02
 20
1.99999982E+01
 11
-4.15399999E+02
 21
1.94499982E+01
  0
LINE
  8
0
 62
4
 10
-4.15949999E+02
 20
1.99999982E+01
 11
-4.15949999E+02
 21
2.15499982E+01
  0
LINE
  8
0
 62
4
 10
-4.11849999E+02
 20
2.07999982E+01
 11
-4.15949999E+02
 21
2.07999982E+01
  0
LINE
  8
0
 62
4
 10
-4.11849999E+02
 20
2.15899982E+01
 11
-4.15949999E+02
 21
2.15899982E+01
  0
LINE
  8
0
 62
4
 10
-4.12879999E+02
 20
2.29999982E+01
 11
-4.14919999E+02
 21
2.29999982E+01
  0
LINE
  8
0
 62
4
 10
-4.14919999E+02
 20
2.29999982E+01
 11
-4.15149999E+02
 21
2.27699982E+01
  0
LINE
  8
0
 62
4
 10
-4.12879999E+02
 20
2.29999982E+01
 11
-4.12649999E+02
 21
2.27699982E+01
  0
LINE
  8
0
 62
4
 10
-4.12649999E+02
 20
2.15899982E+01
 11
-4.12649999E+02
 21
2.27699982E+01
  0
LINE
  8
0
 62
6
 10
-4.12879999E+02
 20
2.15899982E+01
 11
-4.12879999E+02
 21
2.29999982E+01
  0
LINE
  8
0
 62
6
 10
-4.14919999E+02
 20
2.15899982E+01
 11
-4.14919999E+02
 21
2.29999982E+01
  0
LINE
  8
0
 62
4
 10
-4.15149999E+02
 20
2.15899982E+01
 11
-4.15149999E+02
 21
2.27699982E+01
  0
LINE
  8
0
 62
4
 10
-4.12649999E+02
 20
2.27699982E+01
 11
-4.15149999E+02
 21
2.27699982E+01
  0
LINE
  8
0
 62
4
 10
-4.12649999E+02
 20
1.84999982E+01
 11
-4.12649999E+02
 21
1.89999982E+01
  0
LINE
  8
0
 62
6
 10
-4.12879999E+02
 20
1.84999982E+01
 11
-4.12879999E+02
 21
1.89999982E+01
  0
LINE
  8
0
 62
6
 10
-4.14919999E+02
 20
1.84999982E+01
 11
-4.14919999E+02
 21
1.89999982E+01
  0
LINE
  8
0
 62
4
 10
-4.15149999E+02
 20
1.84999982E+01
 11
-4.15149999E+02
 21
1.89999982E+01
  0
LINE
  8
0
 62
4
 10
-4.12649999E+02
 20
1.84999982E+01
 11
-4.15149999E+02
 21
1.84999982E+01
  0
ARC
  8
0
 62
4
 10
-4.13900001E+02
 20
2.15499959E+01
 40
2.05000229E+00
 50
6.39705167E-05
 51
9.00000002E+01
  0
ARC
  8
0
 62
4
 10
-4.13899996E+02
 20
2.15499959E+01
 40
2.05000229E+00
 50
9.00000002E+01
 51
1.79999936E+02
  0
LINE
  8
0
  6
CENTER
 62
6
 10
-4.19399972E+02
 20
1.69499982E+01
 11
-4.19399972E+02
 21
2.39199982E+01
  0
LINE
  8
0
 62
4
 10
-4.17349972E+02
 20
1.99999982E+01
 11
-4.17349972E+02
 21
2.15499982E+01
  0
LINE
  8
0
 62
4
 10
-4.17349972E+02
 20
1.99999982E+01
 11
-4.17899972E+02
 21
1.94499982E+01
  0
LINE
  8
0
 62
4
 10
-4.17899972E+02
 20
1.89999982E+01
 11
-4.17899972E+02
 21
1.94499982E+01
  0
LINE
  8
0
 62
4
 10
-4.17899972E+02
 20
1.89999982E+01
 11
-4.20899972E+02
 21
1.89999982E+01
  0
LINE
  8
0
 62
4
 10
-4.20899972E+02
 20
1.89999982E+01
 11
-4.20899972E+02
 21
1.94499982E+01
  0
LINE
  8
0
 62
4
 10
-4.21449972E+02
 20
1.99999982E+01
 11
-4.20899972E+02
 21
1.94499982E+01
  0
LINE
  8
0
 62
4
 10
-4.21449972E+02
 20
1.99999982E+01
 11
-4.21449972E+02
 21
2.15499982E+01
  0
LINE
  8
0
 62
4
 10
-4.17349972E+02
 20
2.07999982E+01
 11
-4.21449972E+02
 21
2.07999982E+01
  0
LINE
  8
0
 62
4
 10
-4.17349972E+02
 20
2.15899982E+01
 11
-4.21449972E+02
 21
2.15899982E+01
  0
LINE
  8
0
 62
4
 10
-4.18379972E+02
 20
2.29999982E+01
 11
-4.20419972E+02
 21
2.29999982E+01
  0
LINE
  8
0
 62
4
 10
-4.20419972E+02
 20
2.29999982E+01
 11
-4.20649972E+02
 21
2.27699982E+01
  0
LINE
  8
0
 62
4
 10
-4.18379972E+02
 20
2.29999982E+01
 11
-4.18149972E+02
 21
2.27699982E+01
  0
LINE
  8
0
 62
4
 10
-4.18149972E+02
 20
2.15899982E+01
 11
-4.18149972E+02
 21
2.27699982E+01
  0
LINE
  8
0
 62
6
 10
-4.18379972E+02
 20
2.15899982E+01
 11
-4.18379972E+02
 21
2.29999982E+01
  0
LINE
  8
0
 62
6
 10
-4.20419972E+02
 20
2.15899982E+01
 11
-4.20419972E+02
 21
2.29999982E+01
  0
LINE
  8
0
 62
4
 10
-4.20649972E+02
 20
2.15899982E+01
 11
-4.20649972E+02
 21
2.27699982E+01
  0
LINE
  8
0
 62
4
 10
-4.18149972E+02
 20
2.27699982E+01
 11
-4.20649972E+02
 21
2.27699982E+01
  0
LINE
  8
0
 62
4
 10
-4.18149972E+02
 20
1.84999982E+01
 11
-4.18149972E+02
 21
1.89999982E+01
  0
LINE
  8
0
 62
6
 10
-4.18379972E+02
 20
1.84999982E+01
 11
-4.18379972E+02
 21
1.89999982E+01
  0
LINE
  8
0
 62
6
 10
-4.20419972E+02
 20
1.84999982E+01
 11
-4.20419972E+02
 21
1.89999982E+01
  0
LINE
  8
0
 62
4
 10
-4.20649972E+02
 20
1.84999982E+01
 11
-4.20649972E+02
 21
1.89999982E+01
  0
LINE
  8
0
 62
4
 10
-4.18149972E+02
 20
1.84999982E+01
 11
-4.20649972E+02
 21
1.84999982E+01
  0
ARC
  8
0
 62
4
 10
-4.19399974E+02
 20
2.15499959E+01
 40
2.05000229E+00
 50
6.39705167E-05
 51
9.00000002E+01
  0
ARC
  8
0
 62
4
 10
-4.19399970E+02
 20
2.15499959E+01
 40
2.05000229E+00
 50
9.00000002E+01
 51
1.79999936E+02
  0
LINE
  8
0
  6
CENTER
 62
2
 10
-4.85500007E+02
 20
3.89999982E+01
 11
-4.75500007E+02
 21
3.89999982E+01
  0
LINE
  8
0
  6
CENTER
 62
2
 10
-4.85500007E+02
 20
2.04000008E+02
 11
-4.75500007E+02
 21
2.04000008E+02
  0
LINE
  8
0
 62
7
 10
-3.86499991E+02
 20
1.89000008E+02
 11
-3.86499991E+02
 21
5.39999982E+01
  0
LINE
  8
0
 62
7
 10
-3.85500007E+02
 20
2.22499992E+02
 11
-3.85500007E+02
 21
1.89999992E+02
  0
LINE
  8
0
 62
7
 10
-3.85500007E+02
 20
5.30000039E+01
 11
-3.85500007E+02
 21
2.04999991E+01
  0
LINE
  8
0
 62
7
 10
-3.86500009E+02
 20
5.40000004E+01
 11
-3.85499989E+02
 21
5.29999805E+01
  0
LINE
  8
0
 62
7
 10
-3.86499994E+02
 20
1.89000024E+02
 11
-3.85499993E+02
 21
1.90000025E+02
  0
LINE
  8
0
 62
7
 10
-3.87499995E+02
 20
2.18000004E+02
 11
-3.87499995E+02
 21
2.50000020E+01
  0
LINE
  8
0
 62
7
 10
-4.07000003E+02
 20
2.50000020E+01
 11
-4.07000003E+02
 21
2.04999991E+01
  0
LINE
  8
0
  6
CENTER
 62
2
 10
-4.48999991E+02
 20
4.57500001E+01
 11
-4.48999991E+02
 21
6.92500039E+01
  0
LINE
  8
0
  6
CENTER
 62
2
 10
-4.37249999E+02
 20
5.75000020E+01
 11
-4.60750003E+02
 21
5.75000020E+01
  0
LINE
  8
0
 62
7
 10
-3.85500007E+02
 20
2.22499992E+02
 11
-4.07000003E+02
 21
2.22499992E+02
  0
LINE
  8
0
 62
7
 10
-3.85500007E+02
 20
2.04999991E+01
 11
-4.07000003E+02
 21
2.04999991E+01
  0
LINE
  8
0
 62
7
 10
-4.80500007E+02
 20
2.50000020E+01
 11
-4.80500007E+02
 21
2.18000004E+02
  0
LINE
  8
0
 62
7
 10
-4.07000003E+02
 20
2.18000004E+02
 11
-4.07000003E+02
 21
2.22499992E+02
  0
LINE
  8
0
 62
7
 10
-4.24385619E+02
 20
2.08000012E+01
 11
-4.25999961E+02
 21
2.08000012E+01
  0
LINE
  8
0
 62
7
 10
-4.17799983E+02
 20
1.95000001E+01
 11
-4.17799983E+02
 21
1.89999982E+01
  0
LINE
  8
0
 62
7
 10
-4.23635383E+02
 20
2.36000081E+01
 11
-4.25999961E+02
 21
2.36000081E+01
  0
LINE
  8
0
 62
7
 10
-4.12299991E+02
 20
1.95000001E+01
 11
-4.12299991E+02
 21
1.89999982E+01
  0
LINE
  8
0
 62
7
 10
-4.16000004E+02
 20
1.99999899E+01
 11
-4.15500014E+02
 21
1.95000002E+01
  0
LINE
  8
0
 62
7
 10
-4.20999961E+02
 20
1.95000001E+01
 11
-4.20999961E+02
 21
1.89999982E+01
  0
LINE
  8
0
 62
7
 10
-4.15999999E+02
 20
2.16000052E+01
 11
-4.15999999E+02
 21
2.00000020E+01
  0
LINE
  8
0
 62
7
 10
-4.22999977E+02
 20
1.99999880E+01
 11
-4.24385616E+02
 21
2.07999872E+01
  0
LINE
  8
0
 62
7
 10
-4.10500007E+02
 20
1.89999982E+01
 11
-4.12299991E+02
 21
1.89999982E+01
  0
LINE
  8
0
 62
7
 10
-4.11799979E+02
 20
2.00000020E+01
 11
-4.11799979E+02
 21
2.16000052E+01
  0
LINE
  8
0
 62
7
 10
-4.28699985E+02
 20
2.35000010E+01
 11
-4.28699985E+02
 21
2.20000001E+01
  0
LINE
  8
0
 62
7
 10
-4.21499972E+02
 20
2.00000020E+01
 11
-4.22999969E+02
 21
2.00000020E+01
  0
LINE
  8
0
 62
7
 10
-4.22249733E+02
 20
2.27999982E+01
 11
-4.23635372E+02
 21
2.35999975E+01
  0
LINE
  8
0
 62
7
 10
-4.15500007E+02
 20
1.95000001E+01
 11
-4.15500007E+02
 21
1.89999982E+01
  0
LINE
  8
0
 62
7
 10
-4.11800000E+02
 20
1.99999832E+01
 11
-4.12299989E+02
 21
1.94999935E+01
  0
LINE
  8
0
 62
7
 10
-4.15500007E+02
 20
1.89999982E+01
 11
-4.17799983E+02
 21
1.89999982E+01
  0
LINE
  8
0
 62
7
 10
-4.21123347E+02
 20
2.28000041E+01
 11
-4.22249732E+02
 21
2.28000041E+01
  0
LINE
  8
0
 62
7
 10
-4.10500007E+02
 20
1.89999982E+01
 11
-4.10500007E+02
 21
2.20000001E+01
  0
LINE
  8
0
 62
7
 10
-4.21499992E+02
 20
1.99999967E+01
 11
-4.20999989E+02
 21
1.94999935E+01
  0
LINE
  8
0
 62
7
 10
-4.20999961E+02
 20
1.89999982E+01
 11
-4.23267951E+02
 21
1.89999982E+01
  0
LINE
  8
0
 62
7
 10
-4.23267930E+02
 20
1.89999913E+01
 11
-4.24133975E+02
 21
1.95000027E+01
  0
LINE
  8
0
 62
7
 10
-4.24133964E+02
 20
1.95000001E+01
 11
-4.26199985E+02
 21
1.95000001E+01
  0
LINE
  8
0
 62
7
 10
-4.17299991E+02
 20
2.00000020E+01
 11
-4.17299991E+02
 21
2.16000052E+01
  0
LINE
  8
0
 62
7
 10
-4.17299995E+02
 20
2.00000102E+01
 11
-4.17799998E+02
 21
1.95000070E+01
  0
LINE
  8
0
 62
7
 10
-3.87499995E+02
 20
2.50000020E+01
 11
-4.80500007E+02
 21
2.50000020E+01
  0
LINE
  8
0
 62
7
 10
-3.87499995E+02
 20
2.18000004E+02
 11
-4.80500007E+02
 21
2.18000004E+02
  0
LINE
  8
0
 62
7
 10
-4.17299993E+02
 20
2.23000001E+02
 11
-4.17799982E+02
 21
2.23499991E+02
  0
LINE
  8
0
 62
7
 10
-4.17299991E+02
 20
2.23000004E+02
 11
-4.17299991E+02
 21
2.21399986E+02
  0
LINE
  8
0
 62
7
 10
-4.24133964E+02
 20
2.23499996E+02
 11
-4.26199985E+02
 21
2.23499996E+02
  0
LINE
  8
0
 62
7
 10
-4.23267929E+02
 20
2.24000014E+02
 11
-4.24133982E+02
 21
2.23499998E+02
  0
LINE
  8
0
 62
7
 10
-4.20999961E+02
 20
2.24000008E+02
 11
-4.23267951E+02
 21
2.24000008E+02
  0
LINE
  8
0
 62
7
 10
-4.21499999E+02
 20
2.23000006E+02
 11
-4.20999987E+02
 21
2.23500018E+02
  0
LINE
  8
0
 62
7
 10
-4.10500007E+02
 20
2.24000008E+02
 11
-4.10500007E+02
 21
2.20999996E+02
  0
LINE
  8
0
 62
7
 10
-4.21123347E+02
 20
2.20200016E+02
 11
-4.22249732E+02
 21
2.20200016E+02
  0
LINE
  8
0
 62
7
 10
-4.15500007E+02
 20
2.24000008E+02
 11
-4.17799983E+02
 21
2.24000008E+02
  0
LINE
  8
0
 62
7
 10
-4.11800014E+02
 20
2.23000039E+02
 11
-4.12300003E+02
 21
2.23500029E+02
  0
LINE
  8
0
 62
7
 10
-4.15500007E+02
 20
2.23499996E+02
 11
-4.15500007E+02
 21
2.24000008E+02
  0
LINE
  8
0
 62
7
 10
-4.22249727E+02
 20
2.20199999E+02
 11
-4.23635375E+02
 21
2.19399995E+02
  0
LINE
  8
0
 62
7
 10
-4.21499972E+02
 20
2.23000004E+02
 11
-4.22999969E+02
 21
2.23000004E+02
  0
LINE
  8
0
 62
7
 10
-4.28699985E+02
 20
2.19500000E+02
 11
-4.28699985E+02
 21
2.20999996E+02
  0
LINE
  8
0
 62
7
 10
-4.11799979E+02
 20
2.23000004E+02
 11
-4.11799979E+02
 21
2.21399986E+02
  0
LINE
  8
0
 62
7
 10
-4.10500007E+02
 20
2.24000008E+02
 11
-4.12299991E+02
 21
2.24000008E+02
  0
LINE
  8
0
 62
7
 10
-4.22999983E+02
 20
2.23000029E+02
 11
-4.24385631E+02
 21
2.22200025E+02
  0
LINE
  8
0
 62
7
 10
-4.15999999E+02
 20
2.21399986E+02
 11
-4.15999999E+02
 21
2.23000004E+02
  0
LINE
  8
0
 62
7
 10
-4.20999961E+02
 20
2.23499996E+02
 11
-4.20999961E+02
 21
2.24000008E+02
  0
LINE
  8
0
 62
7
 10
-4.15999993E+02
 20
2.23000017E+02
 11
-4.15500003E+02
 21
2.23500007E+02
  0
LINE
  8
0
 62
7
 10
-4.12299991E+02
 20
2.23499996E+02
 11
-4.12299991E+02
 21
2.24000008E+02
  0
LINE
  8
0
 62
7
 10
-4.23635383E+02
 20
2.19399998E+02
 11
-4.25999961E+02
 21
2.19399998E+02
  0
LINE
  8
0
 62
7
 10
-4.17799983E+02
 20
2.23499996E+02
 11
-4.17799983E+02
 21
2.24000008E+02
  0
LINE
  8
0
 62
7
 10
-4.24385619E+02
 20
2.22200005E+02
 11
-4.25999961E+02
 21
2.22200005E+02
  0
LINE
  8
0
  6
CENTER
 62
2
 10
-4.16750007E+02
 20
1.09500000E+02
 11
-4.40249991E+02
 21
1.09500000E+02
  0
LINE
  8
0
  6
CENTER
 62
2
 10
-4.28499999E+02
 20
1.21249992E+02
 11
-4.28499999E+02
 21
9.77499982E+01
  0
LINE
  8
0
 62
7
 10
-4.32499976E+02
 20
2.19000008E+02
 11
-4.32499976E+02
 21
2.18000004E+02
  0
LINE
  8
0
 62
7
 10
-4.29699988E+02
 20
2.18499996E+02
 11
-4.31499991E+02
 21
2.18499996E+02
  0
LINE
  8
0
 62
7
 10
-4.60249991E+02
 20
2.18000004E+02
 11
-4.60249991E+02
 21
2.19000008E+02
  0
LINE
  8
0
 62
7
 10
-4.49749999E+02
 20
2.50000020E+01
 11
-4.49749999E+02
 21
2.39999982E+01
  0
LINE
  8
0
 62
7
 10
-4.60249991E+02
 20
2.19000008E+02
 11
-4.80000014E+02
 21
2.19000008E+02
  0
LINE
  8
0
 62
7
 10
-4.32499995E+02
 20
2.39999982E+01
 11
-4.32499995E+02
 21
2.50000020E+01
  0
LINE
  8
0
 62
7
 10
-4.29699988E+02
 20
2.45000001E+01
 11
-4.31499991E+02
 21
2.45000001E+01
  0
LINE
  8
0
 62
7
 10
-4.60249991E+02
 20
2.50000020E+01
 11
-4.60249991E+02
 21
2.39999982E+01
  0
LINE
  8
0
 62
7
 10
-4.60249991E+02
 20
2.39999982E+01
 11
-4.80000014E+02
 21
2.39999982E+01
  0
LINE
  8
0
 62
7
 10
-4.32499995E+02
 20
2.39999982E+01
 11
-4.49749999E+02
 21
2.39999982E+01
  0
LINE
  8
0
 62
7
 10
-4.49749999E+02
 20
2.18000004E+02
 11
-4.49749999E+02
 21
2.19000008E+02
  0
LINE
  8
0
 62
7
 10
-4.32499995E+02
 20
2.19000008E+02
 11
-4.49749999E+02
 21
2.19000008E+02
  0
LINE
  8
0
 62
7
 10
-4.80000014E+02
 20
2.39999982E+01
 11
-4.80000014E+02
 21
2.50000020E+01
  0
LINE
  8
0
 62
7
 10
-4.80000014E+02
 20
2.19000008E+02
 11
-4.80000014E+02
 21
2.18000004E+02
  0
LINE
  8
0
 62
7
 10
-4.10850005E+02
 20
1.74978859E+02
 11
-4.10850005E+02
 21
1.55021145E+02
  0
LINE
  8
0
 62
7
 10
-4.12149997E+02
 20
1.74978859E+02
 11
-4.12149997E+02
 21
1.55021145E+02
  0
CIRCLE
  8
0
 62
7
 10
-4.28499999E+02
 20
1.09500000E+02
 40
5.50000012E+00
  0
CIRCLE
  8
0
 62
2
 10
-4.28499999E+02
 20
1.09500000E+02
 40
6.75000012E+00
  0
CIRCLE
  8
0
 62
7
 10
-4.48999991E+02
 20
5.75000020E+01
 40
5.50000012E+00
  0
CIRCLE
  8
0
 62
2
 10
-4.48999991E+02
 20
5.75000020E+01
 40
6.75000012E+00
  0
ARC
  8
0
 62
7
 10
-4.26199985E+02
 20
2.20000001E+01
 40
2.50000000E+00
 50
1.79999991E+02
 51
2.70000000E+02
  0
ARC
  8
0
 62
7
 10
-4.25999961E+02
 20
2.22000142E+01
 40
1.40000001E+00
 50
9.00000002E+01
 51
2.70000000E+02
  0
ARC
  8
0
 62
7
 10
-4.13499999E+02
 20
2.20000001E+01
 40
3.00000012E+00
 50
2.50447803E-06
 51
9.00000002E+01
  0
ARC
  8
0
 62
7
 10
-4.29699988E+02
 20
2.35000010E+01
 40
1.00000001E+00
 50
3.59999996E+02
 51
9.00000002E+01
  0
ARC
  8
0
 62
7
 10
-4.19400001E+02
 20
2.16000052E+01
 40
2.09999993E+00
 50
2.50447803E-06
 51
1.45150057E+02
  0
ARC
  8
0
 62
7
 10
-4.13899989E+02
 20
2.16000052E+01
 40
2.09999993E+00
 50
2.50447803E-06
 51
1.80000005E+02
  0
ARC
  8
0
 62
7
 10
-4.13899989E+02
 20
2.21399986E+02
 40
2.09999993E+00
 50
1.79999991E+02
 51
1.00179125E-05
  0
ARC
  8
0
 62
7
 10
-4.19400001E+02
 20
2.21399986E+02
 40
2.09999993E+00
 50
2.14849942E+02
 51
3.59999996E+02
  0
ARC
  8
0
 62
7
 10
-4.29699988E+02
 20
2.19500000E+02
 40
1.00000001E+00
 50
2.70000000E+02
 51
2.50447843E-06
  0
ARC
  8
0
 62
7
 10
-4.13499999E+02
 20
2.20999996E+02
 40
3.00000012E+00
 50
2.70000000E+02
 51
3.59999996E+02
  0
ARC
  8
0
 62
7
 10
-4.25999961E+02
 20
2.20799992E+02
 40
1.40000001E+00
 50
9.00000002E+01
 51
2.70000000E+02
  0
ARC
  8
0
 62
7
 10
-4.26199985E+02
 20
2.20999996E+02
 40
2.50000000E+00
 50
9.00000002E+01
 51
1.80000005E+02
  0
ARC
  8
0
 62
7
 10
-4.31499991E+02
 20
2.17499992E+02
 40
1.00000001E+00
 50
9.00000002E+01
 51
1.49999997E+02
  0
ARC
  8
0
 62
7
 10
-4.31499991E+02
 20
2.54999991E+01
 40
1.00000001E+00
 50
2.10000003E+02
 51
2.70000000E+02
  0
CIRCLE
  8
0
 62
7
 10
-4.11499991E+02
 20
1.64999992E+02
 40
1.14999998E+01
  0
CIRCLE
  8
0
 62
7
 10
-4.11499991E+02
 20
1.64999992E+02
 40
1.00000000E+01
  0
CIRCLE
  8
0
 62
2
 10
-4.11499991E+02
 20
1.64999992E+02
 40
8.99999976E+00
  0
LINE
  8
0
  6
CENTER
 62
2
 10
-4.28999991E+02
 20
1.64999992E+02
 11
-3.93999991E+02
 21
1.64999992E+02
  0
LINE
  8
0
  6
CENTER
 62
2
 10
-4.11499991E+02
 20
1.47499992E+02
 11
-4.11499991E+02
 21
1.82499992E+02
  0
LINE
  8
0
 62
4
 10
4.07450012E+02
 20
1.99999982E+01
 11
4.07450012E+02
 21
2.15499982E+01
  0
LINE
  8
0
 62
4
 10
4.07450012E+02
 20
1.99999982E+01
 11
4.06900012E+02
 21
1.94499982E+01
  0
LINE
  8
0
 62
4
 10
4.06900012E+02
 20
1.89999982E+01
 11
4.06900012E+02
 21
1.94499982E+01
  0
LINE
  8
0
 62
4
 10
4.06900012E+02
 20
1.89999982E+01
 11
4.03900012E+02
 21
1.89999982E+01
  0
LINE
  8
0
 62
4
 10
4.03900012E+02
 20
1.89999982E+01
 11
4.03900012E+02
 21
1.94499982E+01
  0
LINE
  8
0
 62
4
 10
4.03350012E+02
 20
1.99999982E+01
 11
4.03900012E+02
 21
1.94499982E+01
  0
LINE
  8
0
 62
4
 10
4.03350012E+02
 20
1.99999982E+01
 11
4.03350012E+02
 21
2.15499982E+01
  0
LINE
  8
0
 62
4
 10
4.06650012E+02
 20
1.84999982E+01
 11
4.06650012E+02
 21
1.89999982E+01
  0
LINE
  8
0
 62
6
 10
4.06420012E+02
 20
1.84999982E+01
 11
4.06420012E+02
 21
1.89999982E+01
  0
LINE
  8
0
 62
6
 10
4.04380012E+02
 20
1.84999982E+01
 11
4.04380012E+02
 21
1.89999982E+01
  0
LINE
  8
0
 62
4
 10
4.04150012E+02
 20
1.84999982E+01
 11
4.04150012E+02
 21
1.89999982E+01
  0
LINE
  8
0
 62
4
 10
4.06650012E+02
 20
1.84999982E+01
 11
4.04150012E+02
 21
1.84999982E+01
  0
ARC
  8
0
 62
4
 10
4.05400010E+02
 20
2.15499959E+01
 40
2.05000229E+00
 50
6.39705167E-05
 51
9.00000002E+01
  0
ARC
  8
0
 62
4
 10
4.05400015E+02
 20
2.15499959E+01
 40
2.05000229E+00
 50
9.00000002E+01
 51
1.79999936E+02
  0
CIRCLE
  8
0
 62
4
 10
4.05400012E+02
 20
2.13004736E+01
 40
1.30000000E+00
  0
LINE
  8
0
  6
CENTER
 62
6
 10
4.05400012E+02
 20
1.69499982E+01
 11
4.05400012E+02
 21
2.39199982E+01
  0
LINE
  8
0
 62
4
 10
4.12949986E+02
 20
1.99999982E+01
 11
4.12949986E+02
 21
2.15499982E+01
  0
LINE
  8
0
 62
4
 10
4.12949986E+02
 20
1.99999982E+01
 11
4.12399986E+02
 21
1.94499982E+01
  0
LINE
  8
0
 62
4
 10
4.12399986E+02
 20
1.89999982E+01
 11
4.12399986E+02
 21
1.94499982E+01
  0
LINE
  8
0
 62
4
 10
4.12399986E+02
 20
1.89999982E+01
 11
4.09399986E+02
 21
1.89999982E+01
  0
LINE
  8
0
 62
4
 10
4.09399986E+02
 20
1.89999982E+01
 11
4.09399986E+02
 21
1.94499982E+01
  0
LINE
  8
0
 62
4
 10
4.08849986E+02
 20
1.99999982E+01
 11
4.09399986E+02
 21
1.94499982E+01
  0
LINE
  8
0
 62
4
 10
4.08849986E+02
 20
1.99999982E+01
 11
4.08849986E+02
 21
2.15499982E+01
  0
LINE
  8
0
 62
4
 10
4.12149986E+02
 20
1.84999982E+01
 11
4.12149986E+02
 21
1.89999982E+01
  0
LINE
  8
0
 62
6
 10
4.11919986E+02
 20
1.84999982E+01
 11
4.11919986E+02
 21
1.89999982E+01
  0
LINE
  8
0
 62
6
 10
4.09879986E+02
 20
1.84999982E+01
 11
4.09879986E+02
 21
1.89999982E+01
  0
LINE
  8
0
 62
4
 10
4.09649986E+02
 20
1.84999982E+01
 11
4.09649986E+02
 21
1.89999982E+01
  0
LINE
  8
0
 62
4
 10
4.12149986E+02
 20
1.84999982E+01
 11
4.09649986E+02
 21
1.84999982E+01
  0
ARC
  8
0
 62
4
 10
4.10899983E+02
 20
2.15499959E+01
 40
2.05000229E+00
 50
6.39705167E-05
 51
9.00000002E+01
  0
ARC
  8
0
 62
4
 10
4.10899988E+02
 20
2.15499959E+01
 40
2.05000229E+00
 50
9.00000002E+01
 51
1.79999936E+02
  0
CIRCLE
  8
0
 62
4
 10
4.10899986E+02
 20
2.13004736E+01
 40
1.30000000E+00
  0
LINE
  8
0
  6
CENTER
 62
6
 10
4.10899986E+02
 20
1.69499982E+01
 11
4.10899986E+02
 21
2.39199982E+01
  0
LINE
  8
0
  6
CENTER
 62
2
 10
4.03000015E+02
 20
1.79999992E+02
 11
4.03000015E+02
 21
1.49999992E+02
  0
LINE
  8
0
  6
CENTER
 62
2
 10
4.18000015E+02
 20
1.64999992E+02
 11
3.88000015E+02
 21
1.64999992E+02
  0
LINE
  8
0
  6
CENTER
 62
2
 10
4.67000015E+02
 20
3.89999982E+01
 11
4.77000015E+02
 21
3.89999982E+01
  0
LINE
  8
0
  6
CENTER
 62
2
 10
4.67000015E+02
 20
2.04000008E+02
 11
4.77000015E+02
 21
2.04000008E+02
  0
LINE
  8
0
 62
7
 10
4.41250016E+02
 20
2.18000004E+02
 11
4.41250016E+02
 21
2.19000008E+02
  0
LINE
  8
0
 62
7
 10
4.51750014E+02
 20
2.18000004E+02
 11
4.51750014E+02
 21
2.19000008E+02
  0
LINE
  8
0
 62
7
 10
4.41250016E+02
 20
2.50000020E+01
 11
4.41250016E+02
 21
2.39999982E+01
  0
LINE
  8
0
 62
7
 10
4.51750014E+02
 20
2.50000020E+01
 11
4.51750014E+02
 21
2.39999982E+01
  0
LINE
  8
0
 62
7
 10
4.03650001E+02
 20
1.74978859E+02
 11
4.03650001E+02
 21
1.55021145E+02
  0
LINE
  8
0
 62
7
 10
4.02350028E+02
 20
1.74978859E+02
 11
4.02350028E+02
 21
1.55021145E+02
  0
LINE
  8
0
 62
7
 10
4.21200012E+02
 20
2.45000001E+01
 11
4.23000015E+02
 21
2.45000001E+01
  0
LINE
  8
0
 62
7
 10
4.23999999E+02
 20
2.39999982E+01
 11
4.23999999E+02
 21
2.50000020E+01
  0
LINE
  8
0
 62
7
 10
4.21200012E+02
 20
2.18499996E+02
 11
4.23000015E+02
 21
2.18499996E+02
  0
LINE
  8
0
 62
7
 10
4.23999999E+02
 20
2.19000008E+02
 11
4.23999999E+02
 21
2.18000004E+02
  0
LINE
  8
0
 62
7
 10
4.15885642E+02
 20
2.22200005E+02
 11
4.17499984E+02
 21
2.22200005E+02
  0
LINE
  8
0
 62
7
 10
4.09299987E+02
 20
2.23499996E+02
 11
4.09299987E+02
 21
2.24000008E+02
  0
LINE
  8
0
 62
7
 10
4.15135406E+02
 20
2.19399998E+02
 11
4.17499984E+02
 21
2.19399998E+02
  0
LINE
  8
0
 62
7
 10
4.03799995E+02
 20
2.23499996E+02
 11
4.03799995E+02
 21
2.24000008E+02
  0
LINE
  8
0
 62
7
 10
4.07499987E+02
 20
2.22999992E+02
 11
4.06999997E+02
 21
2.23499982E+02
  0
LINE
  8
0
 62
7
 10
4.12499984E+02
 20
2.23499996E+02
 11
4.12499984E+02
 21
2.24000008E+02
  0
LINE
  8
0
 62
7
 10
4.07500022E+02
 20
2.21399986E+02
 11
4.07500022E+02
 21
2.23000004E+02
  0
LINE
  8
0
 62
7
 10
4.14499980E+02
 20
2.23000020E+02
 11
4.15885636E+02
 21
2.22200012E+02
  0
LINE
  8
0
 62
7
 10
4.02000030E+02
 20
2.24000008E+02
 11
4.03799995E+02
 21
2.24000008E+02
  0
LINE
  8
0
 62
7
 10
4.03300003E+02
 20
2.23000004E+02
 11
4.03300003E+02
 21
2.21399986E+02
  0
LINE
  8
0
 62
7
 10
4.20199989E+02
 20
2.19500000E+02
 11
4.20199989E+02
 21
2.20999996E+02
  0
LINE
  8
0
 62
7
 10
4.12999977E+02
 20
2.23000004E+02
 11
4.14499992E+02
 21
2.23000004E+02
  0
LINE
  8
0
 62
7
 10
4.13749724E+02
 20
2.20199990E+02
 11
4.15135380E+02
 21
2.19399981E+02
  0
LINE
  8
0
 62
7
 10
4.07000030E+02
 20
2.23499996E+02
 11
4.07000030E+02
 21
2.24000008E+02
  0
LINE
  8
0
 62
7
 10
4.03300003E+02
 20
2.23000019E+02
 11
4.03799993E+02
 21
2.23500009E+02
  0
LINE
  8
0
 62
7
 10
4.07000030E+02
 20
2.24000008E+02
 11
4.09299987E+02
 21
2.24000008E+02
  0
LINE
  8
0
 62
7
 10
4.12623352E+02
 20
2.20200016E+02
 11
4.13749755E+02
 21
2.20200016E+02
  0
LINE
  8
0
 62
7
 10
4.02000030E+02
 20
2.24000008E+02
 11
4.02000030E+02
 21
2.20999996E+02
  0
LINE
  8
0
 62
7
 10
4.12999989E+02
 20
2.22999986E+02
 11
4.12499979E+02
 21
2.23499996E+02
  0
LINE
  8
0
 62
7
 10
4.12499984E+02
 20
2.24000008E+02
 11
4.14767974E+02
 21
2.24000008E+02
  0
LINE
  8
0
 62
7
 10
4.14767926E+02
 20
2.24000005E+02
 11
4.15633987E+02
 21
2.23499984E+02
  0
LINE
  8
0
 62
7
 10
4.15633987E+02
 20
2.23499996E+02
 11
4.17699989E+02
 21
2.23499996E+02
  0
LINE
  8
0
 62
7
 10
4.08799995E+02
 20
2.23000004E+02
 11
4.08799995E+02
 21
2.21399986E+02
  0
LINE
  8
0
 62
7
 10
4.08799984E+02
 20
2.22999979E+02
 11
4.09299974E+02
 21
2.23499969E+02
  0
LINE
  8
0
 62
7
 10
3.78999999E+02
 20
2.18000004E+02
 11
4.72000015E+02
 21
2.18000004E+02
  0
LINE
  8
0
 62
7
 10
3.78999999E+02
 20
2.50000020E+01
 11
4.72000015E+02
 21
2.50000020E+01
  0
LINE
  8
0
 62
7
 10
4.08799978E+02
 20
1.99999967E+01
 11
4.09299981E+02
 21
1.94999935E+01
  0
LINE
  8
0
 62
7
 10
4.08799995E+02
 20
2.00000020E+01
 11
4.08799995E+02
 21
2.16000052E+01
  0
LINE
  8
0
 62
7
 10
4.15633987E+02
 20
1.95000001E+01
 11
4.17699989E+02
 21
1.95000001E+01
  0
LINE
  8
0
 62
7
 10
4.14767950E+02
 20
1.89999974E+01
 11
4.15633995E+02
 21
1.95000088E+01
  0
LINE
  8
0
 62
7
 10
4.12499984E+02
 20
1.89999982E+01
 11
4.14767974E+02
 21
1.89999982E+01
  0
LINE
  8
0
 62
7
 10
4.12999989E+02
 20
1.99999967E+01
 11
4.12499972E+02
 21
1.94999800E+01
  0
LINE
  8
0
 62
7
 10
4.02000030E+02
 20
1.89999982E+01
 11
4.02000030E+02
 21
2.20000001E+01
  0
LINE
  8
0
 62
7
 10
4.12623352E+02
 20
2.28000041E+01
 11
4.13749755E+02
 21
2.28000041E+01
  0
LINE
  8
0
 62
7
 10
4.07000030E+02
 20
1.89999982E+01
 11
4.09299987E+02
 21
1.89999982E+01
  0
LINE
  8
0
 62
7
 10
4.03299996E+02
 20
1.99999832E+01
 11
4.03799986E+02
 21
1.94999935E+01
  0
LINE
  8
0
 62
7
 10
4.07000030E+02
 20
1.95000001E+01
 11
4.07000030E+02
 21
1.89999982E+01
  0
LINE
  8
0
 62
7
 10
4.13749753E+02
 20
2.28000044E+01
 11
4.15135392E+02
 21
2.36000036E+01
  0
LINE
  8
0
 62
7
 10
4.12999977E+02
 20
2.00000020E+01
 11
4.14499992E+02
 21
2.00000020E+01
  0
LINE
  8
0
 62
7
 10
4.20199989E+02
 20
2.35000010E+01
 11
4.20199989E+02
 21
2.20000001E+01
  0
LINE
  8
0
 62
7
 10
4.03300003E+02
 20
2.00000020E+01
 11
4.03300003E+02
 21
2.16000052E+01
  0
LINE
  8
0
 62
7
 10
4.02000030E+02
 20
1.89999982E+01
 11
4.03799995E+02
 21
1.89999982E+01
  0
LINE
  8
0
 62
7
 10
4.14499999E+02
 20
1.99999900E+01
 11
4.15885639E+02
 21
2.07999892E+01
  0
LINE
  8
0
 62
7
 10
4.07500022E+02
 20
2.16000052E+01
 11
4.07500022E+02
 21
2.00000020E+01
  0
LINE
  8
0
 62
7
 10
4.12499984E+02
 20
1.95000001E+01
 11
4.12499984E+02
 21
1.89999982E+01
  0
LINE
  8
0
 62
7
 10
4.07500007E+02
 20
1.99999832E+01
 11
4.07000017E+02
 21
1.94999935E+01
  0
LINE
  8
0
 62
7
 10
4.03799995E+02
 20
1.95000001E+01
 11
4.03799995E+02
 21
1.89999982E+01
  0
LINE
  8
0
 62
7
 10
4.15135406E+02
 20
2.36000081E+01
 11
4.17499984E+02
 21
2.36000081E+01
  0
LINE
  8
0
 62
7
 10
4.09299987E+02
 20
1.95000001E+01
 11
4.09299987E+02
 21
1.89999982E+01
  0
LINE
  8
0
 62
7
 10
4.15885642E+02
 20
2.08000012E+01
 11
4.17499984E+02
 21
2.08000012E+01
  0
LINE
  8
0
 62
7
 10
3.77000030E+02
 20
2.04999991E+01
 11
3.98500007E+02
 21
2.04999991E+01
  0
LINE
  8
0
 62
7
 10
3.77000030E+02
 20
2.22499992E+02
 11
3.98500007E+02
 21
2.22499992E+02
  0
LINE
  8
0
 62
7
 10
3.98500007E+02
 20
2.18000004E+02
 11
3.98500007E+02
 21
2.22499992E+02
  0
LINE
  8
0
 62
7
 10
3.98500007E+02
 20
2.50000020E+01
 11
3.98500007E+02
 21
2.04999991E+01
  0
LINE
  8
0
 62
7
 10
3.78999999E+02
 20
2.18000004E+02
 11
3.78999999E+02
 21
2.50000020E+01
  0
LINE
  8
0
 62
7
 10
3.77999985E+02
 20
1.89000002E+02
 11
3.76999985E+02
 21
1.90000002E+02
  0
LINE
  8
0
 62
7
 10
3.78000005E+02
 20
5.40000004E+01
 11
3.76999972E+02
 21
5.29999670E+01
  0
LINE
  8
0
 62
7
 10
3.77000030E+02
 20
5.30000039E+01
 11
3.77000030E+02
 21
2.04999991E+01
  0
LINE
  8
0
 62
7
 10
3.77000030E+02
 20
2.22499992E+02
 11
3.77000030E+02
 21
1.89999992E+02
  0
LINE
  8
0
 62
7
 10
3.78000015E+02
 20
1.89000008E+02
 11
3.78000015E+02
 21
5.39999982E+01
  0
CIRCLE
  8
0
 62
2
 10
4.03000015E+02
 20
1.64999992E+02
 40
8.99999976E+00
  0
CIRCLE
  8
0
 62
7
 10
4.03000015E+02
 20
1.64999992E+02
 40
1.00000000E+01
  0
CIRCLE
  8
0
 62
7
 10
4.03000015E+02
 20
1.64999992E+02
 40
1.14999998E+01
  0
ARC
  8
0
 62
7
 10
4.23000015E+02
 20
2.54999991E+01
 40
1.00000001E+00
 50
2.70000000E+02
 51
3.29999996E+02
  0
ARC
  8
0
 62
7
 10
4.23000015E+02
 20
2.17499992E+02
 40
1.00000001E+00
 50
3.00000043E+01
 51
9.00000002E+01
  0
ARC
  8
0
 62
7
 10
4.17699989E+02
 20
2.20999996E+02
 40
2.50000000E+00
 50
3.59999995E+02
 51
9.00000002E+01
  0
ARC
  8
0
 62
7
 10
4.17499984E+02
 20
2.20799992E+02
 40
1.40000001E+00
 50
2.70000000E+02
 51
9.00000002E+01
  0
ARC
  8
0
 62
7
 10
4.05000022E+02
 20
2.20999996E+02
 40
3.00000012E+00
 50
1.80000008E+02
 51
2.70000000E+02
  0
ARC
  8
0
 62
7
 10
4.21200012E+02
 20
2.19500000E+02
 40
1.00000001E+00
 50
1.79999991E+02
 51
2.70000000E+02
  0
ARC
  8
0
 62
7
 10
4.10900024E+02
 20
2.21399986E+02
 40
2.09999993E+00
 50
1.80000008E+02
 51
3.25150056E+02
  0
ARC
  8
0
 62
7
 10
4.05399993E+02
 20
2.21399986E+02
 40
2.09999993E+00
 50
1.79999991E+02
 51
1.00179125E-05
  0
ARC
  8
0
 62
7
 10
4.05399993E+02
 20
2.16000052E+01
 40
2.09999993E+00
 50
3.59999995E+02
 51
1.79999991E+02
  0
ARC
  8
0
 62
7
 10
4.10900024E+02
 20
2.16000052E+01
 40
2.09999993E+00
 50
3.48499440E+01
 51
1.79999991E+02
  0
ARC
  8
0
 62
7
 10
4.21200012E+02
 20
2.35000010E+01
 40
1.00000001E+00
 50
9.00000002E+01
 51
1.80000005E+02
  0
ARC
  8
0
 62
7
 10
4.05000022E+02
 20
2.20000001E+01
 40
3.00000012E+00
 50
9.00000002E+01
 51
1.79999991E+02
  0
ARC
  8
0
 62
7
 10
4.17499984E+02
 20
2.22000142E+01
 40
1.40000001E+00
 50
2.70000000E+02
 51
9.00000002E+01
  0
ARC
  8
0
 62
7
 10
4.17699989E+02
 20
2.20000001E+01
 40
2.50000000E+00
 50
2.70000000E+02
 51
8.65142224E-06
  0
LINE
  8
0
  6
DASHED
 62
2
 10
4.42250015E+02
 20
2.06000015E+02
 11
4.42250015E+02
 21
2.14000008E+02
  0
LINE
  8
0
  6
DASHED
 62
2
 10
4.41500013E+02
 20
2.06000015E+02
 11
4.41500013E+02
 21
2.14000008E+02
  0
LINE
  8
0
  6
DASHED
 62
2
 10
4.38000014E+02
 20
2.06000015E+02
 11
4.38000014E+02
 21
2.14000008E+02
  0
LINE
  8
0
  6
DASHED
 62
2
 10
4.37500016E+02
 20
2.14000008E+02
 11
4.55500014E+02
 21
2.14000008E+02
  0
LINE
  8
0
  6
DASHED
 62
2
 10
4.37500016E+02
 20
2.04999992E+02
 11
4.37500016E+02
 21
2.14000008E+02
  0
LINE
  8
0
 62
7
 10
4.24000010E+02
 20
2.19000008E+02
 11
4.41250016E+02
 21
2.19000008E+02
  0
LINE
  8
0
  6
DASHED
 62
2
 10
4.41250016E+02
 20
2.14000008E+02
 11
4.41250016E+02
 21
2.18000004E+02
  0
LINE
  8
0
  6
DASHED
 62
2
 10
4.38000014E+02
 20
2.06000015E+02
 11
4.55000016E+02
 21
2.06000015E+02
  0
LINE
  8
0
  6
CENTER
 62
2
 10
4.46500013E+02
 20
1.98000004E+02
 11
4.46500013E+02
 21
2.24999992E+02
  0
LINE
  8
0
  6
DASHED
 62
2
 10
4.41250016E+02
 20
2.03000023E+02
 11
4.51750014E+02
 21
2.03000023E+02
  0
LINE
  8
0
 62
7
 10
4.51750014E+02
 20
2.19000008E+02
 11
4.71500013E+02
 21
2.19000008E+02
  0
LINE
  8
0
  6
DASHED
 62
2
 10
4.51750014E+02
 20
2.14000008E+02
 11
4.51750014E+02
 21
2.18000004E+02
  0
LINE
  8
0
  6
DASHED
 62
2
 10
4.51750014E+02
 20
2.04999992E+02
 11
4.55500014E+02
 21
2.04999992E+02
  0
LINE
  8
0
  6
DASHED
 62
2
 10
4.55500014E+02
 20
2.04999992E+02
 11
4.55500014E+02
 21
2.14000008E+02
  0
LINE
  8
0
  6
DASHED
 62
2
 10
4.51750014E+02
 20
2.03000023E+02
 11
4.51750014E+02
 21
2.04999992E+02
  0
LINE
  8
0
  6
DASHED
 62
2
 10
4.55000016E+02
 20
2.06000015E+02
 11
4.55000016E+02
 21
2.14000008E+02
  0
LINE
  8
0
  6
DASHED
 62
2
 10
4.51500013E+02
 20
2.06000015E+02
 11
4.51500013E+02
 21
2.14000008E+02
  0
LINE
  8
0
  6
DASHED
 62
2
 10
4.50750015E+02
 20
2.06000015E+02
 11
4.50750015E+02
 21
2.14000008E+02
  0
LINE
  8
0
  6
DASHED
 62
2
 10
4.37500016E+02
 20
2.04999992E+02
 11
4.41250016E+02
 21
2.04999992E+02
  0
LINE
  8
0
  6
DASHED
 62
2
 10
4.41250016E+02
 20
2.03000023E+02
 11
4.41250016E+02
 21
2.04999992E+02
  0
LINE
  8
0
 62
7
 10
4.71500013E+02
 20
2.19000008E+02
 11
4.71500013E+02
 21
2.18000004E+02
  0
LINE
  8
0
  6
DASHED
 62
2
 10
4.66000015E+02
 20
1.95750000E+02
 11
4.72000015E+02
 21
1.95750000E+02
  0
LINE
  8
0
  6
CENTER
 62
2
 10
4.52000015E+02
 20
1.90500004E+02
 11
4.79000013E+02
 21
1.90500004E+02
  0
LINE
  8
0
  6
DASHED
 62
2
 10
4.66000015E+02
 20
1.85250008E+02
 11
4.72000015E+02
 21
1.85250008E+02
  0
LINE
  8
0
  6
DASHED
 62
2
 10
4.57000015E+02
 20
1.81500008E+02
 11
4.66000015E+02
 21
1.81500008E+02
  0
LINE
  8
0
  6
DASHED
 62
2
 10
4.55000016E+02
 20
1.95750000E+02
 11
4.55000016E+02
 21
1.85250008E+02
  0
LINE
  8
0
  6
DASHED
 62
2
 10
4.66000015E+02
 20
1.99500000E+02
 11
4.66000015E+02
 21
1.81500008E+02
  0
LINE
  8
0
  6
DASHED
 62
2
 10
4.57000015E+02
 20
1.85250008E+02
 11
4.57000015E+02
 21
1.81500008E+02
  0
LINE
  8
0
  6
DASHED
 62
2
 10
4.57000015E+02
 20
1.99500000E+02
 11
4.66000015E+02
 21
1.99500000E+02
  0
LINE
  8
0
  6
DASHED
 62
2
 10
4.57000015E+02
 20
1.99500000E+02
 11
4.57000015E+02
 21
1.95750000E+02
  0
LINE
  8
0
  6
DASHED
 62
2
 10
4.55000016E+02
 20
1.95750000E+02
 11
4.57000015E+02
 21
1.95750000E+02
  0
LINE
  8
0
  6
DASHED
 62
2
 10
4.55000016E+02
 20
1.85250008E+02
 11
4.57000015E+02
 21
1.85250008E+02
  0
LINE
  8
0
  6
DASHED
 62
2
 10
4.58000014E+02
 20
1.99000008E+02
 11
4.58000014E+02
 21
1.82000000E+02
  0
LINE
  8
0
  6
DASHED
 62
2
 10
4.58000014E+02
 20
1.94749996E+02
 11
4.66000015E+02
 21
1.94749996E+02
  0
LINE
  8
0
  6
DASHED
 62
2
 10
4.58000014E+02
 20
1.86249992E+02
 11
4.66000015E+02
 21
1.86249992E+02
  0
LINE
  8
0
  6
DASHED
 62
2
 10
4.58000014E+02
 20
1.85500004E+02
 11
4.66000015E+02
 21
1.85500004E+02
  0
LINE
  8
0
  6
DASHED
 62
2
 10
4.58000014E+02
 20
1.99000008E+02
 11
4.66000015E+02
 21
1.99000008E+02
  0
LINE
  8
0
  6
DASHED
 62
2
 10
4.58000014E+02
 20
1.82000000E+02
 11
4.66000015E+02
 21
1.82000000E+02
  0
LINE
  8
0
  6
DASHED
 62
2
 10
4.58000014E+02
 20
1.95500004E+02
 11
4.66000015E+02
 21
1.95500004E+02
  0
LINE
  8
0
  6
DASHED
 62
2
 10
4.58000014E+02
 20
5.67500039E+01
 11
4.66000015E+02
 21
5.67500039E+01
  0
LINE
  8
0
  6
DASHED
 62
2
 10
4.58000014E+02
 20
5.74999924E+01
 11
4.66000015E+02
 21
5.74999924E+01
  0
LINE
  8
0
  6
DASHED
 62
2
 10
4.58000014E+02
 20
6.09999963E+01
 11
4.66000015E+02
 21
6.09999963E+01
  0
LINE
  8
0
  6
DASHED
 62
2
 10
4.58000014E+02
 20
4.40000077E+01
 11
4.58000014E+02
 21
6.09999963E+01
  0
LINE
  8
0
  6
DASHED
 62
2
 10
4.55000016E+02
 20
4.72499963E+01
 11
4.55000016E+02
 21
5.77500077E+01
  0
LINE
  8
0
  6
DASHED
 62
2
 10
4.57000015E+02
 20
6.15000077E+01
 11
4.66000015E+02
 21
6.15000077E+01
  0
LINE
  8
0
  6
DASHED
 62
2
 10
4.57000015E+02
 20
5.77500077E+01
 11
4.57000015E+02
 21
6.15000077E+01
  0
LINE
  8
0
  6
DASHED
 62
2
 10
4.55000016E+02
 20
5.77500077E+01
 11
4.57000015E+02
 21
5.77500077E+01
  0
LINE
  8
0
  6
DASHED
 62
2
 10
4.66000015E+02
 20
4.34999963E+01
 11
4.66000015E+02
 21
6.15000077E+01
  0
LINE
  8
0
  6
DASHED
 62
2
 10
4.66000015E+02
 20
5.77500077E+01
 11
4.72000015E+02
 21
5.77500077E+01
  0
LINE
  8
0
  6
CENTER
 62
2
 10
4.52000015E+02
 20
5.24999924E+01
 11
4.79000013E+02
 21
5.24999924E+01
  0
LINE
  8
0
  6
DASHED
 62
2
 10
4.66000015E+02
 20
4.72499963E+01
 11
4.72000015E+02
 21
4.72499963E+01
  0
LINE
  8
0
  6
DASHED
 62
2
 10
4.57000015E+02
 20
4.34999963E+01
 11
4.66000015E+02
 21
4.34999963E+01
  0
LINE
  8
0
  6
DASHED
 62
2
 10
4.57000015E+02
 20
4.34999963E+01
 11
4.57000015E+02
 21
4.72499963E+01
  0
LINE
  8
0
  6
DASHED
 62
2
 10
4.55000016E+02
 20
4.72499963E+01
 11
4.57000015E+02
 21
4.72499963E+01
  0
LINE
  8
0
  6
DASHED
 62
2
 10
4.58000014E+02
 20
4.40000077E+01
 11
4.66000015E+02
 21
4.40000077E+01
  0
LINE
  8
0
  6
DASHED
 62
2
 10
4.58000014E+02
 20
4.75000115E+01
 11
4.66000015E+02
 21
4.75000115E+01
  0
LINE
  8
0
  6
DASHED
 62
2
 10
4.58000014E+02
 20
4.82500001E+01
 11
4.66000015E+02
 21
4.82500001E+01
  0
LINE
  8
0
 62
7
 10
4.71500013E+02
 20
2.39999982E+01
 11
4.71500013E+02
 21
2.50000020E+01
  0
LINE
  8
0
 62
7
 10
4.51750014E+02
 20
2.39999982E+01
 11
4.71500013E+02
 21
2.39999982E+01
  0
LINE
  8
0
 62
7
 10
4.24000010E+02
 20
2.39999982E+01
 11
4.41250016E+02
 21
2.39999982E+01
  0
LINE
  8
0
  6
CENTER
 62
2
 10
4.46500013E+02
 20
4.50000115E+01
 11
4.46500013E+02
 21
1.80000039E+01
  0
LINE
  8
0
  6
DASHED
 62
2
 10
4.51750014E+02
 20
2.89999982E+01
 11
4.51750014E+02
 21
2.50000020E+01
  0
LINE
  8
0
  6
DASHED
 62
2
 10
4.41250016E+02
 20
4.00000115E+01
 11
4.51750014E+02
 21
4.00000115E+01
  0
LINE
  8
0
  6
DASHED
 62
2
 10
4.41250016E+02
 20
2.89999982E+01
 11
4.41250016E+02
 21
2.50000020E+01
  0
LINE
  8
0
  6
DASHED
 62
2
 10
4.51750014E+02
 20
3.80000039E+01
 11
4.55500014E+02
 21
3.80000039E+01
  0
LINE
  8
0
  6
DASHED
 62
2
 10
4.37500016E+02
 20
3.80000039E+01
 11
4.37500016E+02
 21
2.89999982E+01
  0
LINE
  8
0
  6
DASHED
 62
2
 10
4.55500014E+02
 20
3.80000039E+01
 11
4.55500014E+02
 21
2.89999982E+01
  0
LINE
  8
0
  6
DASHED
 62
2
 10
4.37500016E+02
 20
3.80000039E+01
 11
4.41250016E+02
 21
3.80000039E+01
  0
LINE
  8
0
  6
DASHED
 62
2
 10
4.41250016E+02
 20
4.00000115E+01
 11
4.41250016E+02
 21
3.80000039E+01
  0
LINE
  8
0
  6
DASHED
 62
2
 10
4.51750014E+02
 20
4.00000115E+01
 11
4.51750014E+02
 21
3.80000039E+01
  0
LINE
  8
0
  6
DASHED
 62
2
 10
4.37500016E+02
 20
2.89999982E+01
 11
4.55500014E+02
 21
2.89999982E+01
  0
LINE
  8
0
  6
DASHED
 62
2
 10
4.55000016E+02
 20
3.70000001E+01
 11
4.55000016E+02
 21
2.89999982E+01
  0
LINE
  8
0
  6
DASHED
 62
2
 10
4.38000014E+02
 20
3.70000001E+01
 11
4.38000014E+02
 21
2.89999982E+01
  0
LINE
  8
0
  6
DASHED
 62
2
 10
4.38000014E+02
 20
3.70000001E+01
 11
4.55000016E+02
 21
3.70000001E+01
  0
LINE
  8
0
  6
DASHED
 62
2
 10
4.51500013E+02
 20
3.70000001E+01
 11
4.51500013E+02
 21
2.89999982E+01
  0
LINE
  8
0
  6
DASHED
 62
2
 10
4.41500013E+02
 20
3.70000001E+01
 11
4.41500013E+02
 21
2.89999982E+01
  0
LINE
  8
0
  6
DASHED
 62
2
 10
4.42250015E+02
 20
3.70000001E+01
 11
4.42250015E+02
 21
2.89999982E+01
  0
LINE
  8
0
  6
DASHED
 62
2
 10
4.50750015E+02
 20
3.70000001E+01
 11
4.50750015E+02
 21
2.89999982E+01
  0
LINE
  8
0
 62
7
 10
4.72000015E+02
 20
2.50000020E+01
 11
4.72000015E+02
 21
2.18000004E+02
  0
LINE
  8
0
  6
PHANTOM
 62
1
 10
6.49999454E+00
 20
-3.48365372E+01
 11
6.49999454E+00
 21
-2.37775486E+02
  0
LINE
  8
0
  6
CENTER
 62
6
 10
1.52500003E+02
 20
-1.43569971E+02
 11
1.52500003E+02
 21
-1.49149971E+02
  0
LINE
  8
0
  6
CENTER
 62
6
 10
1.47700003E+02
 20
-1.46399971E+02
 11
1.77900003E+02
 21
-1.46399971E+02
  0
LINE
  8
0
 62
4
 10
1.50500003E+02
 20
-1.47899971E+02
 11
1.72500003E+02
 21
-1.47899971E+02
  0
LINE
  8
0
 62
4
 10
1.50500003E+02
 20
-1.44899971E+02
 11
1.72500003E+02
 21
-1.44899971E+02
  0
LINE
  8
0
 62
6
 10
1.73580003E+02
 20
-1.44239971E+02
 11
1.76080003E+02
 21
-1.48559971E+02
  0
LINE
  8
0
 62
4
 10
1.72500003E+02
 20
-1.45099971E+02
 11
1.74080003E+02
 21
-1.45099971E+02
  0
LINE
  8
0
 62
4
 10
1.72500003E+02
 20
-1.47699971E+02
 11
1.75590003E+02
 21
-1.47699971E+02
  0
LINE
  8
0
 62
4
 10
1.51490003E+02
 20
-1.47119971E+02
 11
1.53230003E+02
 21
-1.45389971E+02
  0
LINE
  8
0
 62
4
 10
1.51770003E+02
 20
-1.47399971E+02
 11
1.53510003E+02
 21
-1.45669971E+02
  0
LINE
  8
0
 62
4
 10
1.50500003E+02
 20
-1.44799971E+02
 11
1.50500003E+02
 21
-1.47999971E+02
  0
LINE
  8
0
 62
4
 10
1.72500003E+02
 20
-1.44799971E+02
 11
1.72500003E+02
 21
-1.47999971E+02
  0
CIRCLE
  8
0
 62
6
 10
1.52500018E+02
 20
-1.46406258E+02
 40
1.00000000E+00
  0
CIRCLE
  8
0
 62
4
 10
1.52500018E+02
 20
-1.46406258E+02
 40
1.25000000E+00
  0
LINE
  8
0
  6
CENTER
 62
6
 10
-1.47499997E+02
 20
-1.38070000E+02
 11
-1.47499997E+02
 21
-1.43650000E+02
  0
LINE
  8
0
  6
CENTER
 62
6
 10
-1.52299997E+02
 20
-1.40900000E+02
 11
-1.22099997E+02
 21
-1.40900000E+02
  0
LINE
  8
0
 62
4
 10
-1.49499997E+02
 20
-1.42400000E+02
 11
-1.27499997E+02
 21
-1.42400000E+02
  0
LINE
  8
0
 62
4
 10
-1.49499997E+02
 20
-1.39400000E+02
 11
-1.27499997E+02
 21
-1.39400000E+02
  0
LINE
  8
0
 62
6
 10
-1.26419997E+02
 20
-1.38740000E+02
 11
-1.23919997E+02
 21
-1.43060000E+02
  0
LINE
  8
0
 62
4
 10
-1.27499997E+02
 20
-1.39600000E+02
 11
-1.25919997E+02
 21
-1.39600000E+02
  0
LINE
  8
0
 62
4
 10
-1.27499997E+02
 20
-1.42200000E+02
 11
-1.24409997E+02
 21
-1.42200000E+02
  0
LINE
  8
0
 62
4
 10
-1.48509997E+02
 20
-1.41620000E+02
 11
-1.46769997E+02
 21
-1.39890000E+02
  0
LINE
  8
0
 62
4
 10
-1.48229997E+02
 20
-1.41900000E+02
 11
-1.46489997E+02
 21
-1.40170000E+02
  0
LINE
  8
0
 62
4
 10
-1.49499997E+02
 20
-1.39300000E+02
 11
-1.49499997E+02
 21
-1.42500000E+02
  0
LINE
  8
0
 62
4
 10
-1.27499997E+02
 20
-1.39300000E+02
 11
-1.27499997E+02
 21
-1.42500000E+02
  0
CIRCLE
  8
0
 62
6
 10
-1.47499982E+02
 20
-1.40906286E+02
 40
1.00000000E+00
  0
CIRCLE
  8
0
 62
4
 10
-1.47499982E+02
 20
-1.40906286E+02
 40
1.25000000E+00
  0
LINE
  8
0
  6
CENTER
 62
2
 10
-2.97500003E+02
 20
-2.12500000E+02
 11
-2.97500003E+02
 21
-2.02500000E+02
  0
LINE
  8
0
  6
CENTER
 62
2
 10
3.10500018E+02
 20
-2.12500000E+02
 11
3.10500018E+02
 21
-2.02500000E+02
  0
LINE
  8
0
  6
CENTER
 62
2
 10
-1.43499997E+02
 20
-1.07500000E+02
 11
-1.43499997E+02
 21
-2.12500000E+02
  0
LINE
  8
0
  6
CENTER
 62
2
 10
1.56500003E+02
 20
-1.31000004E+02
 11
1.56500003E+02
 21
-2.12500000E+02
  0
LINE
  8
0
 62
7
 10
2.99499995E+02
 20
-1.14500000E+02
 11
2.99499995E+02
 21
-2.07500000E+02
  0
LINE
  8
0
 62
7
 10
-3.08499997E+02
 20
-2.07500000E+02
 11
3.21500003E+02
 21
-2.07500000E+02
  0
LINE
  8
0
 62
7
 10
-2.86499999E+02
 20
-1.87249999E+02
 11
2.99499995E+02
 21
-1.87249999E+02
  0
LINE
  8
0
 62
7
 10
-2.86499999E+02
 20
-1.76750002E+02
 11
2.99499995E+02
 21
-1.76750002E+02
  0
LINE
  8
0
 62
7
 10
-2.46499996E+02
 20
-1.12500000E+02
 11
-2.46499996E+02
 21
-1.34000000E+02
  0
LINE
  8
0
 62
7
 10
-4.05000046E+01
 20
-1.12500000E+02
 11
-4.05000046E+01
 21
-1.34000000E+02
  0
LINE
  8
0
 62
7
 10
-2.46499996E+02
 20
-1.12500000E+02
 11
-4.05000046E+01
 21
-1.12500000E+02
  0
LINE
  8
0
 62
7
 10
-3.08499997E+02
 20
-1.14500000E+02
 11
-2.51499996E+02
 21
-1.14500000E+02
  0
LINE
  8
0
 62
7
 10
-2.51499996E+02
 20
-1.14500000E+02
 11
-2.51499996E+02
 21
-1.37499984E+02
  0
LINE
  8
0
 62
7
 10
-2.86499999E+02
 20
-1.30000000E+02
 11
-2.51499996E+02
 21
-1.30000000E+02
  0
LINE
  8
0
 62
7
 10
-2.71999998E+02
 20
-1.22732054E+02
 11
-2.68999989E+02
 21
-1.24464110E+02
  0
LINE
  8
0
 62
7
 10
-2.68999998E+02
 20
-1.17535903E+02
 11
-2.65999989E+02
 21
-1.19267959E+02
  0
LINE
  8
0
 62
7
 10
-2.68999996E+02
 20
-1.24464099E+02
 11
-2.65999987E+02
 21
-1.22732043E+02
  0
LINE
  8
0
 62
7
 10
-2.71999997E+02
 20
-1.19267945E+02
 11
-2.68999988E+02
 21
-1.17535889E+02
  0
LINE
  8
0
 62
7
 10
-2.65999997E+02
 20
-1.19267948E+02
 11
-2.65999997E+02
 21
-1.22732052E+02
  0
LINE
  8
0
 62
7
 10
-2.71999996E+02
 20
-1.19267948E+02
 11
-2.71999996E+02
 21
-1.22732052E+02
  0
LINE
  8
0
 62
7
 10
2.85000026E+02
 20
-1.19267948E+02
 11
2.85000026E+02
 21
-1.22732052E+02
  0
LINE
  8
0
 62
7
 10
2.79000003E+02
 20
-1.19267948E+02
 11
2.79000003E+02
 21
-1.22732052E+02
  0
LINE
  8
0
 62
7
 10
2.85000003E+02
 20
-1.22732048E+02
 11
2.81999998E+02
 21
-1.24464102E+02
  0
LINE
  8
0
 62
7
 10
2.85000012E+02
 20
-1.19267944E+02
 11
2.82000007E+02
 21
-1.17535890E+02
  0
LINE
  8
0
 62
7
 10
2.82000001E+02
 20
-1.17535892E+02
 11
2.78999996E+02
 21
-1.19267946E+02
  0
LINE
  8
0
 62
7
 10
2.82000010E+02
 20
-1.24464099E+02
 11
2.79000005E+02
 21
-1.22732045E+02
  0
LINE
  8
0
 62
7
 10
2.99499995E+02
 20
-1.30000000E+02
 11
2.64499995E+02
 21
-1.30000000E+02
  0
LINE
  8
0
 62
7
 10
2.64499995E+02
 20
-1.14500000E+02
 11
2.64499995E+02
 21
-1.37499984E+02
  0
LINE
  8
0
 62
7
 10
3.21500003E+02
 20
-1.14500000E+02
 11
2.64499995E+02
 21
-1.14500000E+02
  0
LINE
  8
0
 62
7
 10
2.22500007E+02
 20
-1.29500000E+02
 11
2.22500007E+02
 21
-1.37499984E+02
  0
LINE
  8
0
 62
7
 10
2.27000014E+02
 20
-1.29500000E+02
 11
2.27000014E+02
 21
-1.37499984E+02
  0
LINE
  8
0
 62
7
 10
2.27000015E+02
 20
-1.29500013E+02
 11
2.27999995E+02
 21
-1.28500033E+02
  0
LINE
  8
0
 62
2
 10
2.27000014E+02
 20
-1.29500000E+02
 11
2.64499995E+02
 21
-1.29500000E+02
  0
LINE
  8
0
 62
7
 10
2.22500007E+02
 20
-1.29500000E+02
 11
2.27000014E+02
 21
-1.29500000E+02
  0
LINE
  8
0
 62
7
 10
2.28000018E+02
 20
-1.28500000E+02
 11
2.64499995E+02
 21
-1.28500000E+02
  0
LINE
  8
0
 62
7
 10
2.22500007E+02
 20
-1.35499999E+02
 11
2.07500007E+02
 21
-1.35499999E+02
  0
LINE
  8
0
 62
7
 10
2.06500010E+02
 20
-1.36499997E+02
 11
2.07499989E+02
 21
-1.35500017E+02
  0
LINE
  8
0
 62
7
 10
-3.08499997E+02
 20
-1.14500000E+02
 11
-3.08499997E+02
 21
-2.07500000E+02
  0
LINE
  8
0
 62
7
 10
-2.86499999E+02
 20
-1.14500000E+02
 11
-2.86499999E+02
 21
-2.07500000E+02
  0
LINE
  8
0
 62
7
 10
3.21500003E+02
 20
-1.14500000E+02
 11
3.21500003E+02
 21
-2.07500000E+02
  0
LINE
  8
0
 62
7
 10
-2.51499996E+02
 20
-1.28500000E+02
 11
-2.46499996E+02
 21
-1.28500000E+02
  0
LINE
  8
0
 62
2
 10
-2.51499996E+02
 20
-1.29500000E+02
 11
-2.46499996E+02
 21
-1.29500000E+02
  0
LINE
  8
0
 62
7
 10
-2.86499999E+02
 20
-1.37499984E+02
 11
2.99499995E+02
 21
-1.37499984E+02
  0
LINE
  8
0
 62
7
 10
-2.86499999E+02
 20
-1.39299987E+02
 11
2.99499995E+02
 21
-1.39299987E+02
  0
LINE
  8
0
 62
7
 10
-2.86499999E+02
 20
-1.42499984E+02
 11
2.99499995E+02
 21
-1.42499984E+02
  0
LINE
  8
0
 62
7
 10
-2.86499999E+02
 20
-1.44799986E+02
 11
2.99499995E+02
 21
-1.44799986E+02
  0
LINE
  8
0
 62
7
 10
-2.86499999E+02
 20
-1.47999983E+02
 11
2.99499995E+02
 21
-1.47999983E+02
  0
LINE
  8
0
 62
7
 10
-2.46499996E+02
 20
-1.34000000E+02
 11
-4.05000046E+01
 21
-1.34000000E+02
  0
LINE
  8
0
 62
7
 10
-2.86499999E+02
 20
-1.59499996E+02
 11
2.99499995E+02
 21
-1.59499996E+02
  0
LINE
  8
0
 62
7
 10
-2.86499999E+02
 20
-1.55699982E+02
 11
2.99499995E+02
 21
-1.55699982E+02
  0
LINE
  8
0
 62
7
 10
2.06500003E+02
 20
-1.36499996E+02
 11
2.06500003E+02
 21
-1.37499984E+02
  0
LINE
  8
0
 62
7
 10
-4.67000130E+01
 20
-1.34000000E+02
 11
-4.67000130E+01
 21
-1.37499984E+02
  0
LINE
  8
0
 62
7
 10
-1.00299981E+02
 20
-1.34000000E+02
 11
-1.00299981E+02
 21
-1.37499984E+02
  0
LINE
  8
0
 62
7
 10
-1.86700008E+02
 20
-1.34000000E+02
 11
-1.86700008E+02
 21
-1.37499984E+02
  0
LINE
  8
0
 62
7
 10
-2.40300000E+02
 20
-1.34000000E+02
 11
-2.40300000E+02
 21
-1.37499984E+02
  0
CIRCLE
  8
0
 62
7
 10
-2.68999999E+02
 20
-1.21000000E+02
 40
6.49999976E+00
  0
CIRCLE
  8
0
 62
7
 10
2.81999995E+02
 20
-1.21000000E+02
 40
6.49999976E+00
  0
TEXT
  8
0
 62
1
 10
-4.65156305E+01
 20
2.65551194E+02
 40
9.00000000E+00
  1
STRETCH LINE
 41
1.05263158E+00
  7
MONOTXT
  0
TEXT
  8
0
 62
7
 10
-1.86714687E+02
 20
-3.40000000E+02
 40
9.00000000E+00
  1
(mm)
 41
1.00000000E+00
  7
MONOTXT
  0
TEXT
  8
0
 62
7
 10
-1.82515625E+02
 20
-3.67500000E+02
 40
9.00000000E+00
  1
700
 41
1.00000000E+00
  7
MONOTXT
  0
TEXT
  8
0
 62
7
 10
-1.87015625E+02
 20
-3.52500000E+02
 40
9.00000000E+00
  1
1000
 41
1.00000000E+00
  7
MONOTXT
  0
TEXT
  8
0
 62
7
 10
-2.27515625E+02
 20
-3.67500000E+02
 40
9.00000000E+00
  1
500
 41
1.00000000E+00
  7
MONOTXT
  0
TEXT
  8
0
 62
7
 10
-2.27515625E+02
 20
-3.52500000E+02
 40
9.00000000E+00
  1
800
 41
1.00000000E+00
  7
MONOTXT
  0
TEXT
  8
0
 62
7
 10
-2.72515625E+02
 20
-3.67500000E+02
 40
9.00000000E+00
  1
400
 41
1.00000000E+00
  7
MONOTXT
  0
TEXT
  8
0
 62
7
 10
-2.72515625E+02
 20
-3.52500000E+02
 40
9.00000000E+00
  1
700
 41
1.00000000E+00
  7
MONOTXT
  0
TEXT
  8
0
 62
7
 10
-3.17515625E+02
 20
-3.67500000E+02
 40
9.00000000E+00
  1
300
 41
1.00000000E+00
  7
MONOTXT
  0
TEXT
  8
0
 62
7
 10
-3.17515625E+02
 20
-3.52500000E+02
 40
9.00000000E+00
  1
600
 41
1.00000000E+00
  7
MONOTXT
  0
TEXT
  8
0
 62
7
 10
-3.62515625E+02
 20
-3.67500000E+02
 40
9.00000000E+00
  1
200
 41
1.00000000E+00
  7
MONOTXT
  0
TEXT
  8
0
 62
7
 10
-3.62515625E+02
 20
-3.52500000E+02
 40
9.00000000E+00
  1
500
 41
1.00000000E+00
  7
MONOTXT
  0
TEXT
  8
0
 62
7
 10
-4.07515625E+02
 20
-3.67500000E+02
 40
9.00000000E+00
  1
100
 41
1.00000000E+00
  7
MONOTXT
  0
TEXT
  8
0
 62
7
 10
-4.07515625E+02
 20
-3.52500000E+02
 40
9.00000000E+00
  1
400
 41
1.00000000E+00
  7
MONOTXT
  0
TEXT
  8
0
 62
7
 10
-4.43515625E+02
 20
-3.67500000E+02
 40
9.00000000E+00
  1
0
 41
1.00000000E+00
  7
MONOTXT
  0
TEXT
  8
0
 62
7
 10
-4.52515625E+02
 20
-3.52500000E+02
 40
9.00000000E+00
  1
300
 41
1.00000000E+00
  7
MONOTXT
  0
LINE
  8
0
 62
7
 10
-1.47500000E+02
 20
-3.40500000E+02
 11
-1.47500000E+02
 21
-3.70500000E+02
  0
LINE
  8
0
 62
7
 10
-1.92500000E+02
 20
-3.40500000E+02
 11
-1.92500000E+02
 21
-3.70500000E+02
  0
LINE
  8
0
 62
7
 10
-2.37500000E+02
 20
-3.40500000E+02
 11
-2.37500000E+02
 21
-3.70500000E+02
  0
LINE
  8
0
 62
7
 10
-2.82500000E+02
 20
-3.40500000E+02
 11
-2.82500000E+02
 21
-3.70500000E+02
  0
LINE
  8
0
 62
7
 10
-3.27500000E+02
 20
-3.40500000E+02
 11
-3.27500000E+02
 21
-3.70500000E+02
  0
LINE
  8
0
 62
7
 10
-3.72500000E+02
 20
-3.40500000E+02
 11
-3.72500000E+02
 21
-3.70500000E+02
  0
LINE
  8
0
 62
7
 10
-4.17500000E+02
 20
-3.40500000E+02
 11
-4.17500000E+02
 21
-3.70500000E+02
  0
LINE
  8
0
 62
7
 10
-5.34500000E+02
 20
-3.55500000E+02
 11
-1.47500000E+02
 21
-3.55500000E+02
  0
TEXT
  8
0
 62
7
 10
-4.62179676E+02
 20
3.14250000E+02
 40
1.25000000E+01
  1
(WITH SENSOR SWITCH)
 41
1.06382995E+00
  7
MONOTXT
  0
LINE
  8
0
 62
7
 10
-5.34500000E+02
 20
-3.40500000E+02
 11
-1.47500000E+02
 21
-3.40500000E+02
  0
LINE
  8
0
 62
7
 10
-4.62500000E+02
 20
-3.40500000E+02
 11
-4.62500000E+02
 21
-3.70500000E+02
  0
LINE
  8
0
 62
7
 10
-5.34500000E+02
 20
-3.40500000E+02
 11
-5.34500000E+02
 21
-3.70500000E+02
  0
LINE
  8
0
 62
7
 10
-5.34500000E+02
 20
-3.70500000E+02
 11
-1.47500000E+02
 21
-3.70500000E+02
  0
TEXT
  8
0
 62
7
 10
-3.93714687E+02
 20
-3.38000000E+02
 40
9.00000000E+00
  1
STRETCH LIST
 41
1.05263158E+00
  7
MONOTXT
  0
TEXT
  8
0
 62
7
 10
-5.24515625E+02
 20
-3.52500000E+02
 40
9.00000000E+00
  1
STROKE
 41
1.00000000E+00
  7
MONOTXT
  0
TEXT
  8
0
 62
7
 10
-5.29015625E+02
 20
-3.67500000E+02
 40
9.00000000E+00
  1
STRETCH
 41
1.00000000E+00
  7
MONOTXT
  0
LINE
  8
0
 62
7
 10
5.74500000E+02
 20
4.00500000E+02
 11
5.74500000E+02
 21
-4.00500000E+02
  0
LINE
  8
0
 62
7
 10
-5.64500000E+02
 20
4.00500000E+02
 11
5.74500000E+02
 21
4.00500000E+02
  0
LINE
  8
0
 62
7
 10
-5.64500000E+02
 20
-4.00500000E+02
 11
5.74500000E+02
 21
-4.00500000E+02
  0
LINE
  8
0
 62
7
 10
-5.64500000E+02
 20
4.00500000E+02
 11
-5.64500000E+02
 21
-4.00500000E+02
  0
LINE
  8
0
 62
7
 10
-5.64500000E+02
 20
3.70500000E+02
 11
-3.34500000E+02
 21
3.70500000E+02
  0
LINE
  8
0
 62
7
 10
3.44500000E+02
 20
3.70500000E+02
 11
5.74500000E+02
 21
3.70500000E+02
  0
LINE
  8
0
 62
7
 10
3.44500000E+02
 20
-3.70500000E+02
 11
5.74500000E+02
 21
-3.70500000E+02
  0
LINE
  8
0
 62
7
 10
3.44500000E+02
 20
-3.70500000E+02
 11
3.44500000E+02
 21
-4.00500000E+02
  0
LINE
  8
0
 62
7
 10
3.44500000E+02
 20
4.00500000E+02
 11
3.44500000E+02
 21
3.70500000E+02
  0
LINE
  8
0
 62
7
 10
-3.34500000E+02
 20
4.00500000E+02
 11
-3.34500000E+02
 21
3.70500000E+02
  0
TEXT
  8
0
 62
7
 10
-5.37179687E+02
 20
3.34250000E+02
 40
1.25000000E+01
  1
MODEL:MRW40*ST(300)
 41
1.00000015E+00
  7
MONOTXT
  0
TEXT
  8
0
 62
7
 10
4.11285149E+02
 20
3.79250000E+02
 40
1.25000000E+01
  1
Ver. 1.0
 41
1.08108125E+00
  7
MONOTXT
  0
TEXT
  8
0
 62
7
 10
3.50070624E+02
 20
-3.94500000E+02
 40
1.80000000E+01
  1
KOGANEI CORP.
 41
1.04838710E+00
  7
MONOTXT
  0
TEXT
  8
0
 62
7
 10
-5.47714858E+02
 20
3.79250000E+02
 40
1.25000000E+01
  1
RODLESS CYLINDER
 41
1.03896120E+00
  7
MONOTXT
  0
ENDSEC
  0
EOF
