  0
SECTION
  2
HEADER
  9
$ACADVER
  1
AC1002
  9
$INSBASE
 10
0.0
 20
0.0
  9
$EXTMIN
 10
-262.2472
 20
-180.0
  9
$EXTMAX
 10
262.2472
 20
180.0
  9
$LIMMIN
 10
0.0
 20
0.0
  9
$LIMMAX
 10
12.0
 20
9.0
  9
$VIEWCTR
 10
20.22981726
 20
0.0
  9
$VIEWSIZE
 40
360.0
  9
$SNAPMODE
 70
     0
  9
$SNAPUNIT
 10
1.0
 20
1.0
  9
$SNAPBASE
 10
0.0
 20
0.0
  9
$SNAPANG
 50
0.0
  9
$SNAPSTYLE
 70
     0
  9
$SNAPISOPAIR
 70
     0
  9
$GRIDMODE
 70
     0
  9
$GRIDUNIT
 10
0.0
 20
0.0
  9
$ORTHOMODE
 70
     0
  9
$REGENMODE
 70
     1
  9
$FILLMODE
 70
     1
  9
$QTEXTMODE
 70
     0
  9
$DRAGMODE
 70
     2
  9
$LTSCALE
 40
1.0
  9
$OSMODE
 70
     0
  9
$ATTMODE
 70
     1
  9
$TEXTSIZE
 40
0.2
  9
$TRACEWID
 40
0.05
  9
$TEXTSTYLE
  7
AAA
  9
$CLAYER
  8
0
  9
$CELTYPE
  6
BYLAYER
  9
$CECOLOR
 62
   256
  9
$DIMSCALE
 40
1.0
  9
$DIMASZ
 40
0.18
  9
$DIMEXO
 40
0.0625
  9
$DIMDLI
 40
0.38
  9
$DIMRND
 40
0.0
  9
$DIMDLE
 40
0.0
  9
$DIMEXE
 40
0.18
  9
$DIMTP
 40
0.0
  9
$DIMTM
 40
0.0
  9
$DIMTXT
 40
0.18
  9
$DIMCEN
 40
0.09
  9
$DIMTSZ
 40
0.0
  9
$DIMTOL
 70
     0
  9
$DIMLIM
 70
     0
  9
$DIMTIH
 70
     1
  9
$DIMTOH
 70
     1
  9
$DIMSE1
 70
     0
  9
$DIMSE2
 70
     0
  9
$DIMTAD
 70
     0
  9
$DIMZIN
 70
     0
  9
$DIMBLK
  1

  9
$LUNITS
 70
     2
  9
$LUPREC
 70
     4
  9
$AXISMODE
 70
     0
  9
$AXISUNIT
 10
0.0
 20
0.0
  9
$SKETCHINC
 40
0.1
  9
$FILLETRAD
 40
0.0
  9
$AUNITS
 70
     0
  9
$AUPREC
 70
     0
  9
$MENU
  1
ACAD
  9
$ELEVATION
 40
0.0
  9
$THICKNESS
 40
0.0
  9
$VIEWDIR
 10
0.0
 20
0.0
 30
1.0
  9
$LIMCHECK
 70
     0
  9
$BLIPMODE
 70
     1
  9
$CHAMFERA
 40
0.0
  9
$CHAMFERB
 40
0.0
  9
$FASTZOOM
 70
     1
  9
$SKPOLY
 70
     0
  9
$TDCREATE
 40
2447845.8034722718
  9
$TDUPDATE
 40
2447845.8034722718
  9
$TDINDWG
 40
0.0054282407
  9
$TDUSRTIMER
 40
0.0054282407
  9
$USRTIMER
 70
     1
  9
$ANGBASE
 50
0.0
  9
$ANGDIR
 70
     0
  9
$PDMODE
 70
     0
  9
$PDSIZE
 40
0.0
  9
$PLINEWID
 40
0.0
  9
$COORDS
 70
     0
  9
$USERI1
 70
     0
  9
$USERI2
 70
     0
  9
$USERI3
 70
     0
  9
$USERI4
 70
     0
  9
$USERI5
 70
     0
  9
$USERR1
 40
0.0
  9
$USERR2
 40
0.0
  9
$USERR3
 40
0.0
  9
$USERR4
 40
0.0
  9
$USERR5
 40
0.0
  0
ENDSEC
  0
SECTION
  2
TABLES
  0
TABLE
  2
LTYPE
 70
     3
  0
LTYPE
  2
CONTINUOUS
 70
    64
  3
SOLID
 72
    65
 73
     0
 40
0.0
  0
LTYPE
  2
CENTER
 70
    64
  3
CENTER
 72
    65
 73
     4
 40
2.0
 49
1.25
 49
-0.25
 49
0.25
 49
-0.25
  0
LTYPE
  2
PHANTOM
 70
    64
  3
PHANTOM
 72
    65
 73
     6
 40
2.5
 49
1.25
 49
-0.25
 49
0.25
 49
-0.25
 49
0.25
 49
-0.25
  0
ENDTAB
  0
TABLE
  2
LAYER
 70
     1
  0
LAYER
  2
0
 70
    64
 62
     7
  6
CONTINUOUS
  0
ENDTAB
  0
TABLE
  2
STYLE
 70
     2
  0
STYLE
  2
AAA
 70
     0
 40
0.0
 41
1.0
 50
0.0
 71
     0
 42
0.2
  3
TXT
  4

  0
STYLE
  2
STANDARD
 70
    64
 40
0.0
 41
1.0
 50
0.0
 71
     0
 42
0.2
  3
TXT
  4
BIGFONT
  0
ENDTAB
  0
TABLE
  2
VIEW
 70
     0
  0
ENDTAB
  0
ENDSEC
  0
SECTION
  2
BLOCKS
  0
ENDSEC
  0
SECTION
  2
ENTITIES
  0
POINT
  8
0
  6
CONTINUOUS
 62
     7
 10
-105.5618
 20
99.88765
  0
POINT
  8
0
  6
CONTINUOUS
 62
     7
 10
-62.56181
 20
99.88765
  0
POINT
  8
0
  6
CONTINUOUS
 62
     7
 10
-105.5618
 20
39.94382
  0
POINT
  8
0
  6
CONTINUOUS
 62
     7
 10
-62.56181
 20
39.94382
  0
POINT
  8
0
  6
CONTINUOUS
 62
     7
 10
-190.6854
 20
39.94382
  0
POINT
  8
0
  6
CONTINUOUS
 62
     7
 10
-184.6854
 20
39.94382
  0
POINT
  8
0
  6
CONTINUOUS
 62
     7
 10
72.56181
 20
39.94384
  0
POINT
  8
0
  6
CONTINUOUS
 62
     7
 10
79.56181
 20
39.94384
  0
POINT
  8
0
  6
CONTINUOUS
 62
     7
 10
156.6854
 20
39.94383
  0
POINT
  8
0
  6
CONTINUOUS
 62
     7
 10
201.6854
 20
39.94383
  0
POINT
  8
0
  6
CONTINUOUS
 62
     7
 10
156.6854
 20
99.88766
  0
POINT
  8
0
  6
CONTINUOUS
 62
     7
 10
201.6854
 20
99.88766
  0
POINT
  8
0
  6
CONTINUOUS
 62
     7
 10
-55.56181
 20
-119.8315
  0
POINT
  8
0
  6
CONTINUOUS
 62
     7
 10
-45.56181
 20
-119.8315
  0
POINT
  8
0
  6
CONTINUOUS
 62
     7
 10
25.56181
 20
-59.88763
  0
POINT
  8
0
  6
CONTINUOUS
 62
     7
 10
73.56181
 20
-59.88763
  0
POINT
  8
0
  6
CONTINUOUS
 62
     7
 10
25.56183
 20
-119.8315
  0
POINT
  8
0
  6
CONTINUOUS
 62
     7
 10
73.56183
 20
-119.8315
  0
LINE
  8
0
  6
CONTINUOUS
 62
     7
 10
-262.2472
 20
-180.0
 11
-262.2472
 21
180.0
  0
LINE
  8
0
  6
CONTINUOUS
 62
     7
 10
262.2472
 20
180.0
 11
262.2472
 21
-180.0
  0
LINE
  8
0
  6
CONTINUOUS
 62
     7
 10
-262.2472
 20
-180.0
 11
262.2472
 21
-180.0
  0
LINE
  8
0
  6
CONTINUOUS
 62
     7
 10
-262.2472
 20
180.0
 11
262.2472
 21
180.0
  0
LINE
  8
0
  6
CONTINUOUS
 62
     7
 10
-262.2472
 20
159.7753
 11
-154.382
 21
159.7753
  0
LINE
  8
0
  6
CONTINUOUS
 62
     7
 10
-154.382
 20
159.7753
 11
-154.382
 21
180.0
  0
LINE
  8
0
  6
CONTINUOUS
 62
     7
 10
154.382
 20
-159.7753
 11
262.2472
 21
-159.7753
  0
LINE
  8
0
  6
CONTINUOUS
 62
     7
 10
182.7034
 20
-164.6383
 11
193.0652
 21
-164.6383
  0
LINE
  8
0
  6
CONTINUOUS
 62
     7
 10
182.7034
 20
-173.8271
 11
191.5012
 21
-173.8271
  0
LINE
  8
0
  6
CONTINUOUS
 62
     7
 10
182.7034
 20
-176.1732
 11
194.6293
 21
-176.1732
  0
LINE
  8
0
  6
CONTINUOUS
 62
     7
 10
182.7034
 20
-166.9844
 11
191.5012
 21
-166.9844
  0
LINE
  8
0
  6
CONTINUOUS
 62
     7
 10
182.7034
 20
-164.6383
 11
182.7034
 21
-166.9844
  0
LINE
  8
0
  6
CONTINUOUS
 62
     7
 10
194.6293
 20
-166.2024
 11
194.6293
 21
-176.1732
  0
LINE
  8
0
  6
CONTINUOUS
 62
     7
 10
191.5012
 20
-166.9844
 11
191.5012
 21
-173.8271
  0
LINE
  8
0
  6
CONTINUOUS
 62
     7
 10
196.3888
 20
-164.6383
 11
196.3888
 21
-166.9844
  0
LINE
  8
0
  6
CONTINUOUS
 62
     7
 10
207.5326
 20
-166.9844
 11
207.5326
 21
-174.6092
  0
LINE
  8
0
  6
CONTINUOUS
 62
     7
 10
204.4045
 20
-166.9844
 11
204.4045
 21
-173.8271
  0
LINE
  8
0
  6
CONTINUOUS
 62
     7
 10
182.7034
 20
-173.8271
 11
182.7034
 21
-176.1732
  0
LINE
  8
0
  6
CONTINUOUS
 62
     7
 10
196.3888
 20
-164.6383
 11
199.4796
 21
-164.6383
  0
LINE
  8
0
  6
CONTINUOUS
 62
     7
 10
196.3888
 20
-176.1732
 11
198.8176
 21
-176.1732
  0
LINE
  8
0
  6
CONTINUOUS
 62
     7
 10
196.3887
 20
-176.1731
 11
198.8509
 21
-166.9843
  0
LINE
  8
0
  6
CONTINUOUS
 62
     7
 10
196.3888
 20
-166.9844
 11
198.8509
 21
-166.9844
  0
LINE
  8
0
  6
CONTINUOUS
 62
     7
 10
198.8178
 20
-176.1733
 11
201.2799
 21
-166.9845
  0
LINE
  8
0
  6
CONTINUOUS
 62
     7
 10
202.0584
 20
-173.8271
 11
204.4045
 21
-173.8271
  0
LINE
  8
0
  6
CONTINUOUS
 62
     7
 10
202.0583
 20
-173.8271
 11
202.6869
 21
-176.1731
  0
LINE
  8
0
  6
CONTINUOUS
 62
     7
 10
202.6871
 20
-176.1732
 11
205.9686
 21
-176.1732
  0
LINE
  8
0
  6
CONTINUOUS
 62
     7
 10
201.2798
 20
-166.9844
 11
204.4045
 21
-166.9844
  0
LINE
  8
0
  6
CONTINUOUS
 62
     7
 10
201.9084
 20
-164.6383
 11
205.1865
 21
-164.6383
  0
LINE
  8
0
  6
CONTINUOUS
 62
     7
 10
199.4796
 20
-164.6384
 11
199.9458
 21
-162.8984
  0
LINE
  8
0
  6
CONTINUOUS
 62
     7
 10
201.9082
 20
-164.6382
 11
202.3744
 21
-162.8982
  0
LINE
  8
0
  6
CONTINUOUS
 62
     7
 10
209.4877
 20
-164.6383
 11
213.2023
 21
-164.6383
  0
LINE
  8
0
  6
CONTINUOUS
 62
     7
 10
209.4877
 20
-166.9844
 11
218.6106
 21
-166.9844
  0
LINE
  8
0
  6
CONTINUOUS
 62
     7
 10
213.2023
 20
-176.1732
 11
216.3303
 21
-176.1732
  0
LINE
  8
0
  6
CONTINUOUS
 62
     7
 10
209.4877
 20
-164.6383
 11
209.4877
 21
-166.9844
  0
LINE
  8
0
  6
CONTINUOUS
 62
     7
 10
221.0225
 20
-171.2385
 11
221.0225
 21
-173.8271
  0
LINE
  8
0
  6
CONTINUOUS
 62
     7
 10
209.4875
 20
-173.827
 11
213.2022
 21
-172.0948
  0
LINE
  8
0
  6
CONTINUOUS
 62
     7
 10
209.4879
 20
-171.2387
 11
218.6108
 21
-166.9846
  0
LINE
  8
0
  6
CONTINUOUS
 62
     7
 10
209.4877
 20
-171.2385
 11
209.4877
 21
-173.8271
  0
LINE
  8
0
  6
CONTINUOUS
 62
     7
 10
216.3302
 20
-171.6391
 11
221.0225
 21
-173.827
  0
LINE
  8
0
  6
CONTINUOUS
 62
     7
 10
218.0311
 20
-169.8436
 11
221.0228
 21
-171.2387
  0
LINE
  8
0
  6
CONTINUOUS
 62
     7
 10
221.0225
 20
-166.2024
 11
221.0225
 21
-167.4519
  0
LINE
  8
0
  6
CONTINUOUS
 62
     7
 10
213.2023
 20
-162.8984
 11
213.2023
 21
-164.6383
  0
LINE
  8
0
  6
CONTINUOUS
 62
     7
 10
216.3303
 20
-162.8984
 11
216.3303
 21
-164.6383
  0
LINE
  8
0
  6
CONTINUOUS
 62
     7
 10
216.3303
 20
-164.6383
 11
219.4585
 21
-164.6383
  0
LINE
  8
0
  6
CONTINUOUS
 62
     7
 10
213.2023
 20
-172.095
 11
213.2023
 21
-176.1732
  0
LINE
  8
0
  6
CONTINUOUS
 62
     7
 10
216.3303
 20
-171.6392
 11
216.3303
 21
-176.1732
  0
LINE
  8
0
  6
CONTINUOUS
 62
     7
 10
218.031
 20
-169.8436
 11
220.1197
 21
-168.8696
  0
LINE
  8
0
  6
CONTINUOUS
 62
     7
 10
231.5798
 20
-163.6022
 11
233.9258
 21
-163.6022
  0
LINE
  8
0
  6
CONTINUOUS
 62
     7
 10
222.0001
 20
-168.4483
 11
222.0001
 21
-170.9731
  0
LINE
  8
0
  6
CONTINUOUS
 62
     7
 10
233.9258
 20
-163.6022
 11
233.9258
 21
-164.6383
  0
LINE
  8
0
  6
CONTINUOUS
 62
     7
 10
231.5798
 20
-163.6022
 11
231.5798
 21
-164.1077
  0
LINE
  8
0
  6
CONTINUOUS
 62
     7
 10
228.4517
 20
-168.4072
 11
228.4517
 21
-176.1732
  0
LINE
  8
0
  6
CONTINUOUS
 62
     7
 10
222.0001
 20
-168.4484
 11
231.0869
 21
-164.8345
  0
LINE
  8
0
  6
CONTINUOUS
 62
     7
 10
222.0001
 20
-170.9732
 11
228.4517
 21
-168.4073
  0
LINE
  8
0
  6
CONTINUOUS
 62
     7
 10
228.4517
 20
-176.1732
 11
231.5798
 21
-176.1732
  0
LINE
  8
0
  6
CONTINUOUS
 62
     7
 10
231.5798
 20
-167.1632
 11
231.5798
 21
-176.1732
  0
LINE
  8
0
  6
CONTINUOUS
 62
     7
 10
231.5801
 20
-167.1633
 11
232.4471
 21
-166.8185
  0
LINE
  8
0
  6
CONTINUOUS
 62
     7
 10
199.7572
 20
-162.8984
 11
202.3746
 21
-162.8984
  0
LINE
  8
0
  6
CONTINUOUS
 62
     7
 10
206.2618
 20
-162.8984
 11
207.2589
 21
-162.8984
  0
LINE
  8
0
  6
CONTINUOUS
 62
     7
 10
213.2023
 20
-162.8984
 11
216.3303
 21
-162.8984
  0
LINE
  8
0
  6
CONTINUOUS
 62
     7
 10
206.2618
 20
-164.4624
 11
207.2589
 21
-164.4624
  0
LINE
  8
0
  6
CONTINUOUS
 62
     7
 10
206.2618
 20
-162.8984
 11
206.2618
 21
-164.4624
  0
LINE
  8
0
  6
CONTINUOUS
 62
     7
 10
207.2589
 20
-162.8984
 11
207.2589
 21
-164.4624
  0
LINE
  8
0
  6
CONTINUOUS
 62
     7
 10
207.8454
 20
-162.8984
 11
207.8454
 21
-164.4624
  0
LINE
  8
0
  6
CONTINUOUS
 62
     7
 10
208.9598
 20
-162.8984
 11
208.9598
 21
-164.4624
  0
LINE
  8
0
  6
CONTINUOUS
 62
     7
 10
207.8454
 20
-162.8984
 11
208.9598
 21
-162.8984
  0
LINE
  8
0
  6
CONTINUOUS
 62
     7
 10
207.8454
 20
-164.4624
 11
208.9598
 21
-164.4624
  0
LINE
  8
0
  6
CONTINUOUS
 62
     7
 10
154.382
 20
159.7753
 11
262.2472
 21
159.7753
  0
LINE
  8
0
  6
CONTINUOUS
 62
     7
 10
154.382
 20
180.0
 11
154.382
 21
159.7753
  0
LINE
  8
0
  6
CONTINUOUS
 62
     7
 10
154.382
 20
-159.7753
 11
154.382
 21
-180.0
  0
LINE
  8
0
  6
CONTINUOUS
 62
     7
 10
-262.2472
 20
0.0
 11
262.2472
 21
0.0
  0
LINE
  8
0
  6
CONTINUOUS
 62
     7
 10
0.0
 20
0.0
 11
0.0
 21
180.0
  0
LINE
  8
0
  6
PHANTOM
 62
     2
 10
-105.5618
 20
49.94382
 11
-62.56181
 21
49.94382
  0
LINE
  8
0
  6
PHANTOM
 62
     2
 10
-105.5618
 20
44.94382
 11
-62.56181
 21
44.94382
  0
LINE
  8
0
  6
PHANTOM
 62
     2
 10
-105.5618
 20
29.94382
 11
-62.56181
 21
29.94382
  0
LINE
  8
0
  6
PHANTOM
 62
     2
 10
-67.56181
 20
49.94382
 11
-67.56181
 21
29.94382
  0
LINE
  8
0
  6
PHANTOM
 62
     2
 10
-62.56181
 20
49.94382
 11
-62.56181
 21
29.94382
  0
LINE
  8
0
  6
PHANTOM
 62
     2
 10
-105.5618
 20
49.94382
 11
-105.5618
 21
29.94382
  0
LINE
  8
0
  6
PHANTOM
 62
     2
 10
-100.5618
 20
49.94382
 11
-100.5618
 21
29.94382
  0
LINE
  8
0
  6
PHANTOM
 62
     2
 10
-62.56181
 20
105.8876
 11
-62.56181
 21
93.88765
  0
LINE
  8
0
  6
PHANTOM
 62
     2
 10
-105.5618
 20
105.8876
 11
-62.56181
 21
105.8876
  0
LINE
  8
0
  6
PHANTOM
 62
     2
 10
-105.5618
 20
93.88765
 11
-62.56181
 21
93.88765
  0
LINE
  8
0
  6
PHANTOM
 62
     2
 10
-100.5618
 20
105.8876
 11
-100.5618
 21
93.88765
  0
LINE
  8
0
  6
PHANTOM
 62
     2
 10
-67.56181
 20
105.8876
 11
-67.56181
 21
93.88765
  0
LINE
  8
0
  6
PHANTOM
 62
     2
 10
-105.5618
 20
105.8876
 11
-105.5618
 21
93.88765
  0
LINE
  8
0
  6
PHANTOM
 62
     2
 10
-195.6854
 20
44.94382
 11
-195.6854
 21
34.94382
  0
LINE
  8
0
  6
PHANTOM
 62
     2
 10
-185.6854
 20
44.94382
 11
-184.6854
 21
44.94382
  0
LINE
  8
0
  6
PHANTOM
 62
     2
 10
-184.6854
 20
49.94382
 11
-184.6854
 21
44.94382
  0
LINE
  8
0
  6
PHANTOM
 62
     2
 10
-196.6854
 20
49.94382
 11
-184.6854
 21
49.94382
  0
LINE
  8
0
  6
PHANTOM
 62
     2
 10
-196.6854
 20
49.94382
 11
-196.6854
 21
44.94382
  0
LINE
  8
0
  6
PHANTOM
 62
     2
 10
-196.6854
 20
44.94382
 11
-195.6854
 21
44.94382
  0
LINE
  8
0
  6
PHANTOM
 62
     2
 10
-196.6854
 20
34.94382
 11
-195.6854
 21
34.94382
  0
LINE
  8
0
  6
PHANTOM
 62
     2
 10
-196.6854
 20
34.94382
 11
-196.6854
 21
29.94382
  0
LINE
  8
0
  6
PHANTOM
 62
     2
 10
-196.6854
 20
29.94382
 11
-184.6854
 21
29.94382
  0
LINE
  8
0
  6
PHANTOM
 62
     2
 10
-184.6854
 20
34.94382
 11
-184.6854
 21
29.94382
  0
LINE
  8
0
  6
PHANTOM
 62
     2
 10
-185.6854
 20
44.94382
 11
-185.6854
 21
34.94382
  0
LINE
  8
0
  6
PHANTOM
 62
     2
 10
-185.6854
 20
34.94382
 11
-184.6854
 21
34.94382
  0
LINE
  8
0
  6
PHANTOM
 62
     2
 10
156.6854
 20
51.94383
 11
201.6854
 21
51.94383
  0
LINE
  8
0
  6
PHANTOM
 62
     2
 10
156.6854
 20
27.94383
 11
201.6854
 21
27.94383
  0
LINE
  8
0
  6
PHANTOM
 62
     2
 10
201.6854
 20
51.94383
 11
201.6854
 21
27.94383
  0
LINE
  8
0
  6
PHANTOM
 62
     2
 10
162.6854
 20
51.94383
 11
162.6854
 21
27.94383
  0
LINE
  8
0
  6
PHANTOM
 62
     2
 10
195.6854
 20
51.94383
 11
195.6854
 21
27.94383
  0
LINE
  8
0
  6
PHANTOM
 62
     2
 10
156.6854
 20
51.94383
 11
156.6854
 21
27.94383
  0
LINE
  8
0
  6
PHANTOM
 62
     2
 10
162.6854
 20
106.8877
 11
162.6854
 21
92.88766
  0
LINE
  8
0
  6
PHANTOM
 62
     2
 10
195.6854
 20
106.8877
 11
195.6854
 21
92.88766
  0
LINE
  8
0
  6
PHANTOM
 62
     2
 10
201.6854
 20
106.8877
 11
201.6854
 21
92.88766
  0
LINE
  8
0
  6
PHANTOM
 62
     2
 10
156.6854
 20
106.8877
 11
201.6854
 21
106.8877
  0
LINE
  8
0
  6
PHANTOM
 62
     2
 10
156.6854
 20
92.88766
 11
201.6854
 21
92.88766
  0
LINE
  8
0
  6
PHANTOM
 62
     2
 10
156.6854
 20
106.8877
 11
156.6854
 21
92.88766
  0
LINE
  8
0
  6
PHANTOM
 62
     2
 10
65.56181
 20
51.94384
 11
79.56181
 21
51.94384
  0
LINE
  8
0
  6
PHANTOM
 62
     2
 10
65.56181
 20
51.94384
 11
65.56181
 21
27.94384
  0
LINE
  8
0
  6
PHANTOM
 62
     2
 10
79.56181
 20
51.94384
 11
79.56181
 21
27.94384
  0
LINE
  8
0
  6
PHANTOM
 62
     2
 10
65.56181
 20
27.94384
 11
79.56181
 21
27.94384
  0
LINE
  8
0
  6
PHANTOM
 62
     2
 10
25.56183
 20
-103.3315
 11
73.56183
 21
-103.3315
  0
LINE
  8
0
  6
PHANTOM
 62
     2
 10
25.56183
 20
-136.3315
 11
73.56183
 21
-136.3315
  0
LINE
  8
0
  6
PHANTOM
 62
     2
 10
66.56183
 20
-103.3315
 11
66.56183
 21
-136.3315
  0
LINE
  8
0
  6
PHANTOM
 62
     2
 10
73.56183
 20
-103.3315
 11
73.56183
 21
-136.3315
  0
LINE
  8
0
  6
PHANTOM
 62
     2
 10
32.56183
 20
-103.3315
 11
32.56183
 21
-136.3315
  0
LINE
  8
0
  6
PHANTOM
 62
     2
 10
25.56183
 20
-103.3315
 11
25.56183
 21
-136.3315
  0
LINE
  8
0
  6
PHANTOM
 62
     2
 10
32.56181
 20
-49.88763
 11
32.56181
 21
-69.88763
  0
LINE
  8
0
  6
PHANTOM
 62
     2
 10
66.56181
 20
-49.88763
 11
66.56181
 21
-69.88763
  0
LINE
  8
0
  6
PHANTOM
 62
     2
 10
25.56181
 20
-69.88763
 11
73.56181
 21
-69.88763
  0
LINE
  8
0
  6
PHANTOM
 62
     2
 10
25.56181
 20
-49.88763
 11
73.56181
 21
-49.88763
  0
LINE
  8
0
  6
PHANTOM
 62
     2
 10
73.56181
 20
-49.88763
 11
73.56181
 21
-69.88763
  0
LINE
  8
0
  6
PHANTOM
 62
     2
 10
25.56181
 20
-49.88763
 11
25.56181
 21
-69.88763
  0
LINE
  8
0
  6
PHANTOM
 62
     2
 10
-65.56181
 20
-103.3315
 11
-45.56181
 21
-103.3315
  0
LINE
  8
0
  6
PHANTOM
 62
     2
 10
-45.56181
 20
-103.3315
 11
-45.56181
 21
-136.3315
  0
LINE
  8
0
  6
PHANTOM
 62
     2
 10
-65.56181
 20
-103.3315
 11
-65.56181
 21
-136.3315
  0
LINE
  8
0
  6
PHANTOM
 62
     2
 10
-65.56181
 20
-136.3315
 11
-45.56181
 21
-136.3315
  0
LINE
  8
0
  6
PHANTOM
 62
     2
 10
-105.5618
 20
34.94382
 11
-62.56181
 21
34.94382
  0
LINE
  8
0
  6
CENTER
 62
     2
 10
-108.5296
 20
39.94382
 11
-59.56181
 21
39.94382
  0
LINE
  8
0
  6
CONTINUOUS
 62
     7
 10
-79.31181
 20
34.94382
 11
-76.31181
 21
34.94382
  0
LINE
  8
0
  6
CENTER
 62
     2
 10
-88.06181
 20
32.94382
 11
-78.06181
 21
32.94382
  0
LINE
  8
0
  6
CENTER
 62
     2
 10
-83.06181
 20
46.94382
 11
-73.06181
 21
46.94382
  0
LINE
  8
0
  6
CENTER
 62
     2
 10
-78.06181
 20
52.94382
 11
-78.06181
 21
38.14383
  0
LINE
  8
0
  6
CENTER
 62
     2
 10
-83.06181
 20
41.74382
 11
-83.06181
 21
26.94382
  0
LINE
  8
0
  6
CONTINUOUS
 62
     7
 10
-62.56181
 20
44.44382
 11
-65.2618
 21
44.44382
  0
LINE
  8
0
  6
CONTINUOUS
 62
     7
 10
-81.2618
 20
33.44382
 11
-81.2618
 21
32.44382
  0
LINE
  8
0
  6
CONTINUOUS
 62
     7
 10
-84.86181
 20
33.44382
 11
-84.86181
 21
32.44382
  0
LINE
  8
0
  6
CONTINUOUS
 62
     7
 10
-83.56181
 20
34.74382
 11
-82.56181
 21
34.74382
  0
LINE
  8
0
  6
CONTINUOUS
 62
     7
 10
-83.56181
 20
31.14383
 11
-82.56181
 21
31.14383
  0
LINE
  8
0
  6
CONTINUOUS
 62
     7
 10
-84.86181
 20
33.44382
 11
-84.36181
 21
33.44382
  0
LINE
  8
0
  6
CONTINUOUS
 62
     7
 10
-84.86181
 20
32.44382
 11
-84.36181
 21
32.44382
  0
LINE
  8
0
  6
CONTINUOUS
 62
     7
 10
-83.56181
 20
34.74382
 11
-83.56181
 21
34.24382
  0
LINE
  8
0
  6
CONTINUOUS
 62
     7
 10
-82.56181
 20
34.74382
 11
-82.56181
 21
34.24382
  0
LINE
  8
0
  6
CONTINUOUS
 62
     7
 10
-83.56181
 20
31.64383
 11
-83.56181
 21
31.14383
  0
LINE
  8
0
  6
CONTINUOUS
 62
     7
 10
-81.7618
 20
33.44382
 11
-81.2618
 21
33.44382
  0
LINE
  8
0
  6
CONTINUOUS
 62
     7
 10
-82.56181
 20
31.64383
 11
-82.56181
 21
31.14383
  0
LINE
  8
0
  6
CONTINUOUS
 62
     7
 10
-81.7618
 20
32.44382
 11
-81.2618
 21
32.44382
  0
LINE
  8
0
  6
CONTINUOUS
 62
     7
 10
-78.56181
 20
48.74382
 11
-77.56181
 21
48.74382
  0
LINE
  8
0
  6
CONTINUOUS
 62
     7
 10
-78.56181
 20
48.74382
 11
-78.56181
 21
48.24382
  0
LINE
  8
0
  6
CONTINUOUS
 62
     7
 10
-79.86181
 20
47.44382
 11
-79.36181
 21
47.44382
  0
LINE
  8
0
  6
CONTINUOUS
 62
     7
 10
-79.86181
 20
47.44382
 11
-79.86181
 21
46.44382
  0
LINE
  8
0
  6
CONTINUOUS
 62
     7
 10
-79.86181
 20
46.44382
 11
-79.36181
 21
46.44382
  0
LINE
  8
0
  6
CONTINUOUS
 62
     7
 10
-78.56181
 20
45.64383
 11
-78.56181
 21
45.14383
  0
LINE
  8
0
  6
CONTINUOUS
 62
     7
 10
-78.56181
 20
45.14383
 11
-77.56181
 21
45.14383
  0
LINE
  8
0
  6
CONTINUOUS
 62
     7
 10
-77.56181
 20
45.64383
 11
-77.56181
 21
45.14383
  0
LINE
  8
0
  6
CONTINUOUS
 62
     7
 10
-76.7618
 20
46.44382
 11
-76.2618
 21
46.44382
  0
LINE
  8
0
  6
CONTINUOUS
 62
     7
 10
-76.2618
 20
47.44382
 11
-76.2618
 21
46.44382
  0
LINE
  8
0
  6
CONTINUOUS
 62
     7
 10
-76.7618
 20
47.44382
 11
-76.2618
 21
47.44382
  0
LINE
  8
0
  6
CONTINUOUS
 62
     7
 10
-77.56181
 20
48.74382
 11
-77.56181
 21
48.24382
  0
LINE
  8
0
  6
CONTINUOUS
 62
     7
 10
-74.31181
 20
50.94382
 11
-74.31181
 21
40.14383
  0
LINE
  8
0
  6
CONTINUOUS
 62
     7
 10
-81.81181
 20
50.94382
 11
-81.81181
 21
40.14383
  0
LINE
  8
0
  6
CONTINUOUS
 62
     7
 10
-81.81181
 20
50.94382
 11
-74.31181
 21
50.94382
  0
LINE
  8
0
  6
CONTINUOUS
 62
     7
 10
-88.31181
 20
40.94382
 11
-81.81181
 21
40.94382
  0
LINE
  8
0
  6
CONTINUOUS
 62
     7
 10
-81.81181
 20
40.14383
 11
-74.31181
 21
40.14383
  0
LINE
  8
0
  6
CONTINUOUS
 62
     7
 10
-74.31181
 20
44.94382
 11
-66.31181
 21
44.94382
  0
LINE
  8
0
  6
CONTINUOUS
 62
     7
 10
-74.31181
 20
40.94382
 11
-66.31181
 21
40.94382
  0
LINE
  8
0
  6
CONTINUOUS
 62
     7
 10
-66.31181
 20
44.94382
 11
-66.31181
 21
40.94382
  0
LINE
  8
0
  6
CONTINUOUS
 62
     7
 10
-88.31181
 20
44.94382
 11
-88.31181
 21
40.94382
  0
LINE
  8
0
  6
CONTINUOUS
 62
     7
 10
-87.31181
 20
44.94382
 11
-87.31181
 21
40.94382
  0
LINE
  8
0
  6
CENTER
 62
     2
 10
-90.31181
 20
42.94382
 11
-58.59064
 21
42.94382
  0
LINE
  8
0
  6
CONTINUOUS
 62
     7
 10
-81.06181
 20
49.44382
 11
-81.06181
 21
47.90429
  0
LINE
  8
0
  6
CONTINUOUS
 62
     7
 10
-75.06181
 20
49.44382
 11
-75.06181
 21
47.90429
  0
LINE
  8
0
  6
CONTINUOUS
 62
     7
 10
-80.86181
 20
49.64383
 11
-79.6843
 21
49.64383
  0
LINE
  8
0
  6
CONTINUOUS
 62
     7
 10
-80.86181
 20
40.94382
 11
-75.2618
 21
40.94382
  0
LINE
  8
0
  6
CONTINUOUS
 62
     7
 10
-81.06181
 20
45.98336
 11
-81.06181
 21
41.14383
  0
LINE
  8
0
  6
CONTINUOUS
 62
     7
 10
-75.06181
 20
45.98336
 11
-75.06181
 21
41.14383
  0
LINE
  8
0
  6
CONTINUOUS
 62
     7
 10
-76.43931
 20
49.64383
 11
-75.2618
 21
49.64383
  0
LINE
  8
0
  6
CONTINUOUS
 62
     7
 10
-98.31181
 20
38.94382
 11
-86.81181
 21
38.94382
  0
LINE
  8
0
  6
CONTINUOUS
 62
     7
 10
-86.81181
 20
28.94382
 11
-86.81181
 21
39.74382
  0
LINE
  8
0
  6
CONTINUOUS
 62
     7
 10
-86.06181
 20
33.90429
 11
-86.06181
 21
38.74382
  0
LINE
  8
0
  6
CONTINUOUS
 62
     7
 10
-85.86181
 20
38.94382
 11
-80.2618
 21
38.94382
  0
LINE
  8
0
  6
CONTINUOUS
 62
     7
 10
-86.81181
 20
39.74382
 11
-79.31181
 21
39.74382
  0
LINE
  8
0
  6
CONTINUOUS
 62
     7
 10
-79.31181
 20
28.94382
 11
-79.31181
 21
39.74382
  0
LINE
  8
0
  6
CONTINUOUS
 62
     7
 10
-80.06181
 20
33.90429
 11
-80.06181
 21
38.74382
  0
LINE
  8
0
  6
CONTINUOUS
 62
     7
 10
-81.43931
 20
30.24382
 11
-80.2618
 21
30.24382
  0
LINE
  8
0
  6
CONTINUOUS
 62
     7
 10
-80.06181
 20
30.44382
 11
-80.06181
 21
31.98336
  0
LINE
  8
0
  6
CONTINUOUS
 62
     7
 10
-86.06181
 20
30.44382
 11
-86.06181
 21
31.98336
  0
LINE
  8
0
  6
CONTINUOUS
 62
     7
 10
-85.86181
 20
30.24382
 11
-84.6843
 21
30.24382
  0
LINE
  8
0
  6
CONTINUOUS
 62
     7
 10
-86.81181
 20
28.94382
 11
-79.31181
 21
28.94382
  0
LINE
  8
0
  6
CONTINUOUS
 62
     7
 10
-79.31181
 20
38.94382
 11
-76.31181
 21
38.94382
  0
LINE
  8
0
  6
CONTINUOUS
 62
     7
 10
-76.31181
 20
38.44382
 11
-60.56181
 21
38.44382
  0
LINE
  8
0
  6
CONTINUOUS
 62
     7
 10
-76.31181
 20
35.44382
 11
-60.56181
 21
35.44382
  0
LINE
  8
0
  6
CENTER
 62
     2
 10
-100.3118
 20
36.94382
 11
-58.56181
 21
36.94382
  0
LINE
  8
0
  6
CONTINUOUS
 62
     7
 10
-98.31181
 20
34.94382
 11
-98.31181
 21
38.94382
  0
LINE
  8
0
  6
CONTINUOUS
 62
     7
 10
-97.31181
 20
34.94382
 11
-97.31181
 21
38.94382
  0
LINE
  8
0
  6
CONTINUOUS
 62
     7
 10
-66.31181
 20
44.44382
 11
-60.56181
 21
44.44382
  0
LINE
  8
0
  6
CONTINUOUS
 62
     7
 10
-66.31181
 20
41.44382
 11
-60.56181
 21
41.44382
  0
LINE
  8
0
  6
CONTINUOUS
 62
     7
 10
-76.31181
 20
34.94382
 11
-76.31181
 21
38.94382
  0
LINE
  8
0
  6
CONTINUOUS
 62
     7
 10
-98.31181
 20
34.94382
 11
-86.81181
 21
34.94382
  0
LINE
  8
0
  6
CONTINUOUS
 62
     7
 10
-88.31181
 20
44.94382
 11
-81.81181
 21
44.94382
  0
LINE
  8
0
  6
CONTINUOUS
 62
     7
 10
-98.31181
 20
93.88765
 11
-81.81181
 21
93.88765
  0
LINE
  8
0
  6
CENTER
 62
     2
 10
-108.7454
 20
99.88765
 11
-59.56181
 21
99.88765
  0
LINE
  8
0
  6
CONTINUOUS
 62
     7
 10
-66.2118
 20
93.38765
 11
-60.56181
 21
93.38765
  0
LINE
  8
0
  6
CONTINUOUS
 62
     7
 10
-66.2118
 20
90.38765
 11
-60.56181
 21
90.38765
  0
LINE
  8
0
  6
CONTINUOUS
 62
     7
 10
-88.31181
 20
93.88765
 11
-88.31181
 21
89.88765
  0
LINE
  8
0
  6
CONTINUOUS
 62
     7
 10
-87.31181
 20
93.88765
 11
-87.31181
 21
89.88765
  0
LINE
  8
0
  6
CONTINUOUS
 62
     7
 10
-86.81181
 20
89.88765
 11
-86.81181
 21
89.38765
  0
LINE
  8
0
  6
CENTER
 62
     2
 10
-83.06181
 20
96.88765
 11
-83.06181
 21
85.38765
  0
LINE
  8
0
  6
CONTINUOUS
 62
     7
 10
-66.2118
 20
93.88765
 11
-66.2118
 21
89.88765
  0
LINE
  8
0
  6
CONTINUOUS
 62
     7
 10
-81.81181
 20
94.88765
 11
-74.31181
 21
94.88765
  0
LINE
  8
0
  6
CONTINUOUS
 62
     7
 10
-98.31181
 20
89.88765
 11
-81.81181
 21
89.88765
  0
LINE
  8
0
  6
CONTINUOUS
 62
     7
 10
-74.31181
 20
93.88765
 11
-66.2118
 21
93.88765
  0
LINE
  8
0
  6
CONTINUOUS
 62
     7
 10
-74.31181
 20
89.88765
 11
-66.2118
 21
89.88765
  0
LINE
  8
0
  6
CENTER
 62
     2
 10
-100.2118
 20
91.88765
 11
-58.56181
 21
91.88765
  0
LINE
  8
0
  6
CONTINUOUS
 62
     7
 10
-98.31181
 20
93.88765
 11
-98.31181
 21
89.88765
  0
LINE
  8
0
  6
CONTINUOUS
 62
     7
 10
-97.31181
 20
93.88765
 11
-97.31181
 21
89.88765
  0
LINE
  8
0
  6
CENTER
 62
     2
 10
-78.06181
 20
96.88765
 11
-78.06181
 21
85.38765
  0
LINE
  8
0
  6
CONTINUOUS
 62
     7
 10
-81.81181
 20
94.88765
 11
-81.81181
 21
89.38765
  0
LINE
  8
0
  6
CONTINUOUS
 62
     7
 10
-86.71181
 20
89.38765
 11
-74.31181
 21
89.38765
  0
LINE
  8
0
  6
CONTINUOUS
 62
     7
 10
-74.31181
 20
94.88765
 11
-74.31181
 21
89.38765
  0
LINE
  8
0
  6
CENTER
 62
     2
 10
-190.6854
 20
52.94382
 11
-190.6854
 21
26.94382
  0
LINE
  8
0
  6
CENTER
 62
     2
 10
-198.6854
 20
39.94382
 11
-182.6854
 21
39.94382
  0
LINE
  8
0
  6
CONTINUOUS
 62
     7
 10
-185.6854
 20
44.94382
 11
-181.6854
 21
44.94382
  0
LINE
  8
0
  6
CONTINUOUS
 62
     7
 10
-184.6854
 20
49.94382
 11
-184.6854
 21
44.94382
  0
LINE
  8
0
  6
CONTINUOUS
 62
     7
 10
-185.6854
 20
49.94382
 11
-184.6854
 21
49.94382
  0
LINE
  8
0
  6
CONTINUOUS
 62
     7
 10
-184.6854
 20
34.94382
 11
-184.6854
 21
29.94382
  0
LINE
  8
0
  6
CONTINUOUS
 62
     7
 10
-185.6854
 20
34.94382
 11
-184.6854
 21
34.94382
  0
LINE
  8
0
  6
CONTINUOUS
 62
     7
 10
-185.6854
 20
50.94382
 11
-180.1854
 21
50.94382
  0
LINE
  8
0
  6
CONTINUOUS
 62
     7
 10
-184.1854
 20
40.14382
 11
-180.1854
 21
40.14382
  0
LINE
  8
0
  6
CONTINUOUS
 62
     7
 10
-185.6854
 20
40.94382
 11
-181.6854
 21
40.94382
  0
LINE
  8
0
  6
CONTINUOUS
 62
     7
 10
-181.6854
 20
44.94382
 11
-181.6854
 21
40.94382
  0
LINE
  8
0
  6
CONTINUOUS
 62
     7
 10
-180.1854
 20
50.94382
 11
-180.1854
 21
40.14382
  0
LINE
  8
0
  6
CONTINUOUS
 62
     7
 10
-185.6854
 20
50.94382
 11
-185.6854
 21
49.94382
  0
LINE
  8
0
  6
CONTINUOUS
 62
     7
 10
-185.6854
 20
44.94382
 11
-185.6854
 21
40.94382
  0
LINE
  8
0
  6
CENTER
 62
     2
 10
-182.1854
 20
46.94382
 11
-176.1854
 21
46.94382
  0
LINE
  8
0
  6
CONTINUOUS
 62
     7
 10
-184.1854
 20
40.94382
 11
-184.1854
 21
40.14382
  0
LINE
  8
0
  6
CONTINUOUS
 62
     7
 10
-185.6854
 20
44.94382
 11
-181.6854
 21
40.94381
  0
LINE
  8
0
  6
CONTINUOUS
 62
     7
 10
-181.6854
 20
44.94383
 11
-185.6854
 21
40.94384
  0
LINE
  8
0
  6
CONTINUOUS
 62
     7
 10
-185.6854
 20
34.94382
 11
-181.6854
 21
34.94382
  0
LINE
  8
0
  6
CONTINUOUS
 62
     7
 10
-184.1854
 20
38.94382
 11
-184.1854
 21
39.74383
  0
LINE
  8
0
  6
CONTINUOUS
 62
     7
 10
-185.6854
 20
34.94383
 11
-181.6854
 21
38.94382
  0
LINE
  8
0
  6
CONTINUOUS
 62
     7
 10
-185.6854
 20
28.94382
 11
-180.1854
 21
28.94382
  0
LINE
  8
0
  6
CONTINUOUS
 62
     7
 10
-184.1854
 20
39.74383
 11
-180.1854
 21
39.74383
  0
LINE
  8
0
  6
CONTINUOUS
 62
     7
 10
-185.6854
 20
38.94382
 11
-181.6854
 21
38.94382
  0
LINE
  8
0
  6
CONTINUOUS
 62
     7
 10
-181.6854
 20
34.94382
 11
-181.6854
 21
38.94382
  0
LINE
  8
0
  6
CONTINUOUS
 62
     7
 10
-180.1854
 20
28.94382
 11
-180.1854
 21
39.74383
  0
LINE
  8
0
  6
CONTINUOUS
 62
     7
 10
-185.6854
 20
28.94382
 11
-185.6854
 21
29.94382
  0
LINE
  8
0
  6
CONTINUOUS
 62
     7
 10
-181.6854
 20
34.94384
 11
-185.6854
 21
38.94384
  0
LINE
  8
0
  6
CENTER
 62
     2
 10
-182.1854
 20
32.94382
 11
-176.1854
 21
32.94382
  0
LINE
  8
0
  6
CONTINUOUS
 62
     7
 10
-185.6854
 20
29.94382
 11
-184.6854
 21
29.94382
  0
LINE
  8
0
  6
CONTINUOUS
 62
     7
 10
-185.6854
 20
38.94382
 11
-185.6854
 21
34.94382
  0
LINE
  8
0
  6
CENTER
 62
     2
 10
153.1854
 20
39.94383
 11
204.6854
 21
39.94383
  0
LINE
  8
0
  6
CENTER
 62
     2
 10
179.4354
 20
47.44383
 11
190.9354
 21
47.44383
  0
LINE
  8
0
  6
CENTER
 62
     2
 10
180.1854
 20
41.24383
 11
180.1854
 21
24.94383
  0
LINE
  8
0
  6
CENTER
 62
     2
 10
185.1854
 20
54.94383
 11
185.1854
 21
38.64383
  0
LINE
  8
0
  6
CONTINUOUS
 62
     7
 10
183.3854
 20
47.94383
 11
183.3854
 21
46.94383
  0
LINE
  8
0
  6
CONTINUOUS
 62
     7
 10
183.3854
 20
47.94383
 11
183.8854
 21
47.94383
  0
LINE
  8
0
  6
CONTINUOUS
 62
     7
 10
183.3854
 20
46.94383
 11
183.8854
 21
46.94383
  0
LINE
  8
0
  6
CONTINUOUS
 62
     7
 10
184.6854
 20
46.14383
 11
184.6854
 21
45.64383
  0
LINE
  8
0
  6
CONTINUOUS
 62
     7
 10
184.6854
 20
45.64383
 11
185.6854
 21
45.64383
  0
LINE
  8
0
  6
CONTINUOUS
 62
     7
 10
185.6854
 20
46.14383
 11
185.6854
 21
45.64383
  0
LINE
  8
0
  6
CONTINUOUS
 62
     7
 10
186.4854
 20
46.94383
 11
186.9854
 21
46.94383
  0
LINE
  8
0
  6
CONTINUOUS
 62
     7
 10
186.9854
 20
47.94383
 11
186.9854
 21
46.94383
  0
LINE
  8
0
  6
CONTINUOUS
 62
     7
 10
186.4854
 20
47.94383
 11
186.9854
 21
47.94383
  0
LINE
  8
0
  6
CONTINUOUS
 62
     7
 10
185.6854
 20
49.24383
 11
185.6854
 21
48.74383
  0
LINE
  8
0
  6
CONTINUOUS
 62
     7
 10
184.6854
 20
49.24383
 11
185.6854
 21
49.24383
  0
LINE
  8
0
  6
CONTINUOUS
 62
     7
 10
184.6854
 20
49.24383
 11
184.6854
 21
48.74383
  0
LINE
  8
0
  6
CONTINUOUS
 62
     7
 10
178.3854
 20
32.94383
 11
178.3854
 21
31.94383
  0
LINE
  8
0
  6
CONTINUOUS
 62
     7
 10
178.3854
 20
32.94383
 11
178.8854
 21
32.94383
  0
LINE
  8
0
  6
CONTINUOUS
 62
     7
 10
178.3854
 20
31.94383
 11
178.8854
 21
31.94383
  0
LINE
  8
0
  6
CONTINUOUS
 62
     7
 10
179.6854
 20
31.14383
 11
179.6854
 21
30.64383
  0
LINE
  8
0
  6
CONTINUOUS
 62
     7
 10
179.6854
 20
30.64383
 11
180.6854
 21
30.64383
  0
LINE
  8
0
  6
CONTINUOUS
 62
     7
 10
180.6854
 20
31.14383
 11
180.6854
 21
30.64383
  0
LINE
  8
0
  6
CONTINUOUS
 62
     7
 10
181.4854
 20
31.94383
 11
181.9854
 21
31.94383
  0
LINE
  8
0
  6
CONTINUOUS
 62
     7
 10
181.9854
 20
32.94383
 11
181.9854
 21
31.94383
  0
LINE
  8
0
  6
CONTINUOUS
 62
     7
 10
181.4854
 20
32.94383
 11
181.9854
 21
32.94383
  0
LINE
  8
0
  6
CONTINUOUS
 62
     7
 10
180.6854
 20
34.24383
 11
180.6854
 21
33.74383
  0
LINE
  8
0
  6
CONTINUOUS
 62
     7
 10
179.6854
 20
34.24383
 11
180.6854
 21
34.24383
  0
LINE
  8
0
  6
CONTINUOUS
 62
     7
 10
179.6854
 20
34.24383
 11
179.6854
 21
33.74383
  0
LINE
  8
0
  6
CONTINUOUS
 62
     7
 10
181.4354
 20
52.94383
 11
188.9354
 21
52.94383
  0
LINE
  8
0
  6
CONTINUOUS
 62
     7
 10
181.4354
 20
51.44383
 11
188.9354
 21
51.44383
  0
LINE
  8
0
  6
CONTINUOUS
 62
     7
 10
181.4354
 20
40.64383
 11
188.9354
 21
40.64383
  0
LINE
  8
0
  6
CONTINUOUS
 62
     7
 10
181.4354
 20
52.94383
 11
181.4354
 21
40.64383
  0
LINE
  8
0
  6
CONTINUOUS
 62
     7
 10
188.9354
 20
52.94383
 11
188.9354
 21
40.64383
  0
LINE
  8
0
  6
CONTINUOUS
 62
     7
 10
182.1854
 20
50.14383
 11
183.5629
 21
50.14383
  0
LINE
  8
0
  6
CONTINUOUS
 62
     7
 10
182.1854
 20
41.44383
 11
188.1854
 21
41.44383
  0
LINE
  8
0
  6
CONTINUOUS
 62
     7
 10
182.1854
 20
50.14383
 11
182.1854
 21
48.4043
  0
LINE
  8
0
  6
CONTINUOUS
 62
     7
 10
188.1854
 20
50.14383
 11
188.1854
 21
48.4043
  0
LINE
  8
0
  6
CONTINUOUS
 62
     7
 10
182.1854
 20
46.48336
 11
182.1854
 21
41.44383
  0
LINE
  8
0
  6
CONTINUOUS
 62
     7
 10
188.1854
 20
46.48336
 11
188.1854
 21
41.44383
  0
LINE
  8
0
  6
CONTINUOUS
 62
     7
 10
186.8079
 20
50.14383
 11
188.1854
 21
50.14383
  0
LINE
  8
0
  6
CONTINUOUS
 62
     7
 10
164.9354
 20
34.44383
 11
164.9354
 21
38.44383
  0
LINE
  8
0
  6
CONTINUOUS
 62
     7
 10
165.9354
 20
34.44383
 11
165.9354
 21
38.44383
  0
LINE
  8
0
  6
CONTINUOUS
 62
     7
 10
176.4354
 20
26.94383
 11
176.4354
 21
39.24383
  0
LINE
  8
0
  6
CONTINUOUS
 62
     7
 10
177.1854
 20
33.4043
 11
177.1854
 21
38.44383
  0
LINE
  8
0
  6
CONTINUOUS
 62
     7
 10
177.1854
 20
29.74383
 11
177.1854
 21
31.48336
  0
LINE
  8
0
  6
CONTINUOUS
 62
     7
 10
183.1854
 20
29.74383
 11
183.1854
 21
31.48336
  0
LINE
  8
0
  6
CONTINUOUS
 62
     7
 10
183.1854
 20
33.4043
 11
183.1854
 21
38.44383
  0
LINE
  8
0
  6
CONTINUOUS
 62
     7
 10
183.9354
 20
26.94383
 11
183.9354
 21
39.24383
  0
LINE
  8
0
  6
CONTINUOUS
 62
     7
 10
186.9354
 20
34.44383
 11
186.9354
 21
38.44383
  0
LINE
  8
0
  6
CONTINUOUS
 62
     7
 10
183.9354
 20
34.44383
 11
186.9354
 21
34.44383
  0
LINE
  8
0
  6
CONTINUOUS
 62
     7
 10
183.9354
 20
38.44383
 11
186.9354
 21
38.44383
  0
LINE
  8
0
  6
CONTINUOUS
 62
     7
 10
176.4354
 20
39.24383
 11
183.9354
 21
39.24383
  0
LINE
  8
0
  6
CONTINUOUS
 62
     7
 10
177.1854
 20
38.44383
 11
183.1854
 21
38.44383
  0
LINE
  8
0
  6
CONTINUOUS
 62
     7
 10
164.9354
 20
38.44383
 11
176.4354
 21
38.44383
  0
LINE
  8
0
  6
CONTINUOUS
 62
     7
 10
164.9354
 20
34.44383
 11
176.4354
 21
34.44383
  0
LINE
  8
0
  6
CONTINUOUS
 62
     7
 10
177.1854
 20
29.74383
 11
178.5629
 21
29.74383
  0
LINE
  8
0
  6
CONTINUOUS
 62
     7
 10
181.8079
 20
29.74383
 11
183.1854
 21
29.74383
  0
LINE
  8
0
  6
CONTINUOUS
 62
     7
 10
176.4354
 20
28.44383
 11
183.9354
 21
28.44383
  0
LINE
  8
0
  6
CONTINUOUS
 62
     7
 10
176.4354
 20
26.94383
 11
183.9354
 21
26.94383
  0
LINE
  8
0
  6
CONTINUOUS
 62
     7
 10
186.9354
 20
37.94383
 11
203.6854
 21
37.94383
  0
LINE
  8
0
  6
CONTINUOUS
 62
     7
 10
186.9354
 20
34.94383
 11
203.6854
 21
34.94383
  0
LINE
  8
0
  6
CENTER
 62
     2
 10
162.0466
 20
36.44383
 11
205.6854
 21
36.44383
  0
LINE
  8
0
  6
CENTER
 62
     2
 10
174.4354
 20
32.44383
 11
185.9354
 21
32.44383
  0
LINE
  8
0
  6
CONTINUOUS
 62
     7
 10
174.9354
 20
45.44383
 11
174.9354
 21
41.44383
  0
LINE
  8
0
  6
CONTINUOUS
 62
     7
 10
175.9354
 20
45.44383
 11
175.9354
 21
41.44383
  0
LINE
  8
0
  6
CONTINUOUS
 62
     7
 10
174.9354
 20
45.44383
 11
181.4354
 21
45.44383
  0
LINE
  8
0
  6
CENTER
 62
     2
 10
171.1854
 20
43.44383
 11
205.6854
 21
43.44383
  0
LINE
  8
0
  6
CONTINUOUS
 62
     7
 10
174.9354
 20
41.44383
 11
181.4354
 21
41.44383
  0
LINE
  8
0
  6
CONTINUOUS
 62
     7
 10
188.9354
 20
41.44383
 11
196.9354
 21
41.44383
  0
LINE
  8
0
  6
CONTINUOUS
 62
     7
 10
188.9354
 20
45.44383
 11
196.9354
 21
45.44383
  0
LINE
  8
0
  6
CONTINUOUS
 62
     7
 10
196.9354
 20
45.44383
 11
196.9354
 21
41.44383
  0
LINE
  8
0
  6
CONTINUOUS
 62
     7
 10
196.9354
 20
44.94383
 11
203.6854
 21
44.94383
  0
LINE
  8
0
  6
CONTINUOUS
 62
     7
 10
196.9354
 20
41.94383
 11
203.6854
 21
41.94383
  0
LINE
  8
0
  6
CENTER
 62
     2
 10
153.1854
 20
99.88766
 11
204.6854
 21
99.88766
  0
LINE
  8
0
  6
CONTINUOUS
 62
     7
 10
164.9354
 20
92.88766
 11
181.4354
 21
92.88766
  0
LINE
  8
0
  6
CONTINUOUS
 62
     7
 10
164.9354
 20
88.88766
 11
181.4354
 21
88.88766
  0
LINE
  8
0
  6
CONTINUOUS
 62
     7
 10
164.9354
 20
92.88766
 11
164.9354
 21
88.88766
  0
LINE
  8
0
  6
CONTINUOUS
 62
     7
 10
196.9354
 20
92.88766
 11
196.9354
 21
88.88766
  0
LINE
  8
0
  6
CONTINUOUS
 62
     7
 10
165.9354
 20
92.88766
 11
165.9354
 21
88.88766
  0
LINE
  8
0
  6
CENTER
 62
     2
 10
161.9902
 20
90.88766
 11
205.6854
 21
90.88766
  0
LINE
  8
0
  6
CONTINUOUS
 62
     7
 10
196.9354
 20
92.38766
 11
203.6854
 21
92.38766
  0
LINE
  8
0
  6
CONTINUOUS
 62
     7
 10
196.9354
 20
89.38766
 11
203.6854
 21
89.38766
  0
LINE
  8
0
  6
CONTINUOUS
 62
     7
 10
176.4354
 20
88.88766
 11
176.4354
 21
87.38766
  0
LINE
  8
0
  6
CONTINUOUS
 62
     7
 10
176.4354
 20
87.38766
 11
183.9354
 21
87.38766
  0
LINE
  8
0
  6
CONTINUOUS
 62
     7
 10
188.9354
 20
92.88766
 11
196.9354
 21
92.88766
  0
LINE
  8
0
  6
CONTINUOUS
 62
     7
 10
188.9354
 20
88.88766
 11
196.9354
 21
88.88766
  0
LINE
  8
0
  6
CENTER
 62
     2
 10
180.1854
 20
94.88766
 11
180.1854
 21
83.38766
  0
LINE
  8
0
  6
CONTINUOUS
 62
     7
 10
174.9354
 20
92.88766
 11
174.9354
 21
88.88766
  0
LINE
  8
0
  6
CONTINUOUS
 62
     7
 10
175.9354
 20
92.88766
 11
175.9354
 21
88.88766
  0
LINE
  8
0
  6
CONTINUOUS
 62
     7
 10
181.4354
 20
91.50887
 11
188.9354
 21
91.50887
  0
LINE
  8
0
  6
CONTINUOUS
 62
     7
 10
181.4354
 20
87.38766
 11
188.9354
 21
87.38766
  0
LINE
  8
0
  6
CONTINUOUS
 62
     7
 10
181.4354
 20
94.88766
 11
181.4354
 21
87.38766
  0
LINE
  8
0
  6
CONTINUOUS
 62
     7
 10
188.9354
 20
94.88766
 11
188.9354
 21
87.38766
  0
LINE
  8
0
  6
CONTINUOUS
 62
     7
 10
181.4354
 20
94.88766
 11
188.9354
 21
94.88766
  0
LINE
  8
0
  6
CENTER
 62
     2
 10
185.1854
 20
96.88766
 11
185.1854
 21
83.38766
  0
LINE
  8
0
  6
CENTER
 62
     2
 10
62.56181
 20
39.94384
 11
82.56181
 21
39.94384
  0
LINE
  8
0
  6
CONTINUOUS
 62
     7
 10
77.56181
 20
51.94384
 11
79.56181
 21
51.94384
  0
LINE
  8
0
  6
CONTINUOUS
 62
     7
 10
77.56181
 20
52.94384
 11
80.94059
 21
52.94384
  0
LINE
  8
0
  6
CONTINUOUS
 62
     7
 10
85.06181
 20
51.44384
 11
85.06181
 21
40.64383
  0
LINE
  8
0
  6
CONTINUOUS
 62
     7
 10
77.56181
 20
52.94384
 11
77.56181
 21
51.94384
  0
LINE
  8
0
  6
CONTINUOUS
 62
     7
 10
80.94059
 20
52.94384
 11
85.06181
 21
51.44384
  0
LINE
  8
0
  6
CENTER
 62
     2
 10
83.06181
 20
47.44384
 11
89.06181
 21
47.44384
  0
LINE
  8
0
  6
CENTER
 62
     2
 10
83.06181
 20
32.44384
 11
89.06181
 21
32.44384
  0
LINE
  8
0
  6
CONTINUOUS
 62
     7
 10
77.56181
 20
26.94384
 11
80.94059
 21
26.94384
  0
LINE
  8
0
  6
CONTINUOUS
 62
     7
 10
85.06181
 20
28.44384
 11
85.06181
 21
39.24384
  0
LINE
  8
0
  6
CONTINUOUS
 62
     7
 10
77.56181
 20
26.94384
 11
77.56181
 21
27.94384
  0
LINE
  8
0
  6
CONTINUOUS
 62
     7
 10
80.94056
 20
26.94385
 11
85.06178
 21
28.44385
  0
LINE
  8
0
  6
CONTINUOUS
 62
     7
 10
79.56181
 20
51.94384
 11
79.56181
 21
41.44384
  0
LINE
  8
0
  6
CENTER
 62
     2
 10
72.56181
 20
54.94384
 11
72.56181
 21
24.94384
  0
LINE
  8
0
  6
CONTINUOUS
 62
     7
 10
77.56181
 20
27.94384
 11
79.56181
 21
27.94384
  0
LINE
  8
0
  6
CONTINUOUS
 62
     7
 10
79.56181
 20
45.44384
 11
83.56181
 21
45.44384
  0
LINE
  8
0
  6
CONTINUOUS
 62
     7
 10
79.56181
 20
41.44384
 11
83.56181
 21
41.44384
  0
LINE
  8
0
  6
CONTINUOUS
 62
     7
 10
79.56181
 20
34.44384
 11
83.56181
 21
34.44384
  0
LINE
  8
0
  6
CONTINUOUS
 62
     7
 10
79.56181
 20
38.44384
 11
83.56181
 21
38.44384
  0
LINE
  8
0
  6
CONTINUOUS
 62
     7
 10
83.56181
 20
45.44384
 11
83.56181
 21
41.44384
  0
LINE
  8
0
  6
CONTINUOUS
 62
     7
 10
83.56181
 20
38.44384
 11
83.56181
 21
34.44384
  0
LINE
  8
0
  6
CONTINUOUS
 62
     7
 10
79.56181
 20
45.44385
 11
83.56181
 21
41.44385
  0
LINE
  8
0
  6
CONTINUOUS
 62
     7
 10
83.56181
 20
45.44384
 11
79.56181
 21
41.44385
  0
LINE
  8
0
  6
CONTINUOUS
 62
     7
 10
83.56179
 20
38.44383
 11
79.5618
 21
34.44384
  0
LINE
  8
0
  6
CONTINUOUS
 62
     7
 10
79.5618
 20
38.44383
 11
83.5618
 21
34.44383
  0
LINE
  8
0
  6
CONTINUOUS
 62
     7
 10
80.06181
 20
40.64383
 11
85.06181
 21
40.64383
  0
LINE
  8
0
  6
CONTINUOUS
 62
     7
 10
80.06181
 20
39.24384
 11
85.06181
 21
39.24384
  0
LINE
  8
0
  6
CONTINUOUS
 62
     7
 10
80.06181
 20
41.44384
 11
80.06181
 21
40.64383
  0
LINE
  8
0
  6
CONTINUOUS
 62
     7
 10
80.06181
 20
39.24384
 11
80.06181
 21
38.44384
  0
LINE
  8
0
  6
CONTINUOUS
 62
     7
 10
79.56181
 20
38.44384
 11
79.56181
 21
27.94384
  0
LINE
  8
0
  6
CENTER
 62
     2
 10
18.7285
 20
-119.8315
 11
76.56183
 21
-119.8315
  0
LINE
  8
0
  6
CENTER
 62
     2
 10
56.06183
 20
-100.3315
 11
56.06183
 21
-119.1315
  0
LINE
  8
0
  6
CENTER
 62
     2
 10
61.81183
 20
-110.3315
 11
50.31183
 21
-110.3315
  0
LINE
  8
0
  6
CONTINUOUS
 62
     7
 10
54.26183
 20
-109.8315
 11
54.26183
 21
-110.8315
  0
LINE
  8
0
  6
CONTINUOUS
 62
     7
 10
54.26183
 20
-109.8315
 11
54.76183
 21
-109.8315
  0
LINE
  8
0
  6
CONTINUOUS
 62
     7
 10
54.26183
 20
-110.8315
 11
54.76183
 21
-110.8315
  0
LINE
  8
0
  6
CONTINUOUS
 62
     7
 10
55.56183
 20
-111.6315
 11
55.56183
 21
-112.1315
  0
LINE
  8
0
  6
CONTINUOUS
 62
     7
 10
55.56183
 20
-112.1315
 11
56.56183
 21
-112.1315
  0
LINE
  8
0
  6
CONTINUOUS
 62
     7
 10
56.56183
 20
-111.6315
 11
56.56183
 21
-112.1315
  0
LINE
  8
0
  6
CONTINUOUS
 62
     7
 10
57.36184
 20
-110.8315
 11
57.86184
 21
-110.8315
  0
LINE
  8
0
  6
CONTINUOUS
 62
     7
 10
57.86184
 20
-109.8315
 11
57.86184
 21
-110.8315
  0
LINE
  8
0
  6
CONTINUOUS
 62
     7
 10
57.36184
 20
-109.8315
 11
57.86184
 21
-109.8315
  0
LINE
  8
0
  6
CONTINUOUS
 62
     7
 10
56.56183
 20
-108.5315
 11
56.56183
 21
-109.0315
  0
LINE
  8
0
  6
CONTINUOUS
 62
     7
 10
55.56183
 20
-108.5315
 11
56.56183
 21
-108.5315
  0
LINE
  8
0
  6
CONTINUOUS
 62
     7
 10
55.56183
 20
-108.5315
 11
55.56183
 21
-109.0315
  0
LINE
  8
0
  6
CONTINUOUS
 62
     7
 10
52.31183
 20
-102.3315
 11
59.81183
 21
-102.3315
  0
LINE
  8
0
  6
CONTINUOUS
 62
     7
 10
52.31183
 20
-106.3315
 11
59.81183
 21
-106.3315
  0
LINE
  8
0
  6
CONTINUOUS
 62
     7
 10
52.31183
 20
-117.1315
 11
59.81183
 21
-117.1315
  0
LINE
  8
0
  6
CONTINUOUS
 62
     7
 10
52.31183
 20
-102.3315
 11
52.31183
 21
-117.1315
  0
LINE
  8
0
  6
CONTINUOUS
 62
     7
 10
59.81183
 20
-102.3315
 11
59.81183
 21
-117.1315
  0
LINE
  8
0
  6
CONTINUOUS
 62
     7
 10
59.06183
 20
-107.6315
 11
57.68433
 21
-107.6315
  0
LINE
  8
0
  6
CONTINUOUS
 62
     7
 10
59.06183
 20
-116.3315
 11
53.06183
 21
-116.3315
  0
LINE
  8
0
  6
CONTINUOUS
 62
     7
 10
53.06183
 20
-107.8315
 11
53.06183
 21
-109.371
  0
LINE
  8
0
  6
CONTINUOUS
 62
     7
 10
59.06183
 20
-107.6315
 11
59.06183
 21
-109.371
  0
LINE
  8
0
  6
CONTINUOUS
 62
     7
 10
53.06183
 20
-111.2919
 11
53.06183
 21
-116.3315
  0
LINE
  8
0
  6
CONTINUOUS
 62
     7
 10
54.43933
 20
-107.6315
 11
53.26183
 21
-107.6315
  0
LINE
  8
0
  6
CONTINUOUS
 62
     7
 10
59.06183
 20
-111.2919
 11
59.06183
 21
-116.3315
  0
LINE
  8
0
  6
CONTINUOUS
 62
     7
 10
44.81183
 20
-112.3315
 11
52.31183
 21
-112.3315
  0
LINE
  8
0
  6
CONTINUOUS
 62
     7
 10
44.81183
 20
-116.3315
 11
52.31183
 21
-116.3315
  0
LINE
  8
0
  6
CONTINUOUS
 62
     7
 10
44.81183
 20
-112.3315
 11
44.81183
 21
-116.3315
  0
LINE
  8
0
  6
CONTINUOUS
 62
     7
 10
66.81183
 20
-112.3315
 11
66.81183
 21
-116.3315
  0
LINE
  8
0
  6
CONTINUOUS
 62
     7
 10
59.81183
 20
-112.3315
 11
66.81183
 21
-112.3315
  0
LINE
  8
0
  6
CONTINUOUS
 62
     7
 10
59.81183
 20
-116.3315
 11
66.81183
 21
-116.3315
  0
LINE
  8
0
  6
CONTINUOUS
 62
     7
 10
45.81183
 20
-112.3315
 11
45.81183
 21
-116.3315
  0
LINE
  8
0
  6
CENTER
 62
     2
 10
51.06183
 20
-139.3315
 11
51.06183
 21
-120.5315
  0
LINE
  8
0
  6
CENTER
 62
     2
 10
56.81183
 20
-129.3315
 11
45.31183
 21
-129.3315
  0
LINE
  8
0
  6
CONTINUOUS
 62
     7
 10
49.26183
 20
-129.8315
 11
49.26183
 21
-128.8315
  0
LINE
  8
0
  6
CONTINUOUS
 62
     7
 10
49.26183
 20
-129.8315
 11
49.76183
 21
-129.8315
  0
LINE
  8
0
  6
CONTINUOUS
 62
     7
 10
49.26183
 20
-128.8315
 11
49.76183
 21
-128.8315
  0
LINE
  8
0
  6
CONTINUOUS
 62
     7
 10
50.56183
 20
-128.0315
 11
50.56183
 21
-127.5315
  0
LINE
  8
0
  6
CONTINUOUS
 62
     7
 10
50.56183
 20
-127.5315
 11
51.56183
 21
-127.5315
  0
LINE
  8
0
  6
CONTINUOUS
 62
     7
 10
51.56183
 20
-128.0315
 11
51.56183
 21
-127.5315
  0
LINE
  8
0
  6
CONTINUOUS
 62
     7
 10
52.36184
 20
-128.8315
 11
52.86184
 21
-128.8315
  0
LINE
  8
0
  6
CONTINUOUS
 62
     7
 10
52.86184
 20
-129.8315
 11
52.86184
 21
-128.8315
  0
LINE
  8
0
  6
CONTINUOUS
 62
     7
 10
52.36184
 20
-129.8315
 11
52.86184
 21
-129.8315
  0
LINE
  8
0
  6
CONTINUOUS
 62
     7
 10
51.56183
 20
-131.1315
 11
51.56183
 21
-130.6315
  0
LINE
  8
0
  6
CONTINUOUS
 62
     7
 10
50.56183
 20
-131.1315
 11
51.56183
 21
-131.1315
  0
LINE
  8
0
  6
CONTINUOUS
 62
     7
 10
50.56183
 20
-131.1315
 11
50.56183
 21
-130.6315
  0
LINE
  8
0
  6
CONTINUOUS
 62
     7
 10
47.31183
 20
-137.3315
 11
54.81183
 21
-137.3315
  0
LINE
  8
0
  6
CONTINUOUS
 62
     7
 10
47.31183
 20
-133.3315
 11
54.81183
 21
-133.3315
  0
LINE
  8
0
  6
CONTINUOUS
 62
     7
 10
47.31183
 20
-122.5315
 11
54.81183
 21
-122.5315
  0
LINE
  8
0
  6
CONTINUOUS
 62
     7
 10
47.31183
 20
-137.3315
 11
47.31183
 21
-122.5315
  0
LINE
  8
0
  6
CONTINUOUS
 62
     7
 10
54.81183
 20
-137.3315
 11
54.81183
 21
-122.5315
  0
LINE
  8
0
  6
CONTINUOUS
 62
     7
 10
54.06183
 20
-132.0315
 11
52.68433
 21
-132.0315
  0
LINE
  8
0
  6
CONTINUOUS
 62
     7
 10
54.06183
 20
-123.3315
 11
48.06183
 21
-123.3315
  0
LINE
  8
0
  6
CONTINUOUS
 62
     7
 10
48.06183
 20
-131.8315
 11
48.06183
 21
-130.2919
  0
LINE
  8
0
  6
CONTINUOUS
 62
     7
 10
54.06183
 20
-132.0315
 11
54.06183
 21
-130.2919
  0
LINE
  8
0
  6
CONTINUOUS
 62
     7
 10
48.06183
 20
-128.371
 11
48.06183
 21
-123.3315
  0
LINE
  8
0
  6
CONTINUOUS
 62
     7
 10
49.43933
 20
-132.0315
 11
48.26183
 21
-132.0315
  0
LINE
  8
0
  6
CONTINUOUS
 62
     7
 10
54.06183
 20
-128.371
 11
54.06183
 21
-123.3315
  0
LINE
  8
0
  6
CONTINUOUS
 62
     7
 10
34.81183
 20
-127.3315
 11
47.31183
 21
-127.3315
  0
LINE
  8
0
  6
CONTINUOUS
 62
     7
 10
34.81183
 20
-123.3315
 11
47.31183
 21
-123.3315
  0
LINE
  8
0
  6
CONTINUOUS
 62
     7
 10
34.81183
 20
-127.3315
 11
34.81183
 21
-123.3315
  0
LINE
  8
0
  6
CONTINUOUS
 62
     7
 10
56.81183
 20
-127.3315
 11
56.81183
 21
-123.3315
  0
LINE
  8
0
  6
CONTINUOUS
 62
     7
 10
54.81183
 20
-127.3315
 11
56.81183
 21
-127.3315
  0
LINE
  8
0
  6
CONTINUOUS
 62
     7
 10
54.81183
 20
-123.3315
 11
56.81183
 21
-123.3315
  0
LINE
  8
0
  6
CENTER
 62
     2
 10
32.01514
 20
-125.3315
 11
79.56183
 21
-125.3315
  0
LINE
  8
0
  6
CONTINUOUS
 62
     7
 10
35.81183
 20
-127.3315
 11
35.81183
 21
-123.3315
  0
LINE
  8
0
  6
CONTINUOUS
 62
     7
 10
56.81183
 20
-126.8315
 11
76.56183
 21
-126.8315
  0
LINE
  8
0
  6
CONTINUOUS
 62
     7
 10
56.81183
 20
-123.8315
 11
76.56183
 21
-123.8315
  0
LINE
  8
0
  6
CONTINUOUS
 62
     7
 10
66.81183
 20
-112.8315
 11
76.56183
 21
-112.8315
  0
LINE
  8
0
  6
CONTINUOUS
 62
     7
 10
66.81183
 20
-115.8315
 11
76.56183
 21
-115.8315
  0
LINE
  8
0
  6
CENTER
 62
     2
 10
42.04406
 20
-114.3315
 11
79.56183
 21
-114.3315
  0
LINE
  8
0
  6
CENTER
 62
     2
 10
18.72847
 20
-59.88763
 11
76.56181
 21
-59.88763
  0
LINE
  8
0
  6
CONTINUOUS
 62
     7
 10
29.81181
 20
-69.88763
 11
52.31181
 21
-69.88763
  0
LINE
  8
0
  6
CENTER
 62
     2
 10
27.21235
 20
-71.88763
 11
79.56181
 21
-71.88763
  0
LINE
  8
0
  6
CONTINUOUS
 62
     7
 10
59.81181
 20
-69.88763
 11
66.81181
 21
-69.88763
  0
LINE
  8
0
  6
CONTINUOUS
 62
     7
 10
42.31181
 20
-70.38763
 11
42.31181
 21
-75.38763
  0
LINE
  8
0
  6
CONTINUOUS
 62
     7
 10
49.81181
 20
-73.88763
 11
49.81181
 21
-75.38763
  0
LINE
  8
0
  6
CONTINUOUS
 62
     7
 10
42.31181
 20
-75.38763
 11
49.81181
 21
-75.38763
  0
LINE
  8
0
  6
CONTINUOUS
 62
     7
 10
29.81181
 20
-73.88763
 11
42.31181
 21
-73.88763
  0
LINE
  8
0
  6
CONTINUOUS
 62
     7
 10
29.81181
 20
-69.88763
 11
29.81181
 21
-73.88763
  0
LINE
  8
0
  6
CONTINUOUS
 62
     7
 10
30.81181
 20
-69.88763
 11
30.81181
 21
-73.88763
  0
LINE
  8
0
  6
CONTINUOUS
 62
     7
 10
66.81181
 20
-70.38763
 11
76.56181
 21
-70.38763
  0
LINE
  8
0
  6
CONTINUOUS
 62
     7
 10
66.81181
 20
-73.38763
 11
76.56181
 21
-73.38763
  0
LINE
  8
0
  6
CONTINUOUS
 62
     7
 10
66.81181
 20
-69.88763
 11
66.81181
 21
-73.88763
  0
LINE
  8
0
  6
CONTINUOUS
 62
     7
 10
59.81181
 20
-73.88763
 11
66.81181
 21
-73.88763
  0
LINE
  8
0
  6
CONTINUOUS
 62
     7
 10
52.31181
 20
-67.88763
 11
52.31181
 21
-75.38763
  0
LINE
  8
0
  6
CONTINUOUS
 62
     7
 10
59.81181
 20
-67.88763
 11
59.81181
 21
-75.38763
  0
LINE
  8
0
  6
CENTER
 62
     2
 10
56.06181
 20
-65.88763
 11
56.06181
 21
-79.38763
  0
LINE
  8
0
  6
CONTINUOUS
 62
     7
 10
52.31181
 20
-67.88763
 11
59.81181
 21
-67.88763
  0
LINE
  8
0
  6
CONTINUOUS
 62
     7
 10
52.31181
 20
-75.38763
 11
59.81181
 21
-75.38763
  0
LINE
  8
0
  6
CONTINUOUS
 62
     7
 10
52.31181
 20
-71.38763
 11
59.81181
 21
-71.38763
  0
LINE
  8
0
  6
CONTINUOUS
 62
     7
 10
44.81181
 20
-73.88763
 11
52.31181
 21
-73.88763
  0
LINE
  8
0
  6
CONTINUOUS
 62
     7
 10
42.31181
 20
-70.38763
 11
44.81181
 21
-70.38763
  0
LINE
  8
0
  6
CONTINUOUS
 62
     7
 10
44.81181
 20
-69.88763
 11
44.81181
 21
-73.88763
  0
LINE
  8
0
  6
CONTINUOUS
 62
     7
 10
45.81181
 20
-69.88763
 11
45.81181
 21
-73.88763
  0
LINE
  8
0
  6
PHANTOM
 62
     2
 10
-47.56181
 20
-103.3315
 11
-45.56181
 21
-103.3315
  0
LINE
  8
0
  6
CONTINUOUS
 62
     7
 10
-45.56181
 20
-103.3315
 11
-45.56181
 21
-116.3315
  0
LINE
  8
0
  6
CENTER
 62
     2
 10
-55.56181
 20
-100.3315
 11
-55.56181
 21
-139.3315
  0
LINE
  8
0
  6
CENTER
 62
     2
 10
-68.56181
 20
-119.8315
 11
-42.56181
 21
-119.8315
  0
LINE
  8
0
  6
CONTINUOUS
 62
     7
 10
-40.06181
 20
-106.3315
 11
-40.06181
 21
-117.1315
  0
LINE
  8
0
  6
CONTINUOUS
 62
     7
 10
-47.56181
 20
-102.3315
 11
-44.06181
 21
-102.3315
  0
LINE
  8
0
  6
CONTINUOUS
 62
     7
 10
-47.56181
 20
-102.3315
 11
-47.56181
 21
-103.3315
  0
LINE
  8
0
  6
CONTINUOUS
 62
     7
 10
-45.06181
 20
-117.1315
 11
-40.06181
 21
-117.1315
  0
LINE
  8
0
  6
CONTINUOUS
 62
     7
 10
-45.56181
 20
-112.3315
 11
-41.5333
 21
-112.3315
  0
LINE
  8
0
  6
CONTINUOUS
 62
     7
 10
-41.56181
 20
-112.3315
 11
-41.56181
 21
-116.3315
  0
LINE
  8
0
  6
CONTINUOUS
 62
     7
 10
-45.56181
 20
-116.3315
 11
-41.5333
 21
-116.3315
  0
LINE
  8
0
  6
CONTINUOUS
 62
     7
 10
-45.06181
 20
-116.3315
 11
-45.06181
 21
-117.1315
  0
LINE
  8
0
  6
CENTER
 62
     2
 10
-47.56181
 20
-110.3315
 11
-36.06181
 21
-110.3315
  0
LINE
  8
0
  6
CONTINUOUS
 62
     7
 10
-40.06179
 20
-106.3315
 11
-44.06179
 21
-102.3315
  0
LINE
  8
0
  6
CONTINUOUS
 62
     7
 10
-45.56182
 20
-116.3314
 11
-41.53333
 21
-112.3314
  0
LINE
  8
0
  6
CONTINUOUS
 62
     7
 10
-41.53331
 20
-116.3315
 11
-45.56181
 21
-112.3315
  0
LINE
  8
0
  6
CONTINUOUS
 62
     7
 10
-40.06181
 20
-133.3314
 11
-44.0618
 21
-137.3314
  0
LINE
  8
0
  6
CONTINUOUS
 62
     7
 10
-41.53334
 20
-123.3314
 11
-45.56184
 21
-127.3314
  0
LINE
  8
0
  6
CONTINUOUS
 62
     7
 10
-45.56179
 20
-123.3314
 11
-41.53329
 21
-127.3314
  0
LINE
  8
0
  6
CONTINUOUS
 62
     7
 10
-45.56181
 20
-123.3315
 11
-41.5333
 21
-123.3315
  0
LINE
  8
0
  6
CENTER
 62
     2
 10
-47.56181
 20
-129.3315
 11
-36.06181
 21
-129.3315
  0
LINE
  8
0
  6
CONTINUOUS
 62
     7
 10
-41.56181
 20
-127.3315
 11
-41.56181
 21
-123.3315
  0
LINE
  8
0
  6
CONTINUOUS
 62
     7
 10
-40.06181
 20
-133.3315
 11
-40.06181
 21
-122.5315
  0
LINE
  8
0
  6
CONTINUOUS
 62
     7
 10
-45.06181
 20
-123.3315
 11
-45.06181
 21
-122.5315
  0
LINE
  8
0
  6
CONTINUOUS
 62
     7
 10
-45.06181
 20
-122.5315
 11
-40.06181
 21
-122.5315
  0
LINE
  8
0
  6
CONTINUOUS
 62
     7
 10
-47.56181
 20
-137.3315
 11
-44.06181
 21
-137.3315
  0
LINE
  8
0
  6
CONTINUOUS
 62
     7
 10
-45.56181
 20
-127.3315
 11
-41.5333
 21
-127.3315
  0
LINE
  8
0
  6
PHANTOM
 62
     2
 10
-47.56181
 20
-136.3315
 11
-45.56181
 21
-136.3315
  0
LINE
  8
0
  6
CONTINUOUS
 62
     7
 10
-47.56181
 20
-136.3315
 11
-47.56181
 21
-137.3315
  0
LINE
  8
0
  6
CONTINUOUS
 62
     7
 10
-45.56181
 20
-123.3315
 11
-45.56181
 21
-136.3315
  0
ARC
  8
0
  6
CONTINUOUS
 62
     7
 10
193.0652
 20
-166.2024
 40
1.56404
 50
0.0
 51
89.99999
  0
ARC
  8
0
  6
CONTINUOUS
 62
     7
 10
205.9686
 20
-174.6092
 40
1.56404
 50
270.0
 51
0.0
  0
ARC
  8
0
  6
CONTINUOUS
 62
     7
 10
205.1865
 20
-166.9844
 40
2.34607
 50
0.0
 51
89.99999
  0
ARC
  8
0
  6
CONTINUOUS
 62
     7
 10
219.4585
 20
-166.2024
 40
1.56404
 50
0.0
 51
89.99999
  0
ARC
  8
0
  6
CONTINUOUS
 62
     7
 10
219.4585
 20
-167.4519
 40
1.56405
 50
295.0
 51
0.0
  0
ARC
  8
0
  6
CONTINUOUS
 62
     7
 10
231.5798
 20
-164.6383
 40
2.34607
 50
291.6882
 51
0.0
  0
ARC
  8
0
  6
CONTINUOUS
 62
     7
 10
230.7978
 20
-164.1077
 40
0.78203
 50
291.688
 51
0.0
  0
CIRCLE
  8
0
  6
CONTINUOUS
 62
     7
 10
-78.06181
 20
46.94382
 40
3.15
  0
CIRCLE
  8
0
  6
CONTINUOUS
 62
     7
 10
-83.06181
 20
32.94382
 40
3.15
  0
ARC
  8
0
  6
CONTINUOUS
 62
     7
 10
-84.36181
 20
34.24382
 40
0.8
 50
270.0
 51
0.0
  0
ARC
  8
0
  6
CONTINUOUS
 62
     7
 10
-84.36181
 20
31.64383
 40
0.8
 50
0.0
 51
89.99999
  0
ARC
  8
0
  6
CONTINUOUS
 62
     7
 10
-81.7618
 20
31.64383
 40
0.8
 50
89.99999
 51
180.0
  0
ARC
  8
0
  6
CONTINUOUS
 62
     7
 10
-81.7618
 20
34.24382
 40
0.8
 50
180.0
 51
270.0
  0
ARC
  8
0
  6
CONTINUOUS
 62
     7
 10
-79.36181
 20
48.24382
 40
0.8
 50
270.0
 51
0.0
  0
ARC
  8
0
  6
CONTINUOUS
 62
     7
 10
-79.36181
 20
45.64383
 40
0.8
 50
0.0
 51
89.99999
  0
ARC
  8
0
  6
CONTINUOUS
 62
     7
 10
-76.7618
 20
45.64383
 40
0.8
 50
89.99999
 51
180.0
  0
ARC
  8
0
  6
CONTINUOUS
 62
     7
 10
-76.7618
 20
48.24382
 40
0.8
 50
180.0
 51
270.0
  0
ARC
  8
0
  6
CONTINUOUS
 62
     7
 10
-80.86181
 20
41.14383
 40
0.2
 50
180.0
 51
270.0
  0
ARC
  8
0
  6
CONTINUOUS
 62
     7
 10
-85.86181
 20
38.74382
 40
0.2
 50
89.99999
 51
180.0
  0
ARC
  8
0
  6
CONTINUOUS
 62
     7
 10
-60.24931
 20
36.19382
 40
0.8125
 50
112.6199
 51
247.3801
  0
ARC
  8
0
  6
CONTINUOUS
 62
     7
 10
-60.87431
 20
36.19382
 40
0.8125
 50
292.6199
 51
67.38013
  0
ARC
  8
0
  6
CONTINUOUS
 62
     7
 10
-60.87431
 20
37.69382
 40
0.8125
 50
292.6199
 51
67.38013
  0
ARC
  8
0
  6
CONTINUOUS
 62
     7
 10
-80.86181
 20
49.44382
 40
0.2
 50
89.99999
 51
180.0
  0
ARC
  8
0
  6
CONTINUOUS
 62
     7
 10
-75.2618
 20
49.44382
 40
0.2
 50
0.0
 51
89.99999
  0
ARC
  8
0
  6
CONTINUOUS
 62
     7
 10
-75.2618
 20
41.14383
 40
0.2
 50
270.0
 51
0.0
  0
ARC
  8
0
  6
CONTINUOUS
 62
     7
 10
-80.2618
 20
38.74382
 40
0.2
 50
0.0
 51
89.99999
  0
ARC
  8
0
  6
CONTINUOUS
 62
     7
 10
-80.2618
 20
30.44382
 40
0.2
 50
270.0
 51
0.0
  0
ARC
  8
0
  6
CONTINUOUS
 62
     7
 10
-85.86181
 20
30.44382
 40
0.2
 50
180.0
 51
270.0
  0
ARC
  8
0
  6
CONTINUOUS
 62
     7
 10
-60.87431
 20
43.69382
 40
0.8125
 50
292.6199
 51
67.38013
  0
ARC
  8
0
  6
CONTINUOUS
 62
     7
 10
-60.87431
 20
42.19382
 40
0.8125
 50
292.6199
 51
67.38013
  0
ARC
  8
0
  6
CONTINUOUS
 62
     7
 10
-60.24931
 20
42.19382
 40
0.8125
 50
112.6199
 51
247.3801
  0
ARC
  8
0
  6
CONTINUOUS
 62
     7
 10
-60.87431
 20
92.63765
 40
0.8125
 50
292.6199
 51
67.38013
  0
ARC
  8
0
  6
CONTINUOUS
 62
     7
 10
-60.24931
 20
91.13765
 40
0.8125
 50
112.6199
 51
247.3801
  0
ARC
  8
0
  6
CONTINUOUS
 62
     7
 10
-60.87431
 20
91.13765
 40
0.8125
 50
292.6199
 51
67.38013
  0
ARC
  8
0
  6
CONTINUOUS
 62
     7
 10
-83.06181
 20
90.86828
 40
3.48063
 50
205.1754
 51
315.9111
  0
ARC
  8
0
  6
CONTINUOUS
 62
     7
 10
-78.06181
 20
90.86828
 40
3.48063
 50
205.1754
 51
334.8246
  0
ARC
  8
0
  6
CONTINUOUS
 62
     7
 10
-181.666
 20
46.94382
 40
3.48062
 50
295.1753
 51
64.82468
  0
ARC
  8
0
  6
CONTINUOUS
 62
     7
 10
-181.666
 20
32.94382
 40
3.48062
 50
295.1753
 51
64.82465
  0
CIRCLE
  8
0
  6
CONTINUOUS
 62
     7
 10
185.1854
 20
47.44383
 40
3.15
  0
CIRCLE
  8
0
  6
CONTINUOUS
 62
     7
 10
180.1854
 20
32.44383
 40
3.15
  0
ARC
  8
0
  6
CONTINUOUS
 62
     7
 10
183.8854
 20
48.74383
 40
0.8
 50
270.0
 51
0.0
  0
ARC
  8
0
  6
CONTINUOUS
 62
     7
 10
183.8854
 20
46.14383
 40
0.8
 50
0.0
 51
89.99999
  0
ARC
  8
0
  6
CONTINUOUS
 62
     7
 10
186.4854
 20
46.14383
 40
0.8
 50
89.99999
 51
180.0
  0
ARC
  8
0
  6
CONTINUOUS
 62
     7
 10
186.4854
 20
48.74383
 40
0.8
 50
180.0
 51
270.0
  0
ARC
  8
0
  6
CONTINUOUS
 62
     7
 10
178.8854
 20
31.14383
 40
0.8
 50
0.0
 51
89.99999
  0
ARC
  8
0
  6
CONTINUOUS
 62
     7
 10
181.4854
 20
31.14383
 40
0.8
 50
89.99999
 51
180.0
  0
ARC
  8
0
  6
CONTINUOUS
 62
     7
 10
181.4854
 20
33.74383
 40
0.8
 50
180.0
 51
270.0
  0
ARC
  8
0
  6
CONTINUOUS
 62
     7
 10
178.8854
 20
33.74383
 40
0.8
 50
270.0
 51
0.0
  0
ARC
  8
0
  6
CONTINUOUS
 62
     7
 10
203.3729
 20
37.19383
 40
0.8125
 50
292.6199
 51
67.38013
  0
ARC
  8
0
  6
CONTINUOUS
 62
     7
 10
203.3729
 20
35.69383
 40
0.8125
 50
292.6199
 51
67.38013
  0
ARC
  8
0
  6
CONTINUOUS
 62
     7
 10
203.9979
 20
35.69383
 40
0.8125
 50
112.6199
 51
247.3801
  0
ARC
  8
0
  6
CONTINUOUS
 62
     7
 10
203.9979
 20
42.69383
 40
0.8125
 50
112.6199
 51
247.3801
  0
ARC
  8
0
  6
CONTINUOUS
 62
     7
 10
203.3729
 20
42.69383
 40
0.8125
 50
292.6199
 51
67.38013
  0
ARC
  8
0
  6
CONTINUOUS
 62
     7
 10
203.3729
 20
44.19383
 40
0.8125
 50
292.6199
 51
67.38013
  0
ARC
  8
0
  6
CONTINUOUS
 62
     7
 10
203.3729
 20
91.63766
 40
0.8125
 50
292.6199
 51
67.38013
  0
ARC
  8
0
  6
CONTINUOUS
 62
     7
 10
203.9979
 20
90.13766
 40
0.8125
 50
112.6199
 51
247.3801
  0
ARC
  8
0
  6
CONTINUOUS
 62
     7
 10
203.3729
 20
90.13766
 40
0.8125
 50
292.6199
 51
67.38013
  0
ARC
  8
0
  6
CONTINUOUS
 62
     7
 10
180.1854
 20
88.86829
 40
3.48062
 50
205.1755
 51
315.9111
  0
ARC
  8
0
  6
CONTINUOUS
 62
     7
 10
185.1854
 20
88.86829
 40
3.48062
 50
205.1755
 51
334.8245
  0
ARC
  8
0
  6
CONTINUOUS
 62
     7
 10
83.58118
 20
47.44384
 40
3.48063
 50
295.1754
 51
64.82457
  0
ARC
  8
0
  6
CONTINUOUS
 62
     7
 10
83.58118
 20
32.44384
 40
3.48062
 50
295.1753
 51
64.82457
  0
ARC
  8
0
  6
CONTINUOUS
 62
     7
 10
57.36184
 20
-111.6315
 40
0.8
 50
89.99999
 51
180.0
  0
ARC
  8
0
  6
CONTINUOUS
 62
     7
 10
57.36184
 20
-109.0315
 40
0.8
 50
180.0
 51
270.0
  0
CIRCLE
  8
0
  6
CONTINUOUS
 62
     7
 10
56.06183
 20
-110.3315
 40
3.15
  0
ARC
  8
0
  6
CONTINUOUS
 62
     7
 10
54.76183
 20
-109.0315
 40
0.8
 50
270.0
 51
0.0
  0
ARC
  8
0
  6
CONTINUOUS
 62
     7
 10
54.76183
 20
-111.6315
 40
0.8
 50
0.0
 51
89.99999
  0
ARC
  8
0
  6
CONTINUOUS
 62
     7
 10
53.26183
 20
-107.8315
 40
0.2
 50
89.99999
 51
180.0
  0
ARC
  8
0
  6
CONTINUOUS
 62
     7
 10
49.76183
 20
-130.6315
 40
0.8
 50
0.0
 51
89.99999
  0
CIRCLE
  8
0
  6
CONTINUOUS
 62
     7
 10
51.06183
 20
-129.3315
 40
3.15
  0
ARC
  8
0
  6
CONTINUOUS
 62
     7
 10
52.36184
 20
-128.0315
 40
0.8
 50
180.0
 51
270.0
  0
ARC
  8
0
  6
CONTINUOUS
 62
     7
 10
48.26183
 20
-131.8315
 40
0.2
 50
180.0
 51
270.0
  0
ARC
  8
0
  6
CONTINUOUS
 62
     7
 10
52.36184
 20
-130.6315
 40
0.8
 50
89.99999
 51
180.0
  0
ARC
  8
0
  6
CONTINUOUS
 62
     7
 10
76.87433
 20
-126.0815
 40
0.8125
 50
112.6199
 51
247.3801
  0
ARC
  8
0
  6
CONTINUOUS
 62
     7
 10
76.24933
 20
-126.0815
 40
0.8125
 50
292.6199
 51
67.38013
  0
ARC
  8
0
  6
CONTINUOUS
 62
     7
 10
49.76183
 20
-128.0315
 40
0.8
 50
270.0
 51
0.0
  0
ARC
  8
0
  6
CONTINUOUS
 62
     7
 10
76.24933
 20
-124.5815
 40
0.8125
 50
292.6199
 51
67.38013
  0
ARC
  8
0
  6
CONTINUOUS
 62
     7
 10
76.24933
 20
-113.5815
 40
0.8125
 50
292.6199
 51
67.38013
  0
ARC
  8
0
  6
CONTINUOUS
 62
     7
 10
76.24933
 20
-115.0815
 40
0.8125
 50
292.6199
 51
67.38013
  0
ARC
  8
0
  6
CONTINUOUS
 62
     7
 10
76.87433
 20
-115.0815
 40
0.8125
 50
112.6199
 51
247.3801
  0
ARC
  8
0
  6
CONTINUOUS
 62
     7
 10
76.24931
 20
-71.13763
 40
0.8125
 50
292.6199
 51
67.38013
  0
ARC
  8
0
  6
CONTINUOUS
 62
     7
 10
76.24931
 20
-72.63763
 40
0.8125
 50
292.6199
 51
67.38013
  0
ARC
  8
0
  6
CONTINUOUS
 62
     7
 10
76.87431
 20
-72.63763
 40
0.8125
 50
112.6199
 51
247.3801
  0
ARC
  8
0
  6
CONTINUOUS
 62
     7
 10
46.06181
 20
-73.907
 40
3.48063
 50
205.1754
 51
334.8246
  0
ARC
  8
0
  6
CONTINUOUS
 62
     7
 10
56.06181
 20
-73.907
 40
3.48063
 50
205.1754
 51
334.8246
  0
ARC
  8
0
  6
CONTINUOUS
 62
     7
 10
-41.54243
 20
-110.3315
 40
3.48063
 50
295.1754
 51
64.82462
  0
ARC
  8
0
  6
CONTINUOUS
 62
     7
 10
-41.54243
 20
-129.3315
 40
3.48062
 50
295.1754
 51
64.82451
  0
TEXT
  8
0
  6
CONTINUOUS
 62
     7
 10
161.9774
 20
167.0677
 40
6.0
  1
DATE : FEB ,1989
 41
0.8
  7
STANDARD
  0
TEXT
  8
0
  6
CONTINUOUS
 62
     7
 10
-259.6446
 20
166.5977
 40
7.0
  1
MULTI SENSOR SW
 41
0.8
  7
STANDARD
  0
TEXT
  8
0
  6
CONTINUOUS
 62
     7
 10
-254.3972
 20
-13.29
 40
7.0
  1
MODEL : BDAS 16*ST(10)
 41
0.8
  7
STANDARD
  0
TEXT
  8
0
  6
CONTINUOUS
 62
     7
 10
-254.3972
 20
146.4853
 40
7.0
  1
MODEL : BDAS 6*ST(10)
 41
0.8
  7
STANDARD
  0
TEXT
  8
0
  6
CONTINUOUS
 62
     7
 10
7.85
 20
146.4853
 40
7.0
  1
MODEL : BDAS 10*ST(10)
 41
0.8
  7
STANDARD
  0
ENDSEC
  0
EOF
