  0
SECTION
  2
HEADER
  9
$ACADVER
  1
AC1012
  9
$DWGCODEPAGE
  3
dos932
  9
$INSBASE
 10
0.0
 20
0.0
 30
0.0
  9
$EXTMIN
 10
-281.25
 20
-195.0
 30
0.0
  9
$EXTMAX
 10
285.5999755859375
 20
195.5
 30
0.0
  9
$LIMMIN
 10
-281.25
 20
-195.0
  9
$LIMMAX
 10
285.5999755859375
 20
195.5
  9
$ORTHOMODE
 70
               0
  9
$REGENMODE
 70
               1
  9
$FILLMODE
 70
               1
  9
$QTEXTMODE
 70
               0
  9
$MIRRTEXT
 70
               1
  9
$DRAGMODE
 70
               2
  9
$LTSCALE
 40
1.0
  9
$OSMODE
 70
               0
  9
$ATTMODE
 70
               1
  9
$TEXTSIZE
 40
3.2000000476837158
  9
$TRACEWID
 40
0.05
  9
$TEXTSTYLE
  7
MX_NOTE_STANDARD
  9
$CLAYER
  8
0
  9
$CELTYPE
  6
CONTINUOUS
  9
$CECOLOR
 62
             256
  9
$CELTSCALE
 40
1.0
  9
$DELOBJ
 70
               1
  9
$DISPSILH
 70
               0
  9
$DIMSCALE
 40
1.0
  9
$DIMASZ
 40
2.5
  9
$DIMEXO
 40
1.5
  9
$DIMDLI
 40
3.75
  9
$DIMRND
 40
0.0
  9
$DIMDLE
 40
0.0
  9
$DIMEXE
 40
1.5
  9
$DIMTP
 40
0.0
  9
$DIMTM
 40
0.0
  9
$DIMTXT
 40
3.2000000476837158
  9
$DIMCEN
 40
2.5
  9
$DIMTSZ
 40
0.0
  9
$DIMTOL
 70
               0
  9
$DIMLIM
 70
               0
  9
$DIMTIH
 70
               0
  9
$DIMTOH
 70
               0
  9
$DIMSE1
 70
               0
  9
$DIMSE2
 70
               0
  9
$DIMTAD
 70
               1
  9
$DIMZIN
 70
               8
  9
$DIMBLK
  1

  9
$DIMASO
 70
               1
  9
$DIMSHO
 70
               1
  9
$DIMPOST
  1

  9
$DIMAPOST
  1

  9
$DIMALT
 70
               0
  9
$DIMALTD
 70
               4
  9
$DIMALTF
 40
0.03937007874016
  9
$DIMLFAC
 40
1.0
  9
$DIMTOFL
 70
               1
  9
$DIMTVP
 40
0.0
  9
$DIMTIX
 70
               0
  9
$DIMSOXD
 70
               0
  9
$DIMSAH
 70
               0
  9
$DIMBLK1
  1

  9
$DIMBLK2
  1

  9
$DIMSTYLE
  2
MXDIMSTYLE
  9
$DIMCLRD
 70
               0
  9
$DIMCLRE
 70
               0
  9
$DIMCLRT
 70
               0
  9
$DIMTFAC
 40
1.0
  9
$DIMGAP
 40
1.0
  9
$DIMJUST
 70
               0
  9
$DIMSD1
 70
               0
  9
$DIMSD2
 70
               0
  9
$DIMTOLJ
 70
               1
  9
$DIMTZIN
 70
               0
  9
$DIMALTZ
 70
               0
  9
$DIMALTTZ
 70
               0
  9
$DIMFIT
 70
               3
  9
$DIMUPT
 70
               1
  9
$DIMUNIT
 70
               2
  9
$DIMDEC
 70
               4
  9
$DIMTDEC
 70
               4
  9
$DIMALTU
 70
               2
  9
$DIMALTTD
 70
               4
  9
$DIMTXSTY
  7
MX_NOTE_STANDARD
  9
$DIMAUNIT
 70
               0
  9
$LUNITS
 70
               2
  9
$LUPREC
 70
               4
  9
$SKETCHINC
 40
0.1
  9
$FILLETRAD
 40
0.0
  9
$AUNITS
 70
               0
  9
$AUPREC
 70
               0
  9
$MENU
  1
acad
  9
$ELEVATION
 40
0.0
  9
$PELEVATION
 40
0.0
  9
$THICKNESS
 40
0.0
  9
$LIMCHECK
 70
               0
  9
$BLIPMODE
 70
               1
  9
$CHAMFERA
 40
0.0
  9
$CHAMFERB
 40
0.0
  9
$CHAMFERC
 40
0.0
  9
$CHAMFERD
 40
0.0
  9
$SKPOLY
 70
               0
  9
$TDCREATE
 40
2453749.544398148
  9
$TDUPDATE
 40
2453749.544398148
  9
$TDINDWG
 40
0.0000000000
  9
$TDUSRTIMER
 40
0.0000000000
  9
$USRTIMER
 70
               1
  9
$ANGBASE
 50
0.0
  9
$ANGDIR
 70
               0
  9
$PDMODE
 70
               0
  9
$PDSIZE
 40
0.0
  9
$PLINEWID
 40
0.0
  9
$COORDS
 70
               1
  9
$SPLFRAME
 70
               0
  9
$SPLINETYPE
 70
               6
  9
$SPLINESEGS
 70
               8
  9
$ATTDIA
 70
               0
  9
$ATTREQ
 70
               1
  9
$HANDLING
 70
               1
  9
$HANDSEED
  5
7A1
  9
$SURFTAB1
 70
               6
  9
$SURFTAB2
 70
               6
  9
$SURFTYPE
 70
               6
  9
$SURFU
 70
               6
  9
$SURFV
 70
               6
  9
$UCSNAME
  2

  9
$UCSORG
 10
0.0
 20
0.0
 30
0.0
  9
$UCSXDIR
 10
1.0
 20
0.0
 30
0.0
  9
$UCSYDIR
 10
0.0
 20
1.0
 30
0.0
  9
$PUCSNAME
  2

  9
$PUCSORG
 10
0.0
 20
0.0
 30
0.0
  9
$PUCSXDIR
 10
1.0
 20
0.0
 30
0.0
  9
$PUCSYDIR
 10
0.0
 20
1.0
 30
0.0
  9
$USERI1
 70
               0
  9
$USERI2
 70
               0
  9
$USERI3
 70
               0
  9
$USERI4
 70
               0
  9
$USERI5
 70
               0
  9
$USERR1
 40
0.0
  9
$USERR2
 40
0.0
  9
$USERR3
 40
0.0
  9
$USERR4
 40
0.0
  9
$USERR5
 40
0.0
  9
$WORLDVIEW
 70
               1
  9
$SHADEDGE
 70
               3
  9
$SHADEDIF
 70
              70
  9
$TILEMODE
 70
               1
  9
$MAXACTVP
 70
              16
  9
$PINSBASE
 10
0.0
 20
0.0
 30
0.0
  9
$PLIMCHECK
 70
               0
  9
$PEXTMIN
 10
1.0000000000000000E+20
 20
1.0000000000000000E+20
 30
1.0000000000000000E+20
  9
$PEXTMAX
 10
-1.0000000000000000E+20
 20
-1.0000000000000000E+20
 30
-1.0000000000000000E+20
  9
$PLIMMIN
 10
0.0
 20
0.0
  9
$PLIMMAX
 10
12.0
 20
9.0
  9
$UNITMODE
 70
               0
  9
$VISRETAIN
 70
               0
  9
$PLINEGEN
 70
               1
  9
$PSLTSCALE
 70
               0
  9
$TREEDEPTH
 70
            3020
  9
$PICKSTYLE
 70
               1
  9
$CMLSTYLE
  2
Standard
  9
$CMLJUST
 70
               0
  9
$CMLSCALE
 40
1.0
  9
$SAVEIMAGES
 70
               0
  0
ENDSEC
  0
SECTION
  2
CLASSES
  0
CLASS
  1
LWPOLYLINE
  2
AcDbPolyline
  3
"AutoCAD"
 90
        0
280
               0
281
               1
  0
CLASS
  1
IMAGE
  2
AcDbRasterImage
  3
ISM
 90
      127
280
               0
281
               1
  0
CLASS
  1
OLE2FRAME
  2
AcDbOle2Frame
  3
""
 90
        0
280
               0
281
               1
  0
CLASS
  1
HATCH
  2
AcDbHatch
  3
"ACAD_SEDONA"
 90
        0
280
               0
281
               1
  0
CLASS
  1
DICTIONARYVAR
  2
AcDbDictionaryVar
  3
"AutoCAD"
 90
        0
280
               0
281
               0
  0
CLASS
  1
RASTERVARIABLES
  2
AcDbRasterVariables
  3
ISM
 90
        0
280
               0
281
               0
  0
CLASS
  1
IMAGEDEF
  2
AcDbRasterImageDef
  3
ISM
 90
        0
280
               0
281
               0
  0
CLASS
  1
IMAGEDEF_REACTOR
  2
AcDbRasterImageDefReactor
  3
ISM
 90
        1
280
               0
281
               0
  0
CLASS
  1
IDBUFFER
  2
AcDbIdBuffer
  3
"Acad"
 90
        0
280
               0
281
               0
  0
CLASS
  1
SPATIAL_FILTER
  2
AcDbSpatialFilter
  3
"Acad"
 90
        0
280
               0
281
               0
  0
CLASS
  1
XRECORD
  2
AcDbXrecord
  3
"<Built In>"
 90
        0
280
               0
281
               0
  0
CLASS
  1
SORTENTSTABLE
  2
AcDbSortentsTable
  3
"AutoCAD"
 90
        0
280
               0
281
               0
  0
CLASS
  1
LAYER_INDEX
  2
AcDbLayerIndex
  3
"Acad"
 90
        0
280
               0
281
               0
  0
CLASS
  1
SPATIAL_INDEX
  2
AcDbSpatialIndex
  3
"Acad"
 90
        0
280
               0
281
               0
  0
CLASS
  1
OBJECT_PTR
  2
CAseDLPNTableRecord
  3
"ASE-LPNTableRecord"
 90
        1
280
               0
281
               0
  0
CLASS
  1
LAYOUT
  2
AcDbLayout
  3
"AutoCAD 2000"
 90
        1
280
               0
281
               0
  0
CLASS
  1
PLOTSETTINGS
  2
AcDbPlotSettings
  3
"AutoCAD 2000"
 90
        1
280
               0
281
               0
  0
CLASS
  1
ACDBDICTIONARYWDFLT
  2
AcDbDictionaryWithDefault
  3
"AutoCAD 2000"
 90
        1
280
               0
281
               0
  0
CLASS
  1
ACDBPLACEHOLDER
  2
AcDbPlaceHolder
  3
"AutoCAD 2000"
 90
        1
280
               0
281
               0
  0
ENDSEC
  0
SECTION
  2
TABLES
  0
TABLE
  2
VPORT
  5
7
100
AcDbSymbolTable
 70
               1
  0
VPORT
  5
15
100
AcDbSymbolTableRecord
100
AcDbViewportTableRecord
  2
*ACTIVE
 70
               0
 10
0.0
 20
0.0
 11
1.0
 21
1.0
 12
2.17498779296875
 22
0.25
 13
0.0
 23
0.0
 14
1.0
 24
1.0
 15
0.0
 25
0.0
 16
0.0
 26
0.0
 36
1.0
 17
0.0
 27
0.0
 37
0.0
 40
394.40500000000003
 41
1.7320508075688772
 42
50.0
 43
0.0
 44
0.0
 50
0.0
 51
0.0
 71
               0
 72
             100
 73
               1
 74
               1
 75
               0
 76
               0
 77
               0
 78
               0
  0
ENDTAB
  0
TABLE
  2
LTYPE
  5
4
100
AcDbSymbolTable
 70
               5
  0
LTYPE
  5
11
100
AcDbSymbolTableRecord
100
AcDbLinetypeTableRecord
  2
BYBLOCK
 70
              64
  3

 72
              65
 73
               0
 40
0.0
  0
LTYPE
  5
12
100
AcDbSymbolTableRecord
100
AcDbLinetypeTableRecord
  2
BYLAYER
 70
              64
  3

 72
              65
 73
               0
 40
0.0
  0
LTYPE
  5
13
100
AcDbSymbolTableRecord
100
AcDbLinetypeTableRecord
  2
CONTINUOUS
 70
              64
  3
Solid line
 72
              65
 73
               0
 40
0.0
  0
LTYPE
  5
278
100
AcDbSymbolTableRecord
100
AcDbLinetypeTableRecord
  2
PHANTOM
 70
              64
  3
Phantom ______  __  __  ______  __  __  ______
 72
              65
 73
               6
 40
30.0
 49
20.0
 74
               0
 49
-2.0
 74
               0
 49
2.0
 74
               0
 49
-2.0
 74
               0
 49
2.0
 74
               0
 49
-2.0
 74
               0
  0
LTYPE
  5
79D
100
AcDbSymbolTableRecord
100
AcDbLinetypeTableRecord
  2
DASHED
 70
              64
  3
Dashed __ __ __ __ __ __ __ __ __ __ __ __ __ _
 72
              65
 73
               2
 40
4.0
 49
2.0
 74
               0
 49
-2.0
 74
               0
  0
ENDTAB
  0
TABLE
  2
LAYER
  5
2
100
AcDbSymbolTable
 70
               2
  0
LAYER
  5
14
100
AcDbSymbolTableRecord
100
AcDbLayerTableRecord
  2
0
 70
               0
 62
               7
  6
CONTINUOUS
  0
LAYER
  5
1D
100
AcDbSymbolTableRecord
100
AcDbLayerTableRecord
  2
DEFPOINTS
 70
               0
 62
               7
  6
CONTINUOUS
  0
ENDTAB
  0
TABLE
  2
STYLE
  5
3
100
AcDbSymbolTable
 70
               1
  0
STYLE
  5
17
100
AcDbSymbolTableRecord
100
AcDbTextStyleTableRecord
  2
MX_NOTE_STANDARD
 70
               0
 40
0.0
 41
1.0
 50
0.0
 71
               0
 42
3.2000000476837158
  3
txt.shx
  4
extfont.shx
  0
ENDTAB
  0
TABLE
  2
VIEW
  5
5
100
AcDbSymbolTable
 70
               0
  0
ENDTAB
  0
TABLE
  2
UCS
  5
6
100
AcDbSymbolTable
 70
               0
  0
ENDTAB
  0
TABLE
  2
APPID
  5
8
100
AcDbSymbolTable
 70
               1
  0
APPID
  5
16
100
AcDbSymbolTableRecord
100
AcDbRegAppTableRecord
  2
ACAD
 70
               0
  0
ENDTAB
  0
TABLE
  2
DIMSTYLE
  5
9
100
AcDbSymbolTable
 70
               1
  0
DIMSTYLE
105
18
100
AcDbSymbolTableRecord
100
AcDbDimStyleTableRecord
  2
MXDIMSTYLE
 70
               0
  3

  4

  5

  6

  7

 40
1.0
 41
2.5
 42
1.5
 43
3.75
 44
1.5
 45
0.0
 46
0.0
 47
0.0
 48
0.0
 71
               0
 72
               0
 73
               0
 74
               0
 75
               0
 76
               0
 77
               1
 78
               8
140
3.2000000476837158
141
2.5
142
0.0
143
0.03937007874016
144
1.0
145
0.0
146
1.0
147
1.0
170
               0
171
               4
172
               1
173
               0
174
               0
175
               0
176
               0
177
               0
178
               0
270
               2
271
               4
272
               4
273
               2
274
               4
275
               0
280
               0
281
               0
282
               0
283
               1
284
               0
285
               0
286
               0
287
               3
288
               1
340
17
  0
ENDTAB
  0
TABLE
  2
BLOCK_RECORD
  5
1
100
AcDbSymbolTable
 70
              11
  0
BLOCK_RECORD
  5
A
100
AcDbSymbolTableRecord
100
AcDbBlockTableRecord
  2
*MODEL_SPACE
  0
BLOCK_RECORD
  5
B
100
AcDbSymbolTableRecord
100
AcDbBlockTableRecord
  2
*PAPER_SPACE
  0
BLOCK_RECORD
  5
1E
100
AcDbSymbolTableRecord
100
AcDbBlockTableRecord
  2
MV180-05-DA-F-1
  0
BLOCK_RECORD
  5
1F
100
AcDbSymbolTableRecord
100
AcDbBlockTableRecord
  2
MV180-05-DA-F-2
  0
BLOCK_RECORD
  5
20
100
AcDbSymbolTableRecord
100
AcDbBlockTableRecord
  2
MV180-05-DA-F-3
  0
BLOCK_RECORD
  5
21
100
AcDbSymbolTableRecord
100
AcDbBlockTableRecord
  2
MV180-05-DA-F-4
  0
BLOCK_RECORD
  5
22
100
AcDbSymbolTableRecord
100
AcDbBlockTableRecord
  2
MV180-05-DA-F-5
  0
BLOCK_RECORD
  5
23
100
AcDbSymbolTableRecord
100
AcDbBlockTableRecord
  2
MV180-05-DA-F-6
  0
BLOCK_RECORD
  5
24
100
AcDbSymbolTableRecord
100
AcDbBlockTableRecord
  2
MV180-05-DA-F-7
  0
BLOCK_RECORD
  5
25
100
AcDbSymbolTableRecord
100
AcDbBlockTableRecord
  2
MV180-05-DA-F-8
  0
BLOCK_RECORD
  5
26
100
AcDbSymbolTableRecord
100
AcDbBlockTableRecord
  2
MV180-05-DA-F-9
  0
BLOCK_RECORD
  5
27
100
AcDbSymbolTableRecord
100
AcDbBlockTableRecord
  2
MV180-05-DA-F-10
  0
BLOCK_RECORD
  5
778
100
AcDbSymbolTableRecord
100
AcDbBlockTableRecord
  2
_OPEN30
  0
ENDTAB
  0
ENDSEC
  0
SECTION
  2
BLOCKS
  0
BLOCK
  5
D
100
AcDbEntity
  8
0
100
AcDbBlockBegin
  2
*MODEL_SPACE
 70
               0
 10
0.0
 20
0.0
 30
0.0
  3
*MODEL_SPACE
  1

  0
ENDBLK
  5
E
100
AcDbEntity
  8
0
100
AcDbBlockEnd
  0
BLOCK
  5
F
100
AcDbEntity
 67
               1
  8
0
100
AcDbBlockBegin
  2
*PAPER_SPACE
 70
               0
 10
0.0
 20
0.0
 30
0.0
  3
*PAPER_SPACE
  1

  0
ENDBLK
  5
10
100
AcDbEntity
 67
               1
  8
0
100
AcDbBlockEnd
  0
BLOCK
  5
28
100
AcDbEntity
  8
0
100
AcDbBlockBegin
  2
MV180-05-DA-F-1
 70
               0
 10
0.0
 20
0.0
 30
0.0
  3
MV180-05-DA-F-1
  1

  0
CIRCLE
  5
29
100
AcDbEntity
  8
0
  6
CONTINUOUS
 62
               2
100
AcDbCircle
 10
-23.200000000000045
 20
7.5
 30
0.0
 40
2.5
  0
CIRCLE
  5
2A
100
AcDbEntity
  8
0
  6
CONTINUOUS
 62
               7
100
AcDbCircle
 10
-23.200000000000045
 20
7.5
 30
0.0
 40
2.1000000000000001
  0
LINE
  5
2B
100
AcDbEntity
  8
0
  6
CONTINUOUS
 62
               7
100
AcDbLine
 10
-18.200000000000017
 20
1.0998875936367654
 30
0.0
 11
-18.200112168482178
 21
1.0998878315179468
 31
0.0
  0
LINE
  5
2C
100
AcDbEntity
  8
0
  6
CONTINUOUS
 62
               2
100
AcDbLine
 10
-27.200000000000045
 20
7.5
 30
0.0
 11
-19.200000000000045
 21
7.5
 31
0.0
  0
LINE
  5
2D
100
AcDbEntity
  8
0
  6
CONTINUOUS
 62
               2
100
AcDbLine
 10
-23.200000000000045
 20
3.5
 30
0.0
 11
-23.200000000000045
 21
11.5
 31
0.0
  0
LINE
  5
2E
100
AcDbEntity
  8
0
  6
CONTINUOUS
 62
               2
100
AcDbLine
 10
-14.100000000000023
 20
48.149999982500049
 30
0.0
 11
-6.1000000000000227
 21
48.149999982500049
 31
0.0
  0
LINE
  5
2F
100
AcDbEntity
  8
0
  6
CONTINUOUS
 62
               2
100
AcDbLine
 10
-10.100000000000023
 20
44.149999982500049
 30
0.0
 11
-10.100000000000023
 21
52.149999982500049
 31
0.0
  0
LINE
  5
30
100
AcDbEntity
  8
0
  6
CONTINUOUS
 62
               2
100
AcDbLine
 10
-14.100000000000023
 20
33.25
 30
0.0
 11
-6.1000000000000227
 21
33.25
 31
0.0
  0
LINE
  5
31
100
AcDbEntity
  8
0
  6
CONTINUOUS
 62
               2
100
AcDbLine
 10
-10.100000000000023
 20
29.25
 30
0.0
 11
-10.100000000000023
 21
37.25
 31
0.0
  0
LINE
  5
32
100
AcDbEntity
  8
0
  6
CONTINUOUS
 62
               2
100
AcDbLine
 10
-14.100000000000023
 20
11.85000001749998
 30
0.0
 11
-6.1000000000000227
 21
11.85000001749998
 31
0.0
  0
LINE
  5
33
100
AcDbEntity
  8
0
  6
CONTINUOUS
 62
               2
100
AcDbLine
 10
-10.100000000000023
 20
7.8500000174999798
 30
0.0
 11
-10.100000000000023
 21
15.85000001749998
 31
0.0
  0
ARC
  5
34
100
AcDbEntity
  8
0
  6
CONTINUOUS
 62
               7
100
AcDbCircle
 10
-20.199999999999989
 20
66.500000079349434
 30
0.0
 40
1.5
100
AcDbArc
 50
0.000000000001107
 51
16.758839779744566
  0
ARC
  5
35
100
AcDbEntity
  8
0
  6
CONTINUOUS
 62
               7
100
AcDbCircle
 10
-28.099999999999994
 20
59.900000079349411
 30
0.0
 40
0.1
100
AcDbArc
 50
90.0
 51
180.0
  0
ARC
  5
36
100
AcDbEntity
  8
0
  6
CONTINUOUS
 62
               7
100
AcDbCircle
 10
-18.299999999999983
 20
59.900000079349411
 30
0.0
 40
0.1
100
AcDbArc
 50
0.0000000000081422
 51
90.0
  0
LINE
  5
37
100
AcDbEntity
  8
0
  6
CONTINUOUS
 62
               7
100
AcDbLine
 10
-18.78693547030656
 20
67.000000079349434
 30
0.0
 11
-18.785786437626882
 21
67.000000079349434
 31
0.0
  0
LINE
  5
38
100
AcDbEntity
  8
0
  6
CONTINUOUS
 62
               7
100
AcDbLine
 10
-18.78693547030656
 20
67.000000079349434
 30
0.0
 11
-18.809868090444724
 21
67.000000079349434
 31
0.0
  0
LINE
  5
39
100
AcDbEntity
  8
0
  6
CONTINUOUS
 62
               7
100
AcDbLine
 10
-18.699999999999989
 20
60.30000007934936
 30
0.0
 11
-18.699999999999989
 21
66.500000079349462
 31
0.0
  0
LINE
  5
3A
100
AcDbEntity
  8
0
  6
CONTINUOUS
 62
               7
100
AcDbLine
 10
-18.786935470306531
 20
67.000000079349377
 30
0.0
 11
-18.764405748065485
 21
66.932743800671972
 31
0.0
  0
LINE
  5
3B
100
AcDbEntity
  8
0
  6
CONTINUOUS
 62
               7
100
AcDbLine
 10
-27.699999999999989
 20
60.30000007934936
 30
0.0
 11
-27.699999999999989
 21
66.500000079349462
 31
0.0
  0
LINE
  5
3C
100
AcDbEntity
  8
0
  6
CONTINUOUS
 62
               7
100
AcDbLine
 10
-23.199999999999989
 20
60.300000079349445
 30
0.0
 11
-22.418583200498801
 21
60.300000079349445
 31
0.0
  0
LINE
  5
3D
100
AcDbEntity
  8
0
  6
CONTINUOUS
 62
               7
100
AcDbLine
 10
-23.981416799501176
 20
60.30000007934936
 30
0.0
 11
-23.199999999999989
 21
60.30000007934936
 31
0.0
  0
LINE
  5
3E
100
AcDbEntity
  8
0
  6
CONTINUOUS
 62
               7
100
AcDbLine
 10
-24.739090644965472
 20
60.300000079349445
 30
0.0
 11
-23.981416799501176
 21
60.300000079349445
 31
0.0
  0
LINE
  5
3F
100
AcDbEntity
  8
0
  6
CONTINUOUS
 62
               7
100
AcDbLine
 10
-25.449999999999989
 20
60.300000079349445
 30
0.0
 11
-24.739090644965472
 21
60.300000079349445
 31
0.0
  0
LINE
  5
40
100
AcDbEntity
  8
0
  6
CONTINUOUS
 62
               7
100
AcDbLine
 10
-26.092544243589401
 20
60.300000079349445
 30
0.0
 11
-25.449999999999989
 21
60.300000079349445
 31
0.0
  0
LINE
  5
41
100
AcDbEntity
  8
0
  6
CONTINUOUS
 62
               7
100
AcDbLine
 10
-26.64719999403539
 20
60.300000079349445
 30
0.0
 11
-26.092544243589401
 21
60.300000079349445
 31
0.0
  0
LINE
  5
42
100
AcDbEntity
  8
0
  6
CONTINUOUS
 62
               7
100
AcDbLine
 10
-27.097114317029963
 20
60.300000079349445
 30
0.0
 11
-26.64719999403539
 21
60.300000079349445
 31
0.0
  0
LINE
  5
43
100
AcDbEntity
  8
0
  6
CONTINUOUS
 62
               7
100
AcDbLine
 10
-27.428616793536577
 20
60.300000079349445
 30
0.0
 11
-27.097114317029963
 21
60.300000079349445
 31
0.0
  0
LINE
  5
44
100
AcDbEntity
  8
0
  6
CONTINUOUS
 62
               7
100
AcDbLine
 10
-27.631634888554913
 20
60.300000079349445
 30
0.0
 11
-27.428616793536577
 21
60.300000079349445
 31
0.0
  0
LINE
  5
45
100
AcDbEntity
  8
0
  6
CONTINUOUS
 62
               7
100
AcDbLine
 10
-27.699999999999989
 20
60.300000079349445
 30
0.0
 11
-27.631634888554913
 21
60.300000079349445
 31
0.0
  0
LINE
  5
46
100
AcDbEntity
  8
0
  6
CONTINUOUS
 62
               7
100
AcDbLine
 10
-18.768365111445064
 20
60.300000079349445
 30
0.0
 11
-18.699999999999989
 21
60.300000079349445
 31
0.0
  0
LINE
  5
47
100
AcDbEntity
  8
0
  6
CONTINUOUS
 62
               7
100
AcDbLine
 10
-18.9713832064634
 20
60.300000079349445
 30
0.0
 11
-18.768365111445064
 21
60.300000079349445
 31
0.0
  0
LINE
  5
48
100
AcDbEntity
  8
0
  6
CONTINUOUS
 62
               7
100
AcDbLine
 10
-19.302885682970015
 20
60.300000079349445
 30
0.0
 11
-18.9713832064634
 21
60.300000079349445
 31
0.0
  0
LINE
  5
49
100
AcDbEntity
  8
0
  6
CONTINUOUS
 62
               7
100
AcDbLine
 10
-19.752800005964588
 20
60.300000079349445
 30
0.0
 11
-19.302885682970015
 21
60.300000079349445
 31
0.0
  0
LINE
  5
4A
100
AcDbEntity
  8
0
  6
CONTINUOUS
 62
               7
100
AcDbLine
 10
-20.307455756410548
 20
60.300000079349445
 30
0.0
 11
-19.752800005964588
 21
60.300000079349445
 31
0.0
  0
LINE
  5
4B
100
AcDbEntity
  8
0
  6
CONTINUOUS
 62
               7
100
AcDbLine
 10
-20.949999999999989
 20
60.300000079349445
 30
0.0
 11
-20.307455756410548
 21
60.300000079349445
 31
0.0
  0
LINE
  5
4C
100
AcDbEntity
  8
0
  6
CONTINUOUS
 62
               7
100
AcDbLine
 10
-21.660909355034477
 20
60.300000079349445
 30
0.0
 11
-20.949999999999989
 21
60.300000079349445
 31
0.0
  0
LINE
  5
4D
100
AcDbEntity
  8
0
  6
CONTINUOUS
 62
               7
100
AcDbLine
 10
-22.418583200498801
 20
60.300000079349445
 30
0.0
 11
-21.660909355034477
 21
60.300000079349445
 31
0.0
  0
LINE
  5
4E
100
AcDbEntity
  8
0
  6
CONTINUOUS
 62
               7
100
AcDbLine
 10
-19.0
 20
60.000000079349405
 30
0.0
 11
-18.699999999999989
 21
60.300000079349445
 31
0.0
  0
LINE
  5
4F
100
AcDbEntity
  8
0
  6
CONTINUOUS
 62
               7
100
AcDbLine
 10
-27.699999999999989
 20
60.300000079349445
 30
0.0
 11
-27.399999999999977
 21
60.000000079349405
 31
0.0
  0
LINE
  5
50
100
AcDbEntity
  8
0
  6
CONTINUOUS
 62
               7
100
AcDbLine
 10
-26.117190429163088
 20
68.000000079349434
 30
0.0
 11
-18.199999999999989
 21
68.000000079349434
 31
0.0
  0
LINE
  5
51
100
AcDbEntity
  8
0
  6
CONTINUOUS
 62
               7
100
AcDbLine
 10
-28.099999999999994
 20
60.000000079349405
 30
0.0
 11
-18.299999999999983
 21
60.000000079349405
 31
0.0
  0
LINE
  5
52
100
AcDbEntity
  8
0
  6
CONTINUOUS
 62
               7
100
AcDbLine
 10
-28.200000000000045
 20
1.0
 30
0.0
 11
-28.200000000000045
 21
67.5
 31
0.0
  0
LINE
  5
53
100
AcDbEntity
  8
0
  6
CONTINUOUS
 62
               7
100
AcDbLine
 10
-6.0000000000000284
 20
1.0
 30
0.0
 11
-28.200000000000045
 21
1.0
 31
0.0
  0
LINE
  5
54
100
AcDbEntity
  8
0
  6
CONTINUOUS
 62
               7
100
AcDbLine
 10
-6.0000000000000284
 20
59.5
 30
0.0
 11
-18.200000000000017
 21
59.5
 31
0.0
  0
CIRCLE
  5
55
100
AcDbEntity
  8
0
  6
CONTINUOUS
 62
               2
100
AcDbCircle
 10
-10.100000000000051
 20
48.149999982500049
 30
0.0
 40
2.5
  0
CIRCLE
  5
56
100
AcDbEntity
  8
0
  6
CONTINUOUS
 62
               7
100
AcDbCircle
 10
-10.100000000000051
 20
48.149999982500049
 30
0.0
 40
2.1000000000000001
  0
CIRCLE
  5
57
100
AcDbEntity
  8
0
  6
CONTINUOUS
 62
               2
100
AcDbCircle
 10
-10.100000000000051
 20
33.25
 30
0.0
 40
2.5
  0
CIRCLE
  5
58
100
AcDbEntity
  8
0
  6
CONTINUOUS
 62
               7
100
AcDbCircle
 10
-10.100000000000051
 20
33.25
 30
0.0
 40
2.1000000000000001
  0
CIRCLE
  5
59
100
AcDbEntity
  8
0
  6
CONTINUOUS
 62
               2
100
AcDbCircle
 10
-10.100000000000051
 20
11.850000017499951
 30
0.0
 40
2.5
  0
CIRCLE
  5
5A
100
AcDbEntity
  8
0
  6
CONTINUOUS
 62
               7
100
AcDbCircle
 10
-10.100000000000051
 20
11.850000017499951
 30
0.0
 40
2.1000000000000001
  0
LINE
  5
5B
100
AcDbEntity
  8
0
  6
CONTINUOUS
 62
               7
100
AcDbLine
 10
-18.199999999999989
 20
68.000000079349434
 30
0.0
 11
-18.200000000000074
 21
1.0
 31
0.0
  0
LINE
  5
5C
100
AcDbEntity
  8
0
  6
CONTINUOUS
 62
               7
100
AcDbLine
 10
-6.0000000000000284
 20
59.5
 30
0.0
 11
-6.0000000000000284
 21
1.0
 31
0.0
  0
LINE
  5
5D
100
AcDbEntity
  8
0
  6
CONTINUOUS
 62
               7
100
AcDbLine
 10
-28.200000000000045
 20
15.0
 30
0.0
 11
-18.200000000000045
 21
15.0
 31
0.0
  0
LINE
  5
5E
100
AcDbEntity
  8
0
  6
CONTINUOUS
 62
               7
100
AcDbLine
 10
-11.350000000000023
 20
62.719220935761129
 30
0.0
 11
-16.850000000000023
 21
62.719220935761129
 31
0.0
  0
LINE
  5
5F
100
AcDbEntity
  8
0
  6
CONTINUOUS
 62
               7
100
AcDbLine
 10
-10.850000000000023
 20
62.219220935761129
 30
0.0
 11
-11.350000000000023
 21
62.719220935761129
 31
0.0
  0
LINE
  5
60
100
AcDbEntity
  8
0
  6
CONTINUOUS
 62
               7
100
AcDbLine
 10
-17.350000000000023
 20
62.219220935761129
 30
0.0
 11
-16.850000000000023
 21
62.719220935761129
 31
0.0
  0
LINE
  5
61
100
AcDbEntity
  8
0
  6
CONTINUOUS
 62
               7
100
AcDbLine
 10
-17.350000000000023
 20
62.219220935761129
 30
0.0
 11
-10.850000000000023
 21
62.219220935761129
 31
0.0
  0
LINE
  5
62
100
AcDbEntity
  8
0
  6
CONTINUOUS
 62
               7
100
AcDbLine
 10
-17.350000000000023
 20
59.51922093576114
 30
0.0
 11
-17.350000000000023
 21
62.219220935761129
 31
0.0
  0
LINE
  5
63
100
AcDbEntity
  8
0
  6
CONTINUOUS
 62
               7
100
AcDbLine
 10
-10.850000000000023
 20
59.51922093576114
 30
0.0
 11
-10.850000000000023
 21
62.219220935761129
 31
0.0
  0
LINE
  5
64
100
AcDbEntity
  8
0
  6
CONTINUOUS
 62
               7
100
AcDbLine
 10
-27.699999999999989
 20
66.500000079349462
 30
0.0
 11
-18.699999999999989
 21
66.500000079349462
 31
0.0
  0
ARC
  5
65
100
AcDbEntity
  8
0
  6
CONTINUOUS
 62
               7
100
AcDbCircle
 10
-20.22939388556847
 20
66.493899955554923
 30
0.0
 40
1.5070470524593949
100
AcDbArc
 50
0.2319186396856632
 51
92.031213614521704
  0
ARC
  5
66
100
AcDbEntity
  8
0
  6
CONTINUOUS
 62
               7
100
AcDbCircle
 10
-26.199999999999989
 20
66.500000079349434
 30
0.0
 40
1.5
100
AcDbArc
 50
163.24116022025532
 51
179.99999999999918
  0
ARC
  5
67
100
AcDbEntity
  8
0
  6
CONTINUOUS
 62
               7
100
AcDbCircle
 10
-26.170606114431507
 20
66.493899955554923
 30
0.0
 40
1.5070470524593949
100
AcDbArc
 50
87.968786385478168
 51
179.7680813603142
  0
LINE
  5
68
100
AcDbEntity
  8
0
  6
CONTINUOUS
 62
               7
100
AcDbLine
 10
-27.613064529693474
 20
67.000000079349391
 30
0.0
 11
-27.635594251934492
 21
66.932743800671986
 31
0.0
  0
LINE
  5
69
100
AcDbEntity
  8
0
  6
CONTINUOUS
 62
               7
100
AcDbLine
 10
-27.613064529693446
 20
67.000000079349448
 30
0.0
 11
-27.590131909555254
 21
67.000000079349448
 31
0.0
  0
LINE
  5
6A
100
AcDbEntity
  8
0
  6
CONTINUOUS
 62
               7
100
AcDbLine
 10
-27.613064529693446
 20
67.000000079349448
 30
0.0
 11
-27.614213562373095
 21
67.000000079349448
 31
0.0
  0
LINE
  5
6B
100
AcDbEntity
  8
0
  6
CONTINUOUS
 62
             200
100
AcDbLine
 10
0.0
 20
-1.6999999999999886
 30
0.0
 11
0.0
 21
3.3000000000000114
 31
0.0
  0
LINE
  5
6C
100
AcDbEntity
  8
0
  6
CONTINUOUS
 62
             200
100
AcDbLine
 10
-7.7000000000000171
 20
19.0
 30
0.0
 11
-0.4512971541956006
 21
19.0
 31
0.0
  0
LINE
  5
6D
100
AcDbEntity
  8
0
  6
CONTINUOUS
 62
             200
100
AcDbLine
 10
-7.7000000000000171
 20
6.0
 30
0.0
 11
-0.4512971541956006
 21
6.0
 31
0.0
  0
LINE
  5
6E
100
AcDbEntity
  8
0
  6
CONTINUOUS
 62
               4
100
AcDbLine
 10
-2.0500000000000114
 20
8.25
 30
0.0
 11
-1.8000000000000114
 21
8.0
 31
0.0
  0
LINE
  5
6F
100
AcDbEntity
  8
0
  6
CONTINUOUS
 62
               4
100
AcDbLine
 10
-2.0500000000000114
 20
3.75
 30
0.0
 11
-1.8000000000000114
 21
4.0
 31
0.0
  0
LINE
  5
70
100
AcDbEntity
  8
0
  6
CONTINUOUS
 62
               4
100
AcDbLine
 10
-2.0500000000000114
 20
8.25
 30
0.0
 11
-2.0500000000000114
 21
3.75
 31
0.0
  0
LINE
  5
71
100
AcDbEntity
  8
0
  6
CONTINUOUS
 62
               4
100
AcDbLine
 10
-1.8000000000000114
 20
8.0
 30
0.0
 11
-1.8000000000000114
 21
4.0
 31
0.0
  0
LINE
  5
72
100
AcDbEntity
  8
0
  6
CONTINUOUS
 62
               4
100
AcDbLine
 10
-2.0500000000000114
 20
8.25
 30
0.0
 11
-4.4000000000000057
 21
8.25
 31
0.0
  0
LINE
  5
73
100
AcDbEntity
  8
0
  6
CONTINUOUS
 62
               4
100
AcDbLine
 10
-2.0500000000000114
 20
3.75
 30
0.0
 11
-4.4000000000000057
 21
3.75
 31
0.0
  0
LINE
  5
74
100
AcDbEntity
  8
0
  6
CONTINUOUS
 62
               4
100
AcDbLine
 10
-2.0500000000000114
 20
16.75
 30
0.0
 11
-4.4000000000000057
 21
16.75
 31
0.0
  0
LINE
  5
75
100
AcDbEntity
  8
0
  6
CONTINUOUS
 62
               4
100
AcDbLine
 10
-2.0500000000000114
 20
21.25
 30
0.0
 11
-4.4000000000000057
 21
21.25
 31
0.0
  0
LINE
  5
76
100
AcDbEntity
  8
0
  6
CONTINUOUS
 62
               4
100
AcDbLine
 10
-1.8000000000000114
 20
21.0
 30
0.0
 11
-1.8000000000000114
 21
17.0
 31
0.0
  0
LINE
  5
77
100
AcDbEntity
  8
0
  6
CONTINUOUS
 62
               4
100
AcDbLine
 10
-2.0500000000000114
 20
21.25
 30
0.0
 11
-2.0500000000000114
 21
16.75
 31
0.0
  0
LINE
  5
78
100
AcDbEntity
  8
0
  6
CONTINUOUS
 62
               4
100
AcDbLine
 10
-2.0500000000000114
 20
16.75
 30
0.0
 11
-1.8000000000000114
 21
17.0
 31
0.0
  0
LINE
  5
79
100
AcDbEntity
  8
0
  6
CONTINUOUS
 62
               4
100
AcDbLine
 10
-2.0500000000000114
 20
21.25
 30
0.0
 11
-1.8000000000000114
 21
21.0
 31
0.0
  0
LINE
  5
7A
100
AcDbEntity
  8
0
  6
CONTINUOUS
 62
               4
100
AcDbLine
 10
4.0
 20
1.1000000000000227
 30
0.0
 11
4.0
 21
0.5
 31
0.0
  0
LINE
  5
7B
100
AcDbEntity
  8
0
  6
CONTINUOUS
 62
               4
100
AcDbLine
 10
-6.0
 20
1.0
 30
0.0
 11
-6.0
 21
0.5
 31
0.0
  0
LINE
  5
7C
100
AcDbEntity
  8
0
  6
CONTINUOUS
 62
               4
100
AcDbLine
 10
-4.4000000000000057
 20
22.5
 30
0.0
 11
-4.4000000000000057
 21
2.0
 31
0.0
  0
LINE
  5
7D
100
AcDbEntity
  8
0
  6
CONTINUOUS
 62
               4
100
AcDbLine
 10
3.5
 20
0.0
 30
0.0
 11
-5.5
 21
0.0
 31
0.0
  0
LINE
  5
7E
100
AcDbEntity
  8
0
  6
CONTINUOUS
 62
               4
100
AcDbLine
 10
3.5
 20
1.6000000000000227
 30
0.0
 11
-5.9595917942265544
 21
1.6000000000000227
 31
0.0
  0
LINE
  5
7F
100
AcDbEntity
  8
0
  6
CONTINUOUS
 62
               4
100
AcDbLine
 10
-5.5
 20
23.0
 30
0.0
 11
-4.9000000000000057
 21
23.0
 31
0.0
  0
ARC
  5
80
100
AcDbEntity
  8
0
  6
CONTINUOUS
 62
               4
100
AcDbCircle
 10
-5.5
 20
22.5
 30
0.0
 40
0.5
100
AcDbArc
 50
90.0
 51
180.0
  0
ARC
  5
81
100
AcDbEntity
  8
0
  6
CONTINUOUS
 62
               4
100
AcDbCircle
 10
-4.9000000000000057
 20
22.5
 30
0.0
 40
0.5
100
AcDbArc
 50
0.0
 51
90.0
  0
ARC
  5
82
100
AcDbEntity
  8
0
  6
CONTINUOUS
 62
               4
100
AcDbCircle
 10
3.5
 20
1.1000000000000227
 30
0.0
 40
0.5
100
AcDbArc
 50
0.0
 51
90.0
  0
ARC
  5
83
100
AcDbEntity
  8
0
  6
CONTINUOUS
 62
               4
100
AcDbCircle
 10
3.5
 20
0.5
 30
0.0
 40
0.5
100
AcDbArc
 50
270.0
 51
0.0
  0
ARC
  5
84
100
AcDbEntity
  8
0
  6
CONTINUOUS
 62
               4
100
AcDbCircle
 10
-4.0
 20
2.0
 30
0.0
 40
0.4
100
AcDbArc
 50
180.0
 51
270.0
  0
ARC
  5
85
100
AcDbEntity
  8
0
  6
CONTINUOUS
 62
               4
100
AcDbCircle
 10
-5.5
 20
0.5
 30
0.0
 40
0.5
100
AcDbArc
 50
180.0
 51
270.0
  0
LINE
  5
86
100
AcDbEntity
  8
0
  6
CONTINUOUS
 62
               7
100
AcDbLine
 10
-22.600000000000051
 20
68.0
 30
0.0
 11
-22.600000000000051
 21
79.451439140622455
 31
0.0
  0
LINE
  5
87
100
AcDbEntity
  8
0
  6
CONTINUOUS
 62
               7
100
AcDbLine
 10
-18.80000000000004
 20
68.0
 30
0.0
 11
-18.80000000000004
 21
80.121481667314626
 31
0.0
  0
LINE
  5
88
100
AcDbEntity
  8
0
  6
CONTINUOUS
 62
               2
100
AcDbLine
 10
-24.60000000000008
 20
81.098785179205521
 30
0.0
 11
-16.60000000000008
 21
82.509401024873242
 31
0.0
  0
LINE
  5
89
100
AcDbEntity
  8
0
  6
CONTINUOUS
 62
               2
100
AcDbLine
 10
-24.60000000000008
 20
79.098785179205521
 30
0.0
 11
-16.60000000000008
 21
80.509401024873242
 31
0.0
  0
LINE
  5
8A
100
AcDbEntity
  8
0
  6
CONTINUOUS
 62
               7
100
AcDbLine
 10
-21.381607416500145
 20
100.72479420900346
 30
0.0
 11
-22.318471296044862
 21
118.60122195239161
 31
0.0
  0
LINE
  5
8B
100
AcDbEntity
  8
0
  6
CONTINUOUS
 62
               7
100
AcDbLine
 10
-19.381607423950726
 20
98.724794209003463
 30
0.0
 11
-18.339927985839921
 21
118.60122195239161
 31
0.0
  0
LINE
  5
8C
100
AcDbEntity
  8
0
  6
CONTINUOUS
 62
               7
100
AcDbLine
 10
-19.381607421125523
 20
118.60122195239161
 30
0.0
 11
-18.339927985839921
 21
118.60122195239161
 31
0.0
  0
LINE
  5
8D
100
AcDbEntity
  8
0
  6
CONTINUOUS
 62
               7
100
AcDbLine
 10
-21.381607421125523
 20
118.60122195239161
 30
0.0
 11
-19.381607421125523
 21
118.60122195239161
 31
0.0
  0
LINE
  5
8E
100
AcDbEntity
  8
0
  6
CONTINUOUS
 62
               7
100
AcDbLine
 10
-21.951616841063583
 20
111.60122195239161
 30
0.0
 11
-18.706782440821229
 21
111.60122195239161
 31
0.0
  0
LINE
  5
8F
100
AcDbEntity
  8
0
  6
CONTINUOUS
 62
               7
100
AcDbLine
 10
-22.318471296044862
 20
118.60122195239161
 30
0.0
 11
-21.381607421125523
 21
118.60122195239161
 31
0.0
  0
LINE
  5
90
100
AcDbEntity
  8
0
  6
CONTINUOUS
 62
               7
100
AcDbLine
 10
-19.381607421125523
 20
98.724794268608107
 30
0.0
 11
-19.381607421125523
 21
118.60122195239161
 31
0.0
  0
LINE
  5
91
100
AcDbEntity
  8
0
  6
CONTINUOUS
 62
               7
100
AcDbLine
 10
-20.381607421125523
 20
99.724794268608107
 30
0.0
 11
-20.381607421125523
 21
118.60122195239161
 31
0.0
  0
LINE
  5
92
100
AcDbEntity
  8
0
  6
CONTINUOUS
 62
               7
100
AcDbLine
 10
-21.381607421125523
 20
100.72479426860811
 30
0.0
 11
-21.381607421125523
 21
118.60122195239161
 31
0.0
  0
LINE
  5
93
100
AcDbEntity
  8
0
  6
CONTINUOUS
 62
               7
100
AcDbLine
 10
-25.890615118150407
 20
118.3261369764805
 30
0.0
 11
-24.936426234845811
 21
118.67343333363534
 31
0.0
  0
LINE
  5
94
100
AcDbEntity
  8
0
  6
CONTINUOUS
 62
               7
100
AcDbLine
 10
-19.099999976758653
 20
98.443186819553389
 30
0.0
 11
-21.855083478097612
 21
101.19827032089235
 31
0.0
  0
LINE
  5
95
100
AcDbEntity
  8
0
  6
CONTINUOUS
 62
               7
100
AcDbLine
 10
-21.855083491082638
 20
101.19827029960193
 30
0.0
 11
-24.936426226684858
 21
118.67343333603385
 31
0.0
  0
LINE
  5
96
100
AcDbEntity
  8
0
  6
CONTINUOUS
 62
               7
100
AcDbLine
 10
-22.84274273967398
 20
101.04079375697157
 30
0.0
 11
-25.890615118767698
 21
118.32613696904083
 31
0.0
  0
LINE
  5
97
100
AcDbEntity
  8
0
  6
CONTINUOUS
 62
               7
100
AcDbLine
 10
-22.113017832343274
 20
92.699999868869781
 30
0.0
 11
-22.84274273967398
 21
101.04079375697157
 31
0.0
  0
LINE
  5
98
100
AcDbEntity
  8
0
  6
CONTINUOUS
 62
               7
100
AcDbLine
 10
-19.100000000000051
 20
98.434000568913476
 30
0.0
 11
-19.100000000000051
 21
92.699999981554186
 31
0.0
  0
LINE
  5
99
100
AcDbEntity
  8
0
  6
CONTINUOUS
 62
               7
100
AcDbLine
 10
-22.600000000000051
 20
81.451439140622455
 30
0.0
 11
-22.600000000000051
 21
92.699999981554186
 31
0.0
  0
LINE
  5
9A
100
AcDbEntity
  8
0
  6
CONTINUOUS
 62
               7
100
AcDbLine
 10
-18.80000000000004
 20
82.121481667314626
 30
0.0
 11
-18.80000000000004
 21
92.699999981554186
 31
0.0
  0
LINE
  5
9B
100
AcDbEntity
  8
0
  6
CONTINUOUS
 62
               7
100
AcDbLine
 10
-22.599999976758653
 20
92.699999981554186
 30
0.0
 11
-18.80000000000004
 21
92.699999981554186
 31
0.0
  0
LINE
  5
9C
100
AcDbEntity
  8
0
  6
CONTINUOUS
 62
               7
100
AcDbLine
 10
-28.200000000000017
 20
67.5
 30
0.0
 11
-27.299765180270157
 21
67.5
 31
0.0
  0
LINE
  5
9D
100
AcDbEntity
  8
0
  6
CONTINUOUS
 62
               7
100
AcDbLine
 10
-19.10023481972982
 20
67.5
 30
0.0
 11
-18.200000000000045
 21
67.5
 31
0.0
  0
LINE
  5
9E
100
AcDbEntity
  8
0
  6
CONTINUOUS
 62
               2
100
AcDbLine
 10
-14.100000000000023
 20
64.219220935761129
 30
0.0
 11
-14.100000000000023
 21
58.019220948219299
 31
0.0
  0
ENDBLK
  5
9F
100
AcDbEntity
  8
0
100
AcDbBlockEnd
  0
BLOCK
  5
A0
100
AcDbEntity
  8
0
100
AcDbBlockBegin
  2
MV180-05-DA-F-2
 70
               0
 10
0.0
 20
0.0
 30
0.0
  3
MV180-05-DA-F-2
  1

  0
ARC
  5
A1
100
AcDbEntity
  8
0
  6
CONTINUOUS
 62
               7
100
AcDbCircle
 10
-11.599984769515714
 20
15.100000079349371
 30
0.0
 40
0.1
100
AcDbArc
 50
270.00000000000205
 51
270.99999999999989
  0
ARC
  5
A2
100
AcDbEntity
  8
0
  6
CONTINUOUS
 62
               7
100
AcDbCircle
 10
-34.396463290921275
 20
15.100000079349371
 30
0.0
 40
0.1
100
AcDbArc
 50
268.99999999999983
 51
270.0
  0
ARC
  5
A3
100
AcDbEntity
  8
0
  6
CONTINUOUS
 62
               7
100
AcDbCircle
 10
-11.599984769515714
 20
15.100000079349357
 30
0.0
 40
0.1
100
AcDbArc
 50
270.99999999999994
 51
1.0000000000031948
  0
ARC
  5
A4
100
AcDbEntity
  8
0
  6
CONTINUOUS
 62
               7
100
AcDbCircle
 10
-34.396463290921275
 20
15.100000079349371
 30
0.0
 40
0.1
100
AcDbArc
 50
178.99999999999986
 51
268.99999999999983
  0
CIRCLE
  5
A5
100
AcDbEntity
  8
0
  6
CONTINUOUS
 62
               7
100
AcDbCircle
 10
-11.100000000000051
 20
13.200000000000045
 30
0.0
 40
1.2499999999999993
  0
CIRCLE
  5
A6
100
AcDbEntity
  8
0
  6
CONTINUOUS
 62
               7
100
AcDbCircle
 10
-22.000000000000028
 20
2.5000000000000284
 30
0.0
 40
1.2499999999999998
  0
CIRCLE
  5
A7
100
AcDbEntity
  8
0
  6
CONTINUOUS
 62
               7
100
AcDbCircle
 10
-11.100000000000051
 20
13.199999972499981
 30
0.0
 40
1.3500000000000001
  0
CIRCLE
  5
A8
100
AcDbEntity
  8
0
  6
CONTINUOUS
 62
               7
100
AcDbCircle
 10
-22.000000000000028
 20
2.4999999724999782
 30
0.0
 40
1.3499999999999996
  0
LINE
  5
A9
100
AcDbEntity
  8
0
  6
CONTINUOUS
 62
               7
100
AcDbLine
 10
-59.500000000000114
 20
1.0
 30
0.0
 11
-9.5000000000000284
 21
1.0
 31
0.0
  0
LINE
  5
AA
100
AcDbEntity
  8
0
  6
CONTINUOUS
 62
               7
100
AcDbLine
 10
-10.100000000000051
 20
58.900000000000063
 30
0.0
 11
-12.264501379182178
 21
58.900000000000063
 31
0.0
  0
LINE
  5
AB
100
AcDbEntity
  8
0
  6
CONTINUOUS
 62
               7
100
AcDbLine
 10
-10.100000000000051
 20
15.0
 30
0.0
 11
-10.100000000000051
 21
58.900000000000063
 31
0.0
  0
LINE
  5
AC
100
AcDbEntity
  8
0
  6
CONTINUOUS
 62
               7
100
AcDbLine
 10
-12.273440677093703
 20
59.412132034356006
 30
0.0
 11
-9.7121320343560171
 21
59.412132034356006
 31
0.0
  0
LINE
  5
AD
100
AcDbEntity
  8
0
  6
CONTINUOUS
 62
               7
100
AcDbLine
 10
-9.7121320343560171
 20
59.412132034356006
 30
0.0
 11
-9.6500000000000625
 21
59.350000000000051
 31
0.0
  0
LINE
  5
AE
100
AcDbEntity
  8
0
  6
CONTINUOUS
 62
               7
100
AcDbLine
 10
-9.6500000000000625
 20
59.350000000000051
 30
0.0
 11
-10.100000000000051
 21
58.900000000000063
 31
0.0
  0
LINE
  5
AF
100
AcDbEntity
  8
0
  6
CONTINUOUS
 62
               7
100
AcDbLine
 10
-9.6500000000000625
 20
59.350000000000051
 30
0.0
 11
-9.5878679656440795
 21
59.287867965644068
 31
0.0
  0
LINE
  5
B0
100
AcDbEntity
  8
0
  6
CONTINUOUS
 62
               7
100
AcDbLine
 10
-9.5878679656440795
 20
59.287867965644068
 30
0.0
 11
-9.5878679656440795
 21
15.0
 31
0.0
  0
LINE
  5
B1
100
AcDbEntity
  8
0
  6
CONTINUOUS
 62
               7
100
AcDbLine
 10
-9.5000000000000568
 20
59.075735931288023
 30
0.0
 11
-9.5878679656440795
 21
59.287867965644068
 31
0.0
  0
LINE
  5
B2
100
AcDbEntity
  8
0
  6
CONTINUOUS
 62
               7
100
AcDbLine
 10
-12.274974418139124
 20
59.500000000000028
 30
0.0
 11
-9.8000000000000398
 21
59.500000000000028
 31
0.0
  0
LINE
  5
B3
100
AcDbEntity
  8
0
  6
CONTINUOUS
 62
               7
100
AcDbLine
 10
-9.7121320343560171
 20
59.412132034356006
 30
0.0
 11
-9.8000000000000398
 21
59.500000000000028
 31
0.0
  0
LINE
  5
B4
100
AcDbEntity
  8
0
  6
CONTINUOUS
 62
               7
100
AcDbLine
 10
-33.614476382137127
 20
60.000000079349405
 30
0.0
 11
-12.381971678299834
 21
60.000000079349405
 31
0.0
  0
LINE
  5
B5
100
AcDbEntity
  8
0
  6
CONTINUOUS
 62
               7
100
AcDbLine
 10
-12.281986908784205
 20
59.901745319993154
 30
0.0
 11
-11.500000000000057
 21
15.101745319993086
 31
0.0
  0
LINE
  5
B6
100
AcDbEntity
  8
0
  6
CONTINUOUS
 62
               7
100
AcDbLine
 10
-34.496448060436904
 20
15.101745319993086
 30
0.0
 11
-33.714461151652756
 21
59.901745319993154
 31
0.0
  0
LINE
  5
B7
100
AcDbEntity
  8
0
  6
CONTINUOUS
 62
               7
100
AcDbLine
 10
-27.1321699106783
 20
67.000000079349405
 30
0.0
 11
-27.397512407253572
 21
67.000000079349434
 31
0.0
  0
LINE
  5
B8
100
AcDbEntity
  8
0
  6
CONTINUOUS
 62
               7
100
AcDbLine
 10
-27.598935653183588
 20
67.000000079349434
 30
0.0
 11
-27.397512407253572
 21
67.000000079349434
 31
0.0
  0
LINE
  5
B9
100
AcDbEntity
  8
0
  6
CONTINUOUS
 62
               7
100
AcDbLine
 10
-27.598935653183588
 20
67.000000079349434
 30
0.0
 11
-27.864278149758633
 21
67.000000079349405
 31
0.0
  0
LINE
  5
BA
100
AcDbEntity
  8
0
  6
CONTINUOUS
 62
               7
100
AcDbLine
 10
-30.498224030218466
 20
68.000000079349434
 30
0.0
 11
-28.198224030218455
 21
68.000000079349434
 31
0.0
  0
LINE
  5
BB
100
AcDbEntity
  8
0
  6
CONTINUOUS
 62
               7
100
AcDbLine
 10
-28.198224030218455
 20
68.000000079349434
 30
0.0
 11
-27.998224030218466
 21
67.800000079349445
 31
0.0
  0
LINE
  5
BC
100
AcDbEntity
  8
0
  6
CONTINUOUS
 62
               7
100
AcDbLine
 10
-27.998224030218466
 20
67.800000079349445
 30
0.0
 11
-27.998224030218466
 21
67.260217675588365
 31
0.0
  0
LINE
  5
BD
100
AcDbEntity
  8
0
  6
CONTINUOUS
 62
               7
100
AcDbLine
 10
-26.998224030218438
 20
67.000000079349434
 30
0.0
 11
-27.1321699106783
 21
67.000000079349405
 31
0.0
  0
LINE
  5
BE
100
AcDbEntity
  8
0
  6
CONTINUOUS
 62
               7
100
AcDbLine
 10
-26.998224030218466
 20
67.260217675588365
 30
0.0
 11
-26.998224030218438
 21
67.000000079349434
 31
0.0
  0
LINE
  5
BF
100
AcDbEntity
  8
0
  6
CONTINUOUS
 62
               7
100
AcDbLine
 10
-26.998224030218466
 20
67.800000079349445
 30
0.0
 11
-26.998224030218466
 21
67.260217675588365
 31
0.0
  0
LINE
  5
C0
100
AcDbEntity
  8
0
  6
CONTINUOUS
 62
               7
100
AcDbLine
 10
-26.798224030218449
 20
68.000000079349434
 30
0.0
 11
-26.998224030218466
 21
67.800000079349445
 31
0.0
  0
LINE
  5
C1
100
AcDbEntity
  8
0
  6
CONTINUOUS
 62
               7
100
AcDbLine
 10
-26.798224030219018
 20
68.000000079349434
 30
0.0
 11
-24.498224030218466
 21
68.000000079349434
 31
0.0
  0
LINE
  5
C2
100
AcDbEntity
  8
0
  6
CONTINUOUS
 62
               7
100
AcDbLine
 10
-31.998224030218466
 20
60.300000079349445
 30
0.0
 11
-31.698224030218455
 21
60.000000079349405
 31
0.0
  0
LINE
  5
C3
100
AcDbEntity
  8
0
  6
CONTINUOUS
 62
               7
100
AcDbLine
 10
-23.298224030218449
 20
60.000000079349405
 30
0.0
 11
-22.998224030218466
 21
60.300000079349445
 31
0.0
  0
LINE
  5
C4
100
AcDbEntity
  8
0
  6
CONTINUOUS
 62
               7
100
AcDbLine
 10
-31.998224030218466
 20
60.300000079349445
 30
0.0
 11
-31.929858918773391
 21
60.300000079349445
 31
0.0
  0
LINE
  5
C5
100
AcDbEntity
  8
0
  6
CONTINUOUS
 62
               7
100
AcDbLine
 10
-31.929858918773391
 20
60.300000079349445
 30
0.0
 11
-31.726840823755055
 21
60.300000079349445
 31
0.0
  0
LINE
  5
C6
100
AcDbEntity
  8
0
  6
CONTINUOUS
 62
               7
100
AcDbLine
 10
-31.726840823755055
 20
60.300000079349445
 30
0.0
 11
-31.39533834724844
 21
60.300000079349445
 31
0.0
  0
LINE
  5
C7
100
AcDbEntity
  8
0
  6
CONTINUOUS
 62
               7
100
AcDbLine
 10
-31.39533834724844
 20
60.300000079349445
 30
0.0
 11
-30.945424024253867
 21
60.300000079349445
 31
0.0
  0
LINE
  5
C8
100
AcDbEntity
  8
0
  6
CONTINUOUS
 62
               7
100
AcDbLine
 10
-30.945424024253867
 20
60.300000079349445
 30
0.0
 11
-30.390768273807879
 21
60.300000079349445
 31
0.0
  0
LINE
  5
C9
100
AcDbEntity
  8
0
  6
CONTINUOUS
 62
               7
100
AcDbLine
 10
-30.390768273807879
 20
60.300000079349445
 30
0.0
 11
-29.748224030218438
 21
60.300000079349445
 31
0.0
  0
LINE
  5
CA
100
AcDbEntity
  8
0
  6
CONTINUOUS
 62
               7
100
AcDbLine
 10
-29.748224030218438
 20
60.300000079349445
 30
0.0
 11
-29.037314675183978
 21
60.300000079349445
 31
0.0
  0
LINE
  5
CB
100
AcDbEntity
  8
0
  6
CONTINUOUS
 62
               7
100
AcDbLine
 10
-29.037314675183978
 20
60.300000079349445
 30
0.0
 11
-28.279640829719625
 21
60.300000079349445
 31
0.0
  0
LINE
  5
CC
100
AcDbEntity
  8
0
  6
CONTINUOUS
 62
               7
100
AcDbLine
 10
-28.279640829719625
 20
60.300000079349445
 30
0.0
 11
-27.498224030218438
 21
60.300000079349445
 31
0.0
  0
LINE
  5
CD
100
AcDbEntity
  8
0
  6
CONTINUOUS
 62
               7
100
AcDbLine
 10
-27.498224030218438
 20
60.300000079349445
 30
0.0
 11
-26.716807230717251
 21
60.300000079349445
 31
0.0
  0
LINE
  5
CE
100
AcDbEntity
  8
0
  6
CONTINUOUS
 62
               7
100
AcDbLine
 10
-26.716807230717251
 20
60.300000079349445
 30
0.0
 11
-25.959133385252954
 21
60.300000079349445
 31
0.0
  0
LINE
  5
CF
100
AcDbEntity
  8
0
  6
CONTINUOUS
 62
               7
100
AcDbLine
 10
-25.959133385252954
 20
60.300000079349445
 30
0.0
 11
-25.248224030218438
 21
60.300000079349445
 31
0.0
  0
LINE
  5
D0
100
AcDbEntity
  8
0
  6
CONTINUOUS
 62
               7
100
AcDbLine
 10
-25.248224030218438
 20
60.300000079349445
 30
0.0
 11
-24.605679786629025
 21
60.300000079349445
 31
0.0
  0
LINE
  5
D1
100
AcDbEntity
  8
0
  6
CONTINUOUS
 62
               7
100
AcDbLine
 10
-24.605679786629025
 20
60.300000079349445
 30
0.0
 11
-24.051024036183065
 21
60.300000079349445
 31
0.0
  0
LINE
  5
D2
100
AcDbEntity
  8
0
  6
CONTINUOUS
 62
               7
100
AcDbLine
 10
-24.051024036183065
 20
60.300000079349445
 30
0.0
 11
-23.601109713188492
 21
60.300000079349445
 31
0.0
  0
LINE
  5
D3
100
AcDbEntity
  8
0
  6
CONTINUOUS
 62
               7
100
AcDbLine
 10
-23.601109713188492
 20
60.300000079349445
 30
0.0
 11
-23.269607236681878
 21
60.300000079349445
 31
0.0
  0
LINE
  5
D4
100
AcDbEntity
  8
0
  6
CONTINUOUS
 62
               7
100
AcDbLine
 10
-23.269607236681878
 20
60.300000079349445
 30
0.0
 11
-23.066589141663513
 21
60.300000079349445
 31
0.0
  0
LINE
  5
D5
100
AcDbEntity
  8
0
  6
CONTINUOUS
 62
               7
100
AcDbLine
 10
-23.066589141663513
 20
60.30000007934936
 30
0.0
 11
-22.998224030218466
 21
60.30000007934936
 31
0.0
  0
LINE
  5
D6
100
AcDbEntity
  8
0
  6
CONTINUOUS
 62
               7
100
AcDbLine
 10
-27.998224030218466
 20
67.000000079349434
 30
0.0
 11
-27.998224030218466
 21
67.260217675588365
 31
0.0
  0
LINE
  5
D7
100
AcDbEntity
  8
0
  6
CONTINUOUS
 62
               7
100
AcDbLine
 10
-27.864278149758633
 20
67.000000079349405
 30
0.0
 11
-27.998224030218466
 21
67.000000079349434
 31
0.0
  0
LINE
  5
D8
100
AcDbEntity
  8
0
  6
CONTINUOUS
 62
               7
100
AcDbLine
 10
-22.998224030218466
 20
60.30000007934936
 30
0.0
 11
-22.998224030218466
 21
66.53369020928821
 31
0.0
  0
LINE
  5
D9
100
AcDbEntity
  8
0
  6
CONTINUOUS
 62
               7
100
AcDbLine
 10
-31.998224030218466
 20
60.30000007934936
 30
0.0
 11
-31.998224030218466
 21
66.53369020928821
 31
0.0
  0
ARC
  5
DA
100
AcDbEntity
  8
0
  6
CONTINUOUS
 62
               7
100
AcDbCircle
 10
-12.381971678299834
 20
59.900000079349411
 30
0.0
 40
0.1000000000000018
100
AcDbArc
 50
1.0000000000042124
 51
90.000000000000014
  0
ARC
  5
DB
100
AcDbEntity
  8
0
  6
CONTINUOUS
 62
               7
100
AcDbCircle
 10
-33.614476382137127
 20
59.900000079349411
 30
0.0
 40
0.1
100
AcDbArc
 50
90.0
 51
178.99999999999579
  0
ARC
  5
DC
100
AcDbEntity
  8
0
  6
CONTINUOUS
 62
               7
100
AcDbCircle
 10
-30.498224030218466
 20
66.500000079349434
 30
0.0
 40
1.5
100
AcDbArc
 50
90.0
 51
178.71302360965319
  0
ARC
  5
DD
100
AcDbEntity
  8
0
  6
CONTINUOUS
 62
               7
100
AcDbCircle
 10
-24.498224030218438
 20
66.500000079349434
 30
0.0
 40
1.5
100
AcDbArc
 50
1.2869763903468026
 51
89.999999999999972
  0
LINE
  5
DE
100
AcDbEntity
  8
0
  6
CONTINUOUS
 62
               7
100
AcDbLine
 10
-9.5000000000000568
 20
59.075735931288023
 30
0.0
 11
-9.5000000000000568
 21
1.0
 31
0.0
  0
LINE
  5
DF
100
AcDbEntity
  8
0
  6
CONTINUOUS
 62
               7
100
AcDbLine
 10
-59.500000000000114
 20
15.0
 30
0.0
 11
-9.5000000000000284
 21
15.0
 31
0.0
  0
LINE
  5
E0
100
AcDbEntity
  8
0
  6
CONTINUOUS
 62
               7
100
AcDbLine
 10
-18.750000000000028
 20
62.200000000000017
 30
0.0
 11
-12.250000000000028
 21
62.200000000000017
 31
0.0
  0
LINE
  5
E1
100
AcDbEntity
  8
0
  6
CONTINUOUS
 62
               7
100
AcDbLine
 10
-18.750000000000028
 20
62.200000000000017
 30
0.0
 11
-18.250000000000028
 21
62.700000000000031
 31
0.0
  0
LINE
  5
E2
100
AcDbEntity
  8
0
  6
CONTINUOUS
 62
               7
100
AcDbLine
 10
-12.250000000000028
 20
62.200000000000017
 30
0.0
 11
-12.750000000000028
 21
62.700000000000031
 31
0.0
  0
LINE
  5
E3
100
AcDbEntity
  8
0
  6
CONTINUOUS
 62
               7
100
AcDbLine
 10
-12.750000000000028
 20
62.700000000000031
 30
0.0
 11
-18.250000000000028
 21
62.700000000000031
 31
0.0
  0
LINE
  5
E4
100
AcDbEntity
  8
0
  6
CONTINUOUS
 62
               7
100
AcDbLine
 10
-18.750000000000028
 20
60.000000079349405
 30
0.0
 11
-18.750000000000028
 21
62.200000000000017
 31
0.0
  0
LINE
  5
E5
100
AcDbEntity
  8
0
  6
CONTINUOUS
 62
               7
100
AcDbLine
 10
-12.250000000000028
 20
59.500000000000028
 30
0.0
 11
-12.250000000000028
 21
62.200000000000017
 31
0.0
  0
LINE
  5
E6
100
AcDbEntity
  8
0
  6
CONTINUOUS
 62
               7
100
AcDbLine
 10
-31.998224030218466
 20
66.53369020928821
 30
0.0
 11
-22.998224030218466
 21
66.53369020928821
 31
0.0
  0
LINE
  5
E7
100
AcDbEntity
  8
0
  6
CONTINUOUS
 62
               7
100
AcDbLine
 10
-22.634428877022486
 20
3.1344288495224646
 30
0.0
 11
-21.363603896932119
 21
1.8636038694320973
 31
0.0
  0
LINE
  5
E8
100
AcDbEntity
  8
0
  6
CONTINUOUS
 62
               7
100
AcDbLine
 10
-21.363603896932148
 20
3.1363960755678875
 30
0.0
 11
-22.634428877022515
 21
1.8655710954775202
 31
0.0
  0
LINE
  5
E9
100
AcDbEntity
  8
0
  6
CONTINUOUS
 62
               7
100
AcDbLine
 10
-11.734428877022566
 20
13.834428849522467
 30
0.0
 11
-10.46360389693217
 21
12.563603869432086
 31
0.0
  0
LINE
  5
EA
100
AcDbEntity
  8
0
  6
CONTINUOUS
 62
               7
100
AcDbLine
 10
-10.463603896932199
 20
13.836396075567876
 30
0.0
 11
-11.734428877022538
 21
12.565571095477509
 31
0.0
  0
ARC
  5
EB
100
AcDbEntity
  8
0
  6
CONTINUOUS
 62
               4
100
AcDbCircle
 10
4.0
 20
1.1000000000000227
 30
0.0
 40
0.5
100
AcDbArc
 50
0.0
 51
90.0
  0
ARC
  5
EC
100
AcDbEntity
  8
0
  6
CONTINUOUS
 62
               4
100
AcDbCircle
 10
4.0
 20
0.5
 30
0.0
 40
0.5
100
AcDbArc
 50
270.0
 51
0.0
  0
ARC
  5
ED
100
AcDbEntity
  8
0
  6
CONTINUOUS
 62
               4
100
AcDbCircle
 10
-20.0
 20
0.5
 30
0.0
 40
0.5
100
AcDbArc
 50
180.0
 51
270.0
  0
LINE
  5
EE
100
AcDbEntity
  8
0
  6
CONTINUOUS
 62
               4
100
AcDbLine
 10
4.5
 20
1.1000000000000227
 30
0.0
 11
4.5
 21
0.5
 31
0.0
  0
LINE
  5
EF
100
AcDbEntity
  8
0
  6
CONTINUOUS
 62
               4
100
AcDbLine
 10
-9.5000000000000568
 20
1.6000000000000227
 30
0.0
 11
4.0
 21
1.6000000000000227
 31
0.0
  0
LINE
  5
F0
100
AcDbEntity
  8
0
  6
CONTINUOUS
 62
               4
100
AcDbLine
 10
-20.0
 20
0.0
 30
0.0
 11
4.0
 21
0.0
 31
0.0
  0
LINE
  5
F1
100
AcDbEntity
  8
0
  6
CONTINUOUS
 62
               4
100
AcDbLine
 10
-20.5
 20
1.0
 30
0.0
 11
-20.5
 21
0.5
 31
0.0
  0
LINE
  5
F2
100
AcDbEntity
  8
0
  6
CONTINUOUS
 62
             200
100
AcDbLine
 10
0.0
 20
-1.6999999999999886
 30
0.0
 11
0.0
 21
3.3000000000000114
 31
0.0
  0
LINE
  5
F3
100
AcDbEntity
  8
0
  6
CONTINUOUS
 62
             200
100
AcDbLine
 10
-10.0
 20
-1.6999999999999886
 30
0.0
 11
-10.0
 21
3.3000000000000114
 31
0.0
  0
LINE
  5
F4
100
AcDbEntity
  8
0
  6
CONTINUOUS
 62
               7
100
AcDbLine
 10
-85.130000000000052
 20
16.600000000000023
 30
0.0
 11
-85.130000000000052
 21
15.800000000000011
 31
0.0
  0
LINE
  5
F5
100
AcDbEntity
  8
0
  6
CONTINUOUS
 62
               7
100
AcDbLine
 10
-80.130000000000052
 20
16.91500000000002
 30
0.0
 11
-80.130000000000052
 21
15.485000000000014
 31
0.0
  0
LINE
  5
F6
100
AcDbEntity
  8
0
  6
CONTINUOUS
 62
               7
100
AcDbLine
 10
-80.130000000000052
 20
15.800000000000011
 30
0.0
 11
-85.130000000000052
 21
15.800000000000011
 31
0.0
  0
LINE
  5
F7
100
AcDbEntity
  8
0
  6
CONTINUOUS
 62
               7
100
AcDbLine
 10
-80.130000000000052
 20
16.600000000000023
 30
0.0
 11
-85.130000000000052
 21
16.600000000000023
 31
0.0
  0
LINE
  5
F8
100
AcDbEntity
  8
0
  6
CONTINUOUS
 62
               7
100
AcDbLine
 10
-75.57000000000005
 20
16.91500000000002
 30
0.0
 11
-80.130000000000052
 21
16.91500000000002
 31
0.0
  0
LINE
  5
F9
100
AcDbEntity
  8
0
  6
CONTINUOUS
 62
               7
100
AcDbLine
 10
-75.317852417586948
 20
15.485000000000014
 30
0.0
 11
-80.130000000000052
 21
15.485000000000014
 31
0.0
  0
LINE
  5
FA
100
AcDbEntity
  8
0
  6
CONTINUOUS
 62
               7
100
AcDbLine
 10
-69.700000000000045
 20
15.485000000000014
 30
0.0
 11
-74.817852417586948
 21
15.485000000000014
 31
0.0
  0
LINE
  5
FB
100
AcDbEntity
  8
0
  6
CONTINUOUS
 62
               7
100
AcDbLine
 10
-69.700000000000045
 20
16.91500000000002
 30
0.0
 11
-75.07000000000005
 21
16.91500000000002
 31
0.0
  0
LINE
  5
FC
100
AcDbEntity
  8
0
  6
CONTINUOUS
 62
               7
100
AcDbLine
 10
-64.60000000000008
 20
18.5
 30
0.0
 11
-64.60000000000008
 21
13.199999999999989
 31
0.0
  0
LINE
  5
FD
100
AcDbEntity
  8
0
  6
CONTINUOUS
 62
               7
100
AcDbLine
 10
-64.700000000000045
 20
18.5
 30
0.0
 11
-68.700000000000045
 21
18.5
 31
0.0
  0
LINE
  5
FE
100
AcDbEntity
  8
0
  6
CONTINUOUS
 62
               7
100
AcDbLine
 10
-68.700000000000045
 20
13.400244132795592
 30
0.0
 11
-68.700000000000045
 21
12.199999999999989
 31
0.0
  0
LINE
  5
FF
100
AcDbEntity
  8
0
  6
CONTINUOUS
 62
               7
100
AcDbLine
 10
-64.700000000000045
 20
13.699999999999989
 30
0.0
 11
-64.700000000000045
 21
18.5
 31
0.0
  0
LINE
  5
100
100
AcDbEntity
  8
0
  6
CONTINUOUS
 62
               7
100
AcDbLine
 10
-64.60000000000008
 20
13.699999999999989
 30
0.0
 11
-69.700000000000045
 21
13.699999999999989
 31
0.0
  0
LINE
  5
101
100
AcDbEntity
  8
0
  6
CONTINUOUS
 62
               7
100
AcDbLine
 10
-68.700000000000045
 20
13.400244132795592
 30
0.0
 11
-67.000000000000057
 21
13.699999999999989
 31
0.0
  0
LINE
  5
102
100
AcDbEntity
  8
0
  6
CONTINUOUS
 62
               7
100
AcDbLine
 10
-69.700000000000045
 20
19.0
 30
0.0
 11
-69.700000000000045
 21
13.699999999999989
 31
0.0
  0
LINE
  5
103
100
AcDbEntity
  8
0
  6
CONTINUOUS
 62
               7
100
AcDbLine
 10
-64.60000000000008
 20
17.800000000000011
 30
0.0
 11
-64.700000000000045
 21
17.800000000000011
 31
0.0
  0
LINE
  5
104
100
AcDbEntity
  8
0
  6
CONTINUOUS
 62
               7
100
AcDbLine
 10
-67.988675134594871
 20
12.199999999999989
 30
0.0
 11
-68.700000000000045
 21
12.199999999999989
 31
0.0
  0
LINE
  5
105
100
AcDbEntity
  8
0
  6
CONTINUOUS
 62
               7
100
AcDbLine
 10
-67.700000000000045
 20
12.699999999999989
 30
0.0
 11
-67.988675134594871
 21
12.199999999999989
 31
0.0
  0
LINE
  5
106
100
AcDbEntity
  8
0
  6
CONTINUOUS
 62
               7
100
AcDbLine
 10
-68.988675134594871
 20
19.0
 30
0.0
 11
-69.700000000000045
 21
19.0
 31
0.0
  0
LINE
  5
107
100
AcDbEntity
  8
0
  6
CONTINUOUS
 62
               7
100
AcDbLine
 10
-68.700000000000045
 20
18.5
 30
0.0
 11
-68.988675134594871
 21
19.0
 31
0.0
  0
LINE
  5
108
100
AcDbEntity
  8
0
  6
CONTINUOUS
 62
               7
100
AcDbLine
 10
-61.166025403784488
 20
12.699999999999989
 30
0.0
 11
-67.700000000000045
 21
12.699999999999989
 31
0.0
  0
LINE
  5
109
100
AcDbEntity
  8
0
  6
CONTINUOUS
 62
               2
100
AcDbLine
 10
-74.641525436878453
 20
14.484999999999985
 30
0.0
 11
-75.246326980708545
 21
17.914999999999992
 31
0.0
  0
LINE
  5
10A
100
AcDbEntity
  8
0
  6
CONTINUOUS
 62
               2
100
AcDbLine
 10
-75.141525436878453
 20
14.484999999999985
 30
0.0
 11
-75.746326980708545
 21
17.914999999999992
 31
0.0
  0
LINE
  5
10B
100
AcDbEntity
  8
0
  6
CONTINUOUS
 62
               7
100
AcDbLine
 10
-60.300000000000011
 20
13.199999999999989
 30
0.0
 11
-61.166025403784488
 21
12.699999999999989
 31
0.0
  0
LINE
  5
10C
100
AcDbEntity
  8
0
  6
CONTINUOUS
 62
               7
100
AcDbLine
 10
-64.599999999833756
 20
13.199999999999989
 30
0.0
 11
-59.500000000000114
 21
13.199999999999989
 31
0.0
  0
LINE
  5
10D
100
AcDbEntity
  8
0
  6
CONTINUOUS
 62
               7
100
AcDbLine
 10
-64.60000000000008
 20
18.5
 30
0.0
 11
-59.500000000000114
 21
18.5
 31
0.0
  0
LINE
  5
10E
100
AcDbEntity
  8
0
  6
CONTINUOUS
 62
               7
100
AcDbLine
 10
-34.499999604001914
 20
15.0
 30
0.0
 11
-34.499999604001914
 21
67.499999999649916
 31
0.0
  0
LINE
  5
10F
100
AcDbEntity
  8
0
  6
CONTINUOUS
 62
               7
100
AcDbLine
 10
-59.500000000000114
 20
1.0
 30
0.0
 11
-59.499999976551976
 21
67.499999999649916
 31
0.0
  0
LINE
  5
110
100
AcDbEntity
  8
0
  6
CONTINUOUS
 62
               2
100
AcDbLine
 10
-45.399999803161705
 20
80.14966924027128
 30
0.0
 11
-37.399999803161705
 21
81.560285085939
 31
0.0
  0
LINE
  5
111
100
AcDbEntity
  8
0
  6
CONTINUOUS
 62
               2
100
AcDbLine
 10
-45.399999803161705
 20
78.14966924027128
 30
0.0
 11
-37.399999803161705
 21
79.560285085939
 31
0.0
  0
LINE
  5
112
100
AcDbEntity
  8
0
  6
CONTINUOUS
 62
               7
100
AcDbLine
 10
-39.36010855906693
 20
100.0755061830007
 30
0.0
 11
-36.309384684394104
 21
117.37702103010656
 31
0.0
  0
LINE
  5
113
100
AcDbEntity
  8
0
  6
CONTINUOUS
 62
               7
100
AcDbLine
 10
-40.344916312079135
 20
100.24915436066766
 30
0.0
 11
-37.263573576476915
 21
117.72431739709958
 31
0.0
  0
LINE
  5
114
100
AcDbEntity
  8
0
  6
CONTINUOUS
 62
               7
100
AcDbLine
 10
-40.818392382036222
 20
99.775678329673838
 30
0.0
 11
-40.818392382036222
 21
117.65210601345734
 31
0.0
  0
LINE
  5
115
100
AcDbEntity
  8
0
  6
CONTINUOUS
 62
               7
100
AcDbLine
 10
-41.818392382036222
 20
98.775678329673838
 30
0.0
 11
-41.818392382036222
 21
117.65210601345734
 31
0.0
  0
LINE
  5
116
100
AcDbEntity
  8
0
  6
CONTINUOUS
 62
               7
100
AcDbLine
 10
-42.818392382036222
 20
97.775678329673838
 30
0.0
 11
-42.818392382036222
 21
117.65210601345734
 31
0.0
  0
LINE
  5
117
100
AcDbEntity
  8
0
  6
CONTINUOUS
 62
               7
100
AcDbLine
 10
-42.818392379210991
 20
97.775678270069193
 30
0.0
 11
-43.860071817321796
 21
117.65210601345734
 31
0.0
  0
LINE
  5
118
100
AcDbEntity
  8
0
  6
CONTINUOUS
 62
               7
100
AcDbLine
 10
-40.818392386661571
 20
99.775678270069193
 30
0.0
 11
-39.881528507116855
 21
117.65210601345734
 31
0.0
  0
LINE
  5
119
100
AcDbEntity
  8
0
  6
CONTINUOUS
 62
               7
100
AcDbLine
 10
-40.248382962098162
 20
110.65210601345734
 30
0.0
 11
-43.493217362340488
 21
110.65210601345734
 31
0.0
  0
LINE
  5
11A
100
AcDbEntity
  8
0
  6
CONTINUOUS
 62
               7
100
AcDbLine
 10
-43.099999826403064
 20
97.49407088061912
 30
0.0
 11
-40.344916325064105
 21
100.24915438195808
 31
0.0
  0
LINE
  5
11B
100
AcDbEntity
  8
0
  6
CONTINUOUS
 62
               7
100
AcDbLine
 10
-40.086981970818442
 20
91.750883929935526
 30
0.0
 11
-39.357257063487708
 21
100.09167781803794
 31
0.0
  0
LINE
  5
11C
100
AcDbEntity
  8
0
  6
CONTINUOUS
 62
               7
100
AcDbLine
 10
-43.099999803161722
 20
97.484884629979206
 30
0.0
 11
-43.099999803161722
 21
91.75088404261993
 31
0.0
  0
LINE
  5
11D
100
AcDbEntity
  8
0
  6
CONTINUOUS
 62
               7
100
AcDbLine
 10
-39.599999803161722
 20
81.17236572838037
 30
0.0
 11
-39.599999803161722
 21
91.75088404261993
 31
0.0
  0
LINE
  5
11E
100
AcDbEntity
  8
0
  6
CONTINUOUS
 62
               7
100
AcDbLine
 10
-43.399999803161677
 20
80.502323201688213
 30
0.0
 11
-43.399999803161677
 21
91.75088404261993
 31
0.0
  0
LINE
  5
11F
100
AcDbEntity
  8
0
  6
CONTINUOUS
 62
               7
100
AcDbLine
 10
-39.599999826403064
 20
91.75088404261993
 30
0.0
 11
-43.399999803161677
 21
91.75088404261993
 31
0.0
  0
LINE
  5
120
100
AcDbEntity
  8
0
  6
CONTINUOUS
 62
               7
100
AcDbLine
 10
-42.818392382036222
 20
117.65210601345734
 30
0.0
 11
-43.860071817321796
 21
117.65210601345734
 31
0.0
  0
LINE
  5
121
100
AcDbEntity
  8
0
  6
CONTINUOUS
 62
               7
100
AcDbLine
 10
-40.818392382036222
 20
117.65210601345734
 30
0.0
 11
-42.818392382036222
 21
117.65210601345734
 31
0.0
  0
LINE
  5
122
100
AcDbEntity
  8
0
  6
CONTINUOUS
 62
               7
100
AcDbLine
 10
-39.881528507116855
 20
117.65210601345734
 30
0.0
 11
-40.818392382036222
 21
117.65210601345734
 31
0.0
  0
LINE
  5
123
100
AcDbEntity
  8
0
  6
CONTINUOUS
 62
               7
100
AcDbLine
 10
-36.30938468501131
 20
117.37702103754623
 30
0.0
 11
-37.263573568315906
 21
117.72431739470107
 31
0.0
  0
LINE
  5
124
100
AcDbEntity
  8
0
  6
CONTINUOUS
 62
               7
100
AcDbLine
 10
-39.599999803161722
 20
67.550884061065744
 30
0.0
 11
-39.599999803161722
 21
79.17236572838037
 31
0.0
  0
LINE
  5
125
100
AcDbEntity
  8
0
  6
CONTINUOUS
 62
               7
100
AcDbLine
 10
-43.399999803161677
 20
67.550884061065744
 30
0.0
 11
-43.399999803161677
 21
78.502323201688213
 31
0.0
  0
LINE
  5
126
100
AcDbEntity
  8
0
  6
CONTINUOUS
 62
               7
100
AcDbLine
 10
-59.499999976551976
 20
67.499999999649916
 30
0.0
 11
-34.499999604001914
 21
67.499999999649916
 31
0.0
  0
CIRCLE
  5
127
100
AcDbEntity
  8
0
  6
CONTINUOUS
 62
               7
100
AcDbCircle
 10
-40.999999790251991
 20
19.499999203049924
 30
0.0
 40
1.6499999999999986
  0
CIRCLE
  5
128
100
AcDbEntity
  8
0
  6
CONTINUOUS
 62
               7
100
AcDbCircle
 10
-52.999999790276945
 20
19.499999203049924
 30
0.0
 40
1.6499999999999986
  0
LINE
  5
129
100
AcDbEntity
  8
0
  6
CONTINUOUS
 62
               7
100
AcDbLine
 10
-59.199999976551965
 20
21.499999999649987
 30
0.0
 11
-34.499999604001914
 21
21.499999999649987
 31
0.0
  0
LINE
  5
12A
100
AcDbEntity
  8
0
  6
CONTINUOUS
 62
               7
100
AcDbLine
 10
-59.399999976551953
 20
21.499999999649958
 30
0.0
 11
-59.499999976551976
 21
21.399999999649964
 31
0.0
  0
LINE
  5
12B
100
AcDbEntity
  8
0
  6
CONTINUOUS
 62
               7
100
AcDbLine
 10
-59.399999976551953
 20
21.499999999649987
 30
0.0
 11
-59.199999976551965
 21
21.499999999649987
 31
0.0
  0
LINE
  5
12C
100
AcDbEntity
  8
0
  6
CONTINUOUS
 62
               7
100
AcDbLine
 10
-59.399999976551953
 20
21.499999999649958
 30
0.0
 11
-59.499999976551976
 21
21.599999999649896
 31
0.0
  0
LINE
  5
12D
100
AcDbEntity
  8
0
  6
CONTINUOUS
 62
               7
100
AcDbLine
 10
-59.423606570349989
 20
21.499999999649987
 30
0.0
 11
-59.423606622383318
 21
21.476393353818594
 31
0.0
  0
LINE
  5
12E
100
AcDbEntity
  8
0
  6
CONTINUOUS
 62
               7
100
AcDbLine
 10
-59.399999976551953
 20
21.499999999649958
 30
0.0
 11
-59.423606570349989
 21
21.499999999649987
 31
0.0
  0
LINE
  5
12F
100
AcDbEntity
  8
0
  6
CONTINUOUS
 62
               2
100
AcDbLine
 10
-15.500000000000028
 20
64.200000000000031
 30
0.0
 11
-15.500000000000028
 21
58.500000059604645
 31
0.0
  0
ENDBLK
  5
130
100
AcDbEntity
  8
0
100
AcDbBlockEnd
  0
BLOCK
  5
131
100
AcDbEntity
  8
0
100
AcDbBlockBegin
  2
MV180-05-DA-F-3
 70
               0
 10
0.0
 20
0.0
 30
0.0
  3
MV180-05-DA-F-3
  1

  0
LINE
  5
132
100
AcDbEntity
  8
0
  6
CONTINUOUS
 62
               7
100
AcDbLine
 10
37.243223598993623
 20
58.799999972500046
 30
0.0
 11
38.356776471559627
 21
58.799999972500046
 31
0.0
  0
LINE
  5
133
100
AcDbEntity
  8
0
  6
CONTINUOUS
 62
               7
100
AcDbLine
 10
36.458359248776773
 20
59.399999972500041
 30
0.0
 11
39.141640821776477
 21
59.399999972500041
 31
0.0
  0
LINE
  5
134
100
AcDbEntity
  8
0
  6
CONTINUOUS
 62
               7
100
AcDbLine
 10
36.200000035276574
 20
58.799999972500075
 30
0.0
 11
37.243223598993623
 21
58.799999972500046
 31
0.0
  0
LINE
  5
135
100
AcDbEntity
  8
0
  6
CONTINUOUS
 62
               7
100
AcDbLine
 10
36.200000035276574
 20
58.799999972500075
 30
0.0
 11
36.200000035276574
 21
59.499999945000013
 31
0.0
  0
LINE
  5
136
100
AcDbEntity
  8
0
  6
CONTINUOUS
 62
               7
100
AcDbLine
 10
38.356776471559627
 20
58.799999972500046
 30
0.0
 11
39.500000035276585
 21
58.799999972500075
 31
0.0
  0
LINE
  5
137
100
AcDbEntity
  8
0
  6
CONTINUOUS
 62
               7
100
AcDbLine
 10
37.799999999999997
 20
1.7000000000000171
 30
0.0
 11
39.500000000000014
 21
1.7000000000000455
 31
0.0
  0
LINE
  5
138
100
AcDbEntity
  8
0
  6
CONTINUOUS
 62
               7
100
AcDbLine
 10
36.200000000000003
 20
1.7000000000000455
 30
0.0
 11
37.799999999999997
 21
1.7000000000000171
 31
0.0
  0
LINE
  5
139
100
AcDbEntity
  8
0
  6
CONTINUOUS
 62
               7
100
AcDbLine
 10
36.200000000000003
 20
1.7000000000000455
 30
0.0
 11
36.200000000000003
 21
1.0
 31
0.0
  0
LINE
  5
13A
100
AcDbEntity
  8
0
  6
CONTINUOUS
 62
               7
100
AcDbLine
 10
39.500000000000014
 20
51.00000002750005
 30
0.0
 11
23.500000000000014
 21
51.000000027500079
 31
0.0
  0
LINE
  5
13B
100
AcDbEntity
  8
0
  6
CONTINUOUS
 62
               7
100
AcDbLine
 10
39.500000000000014
 20
50.900000027500084
 30
0.0
 11
39.5000000176383
 21
50.900395902517971
 31
0.0
  0
LINE
  5
13C
100
AcDbEntity
  8
0
  6
CONTINUOUS
 62
               7
100
AcDbLine
 10
39.500000000000014
 20
9.5000000275001071
 30
0.0
 11
23.500000000000014
 21
9.5000000275001071
 31
0.0
  0
LINE
  5
13D
100
AcDbEntity
  8
0
  6
CONTINUOUS
 62
               7
100
AcDbLine
 10
38.499999999999986
 20
29.19999997249991
 30
0.0
 11
39.500000000000014
 21
29.19999997249991
 31
0.0
  0
LINE
  5
13E
100
AcDbEntity
  8
0
  6
CONTINUOUS
 62
               7
100
AcDbLine
 10
38.499999999999986
 20
29.19999997249991
 30
0.0
 11
38.500000000000014
 21
25.799992326630672
 31
0.0
  0
LINE
  5
13F
100
AcDbEntity
  8
0
  6
CONTINUOUS
 62
               7
100
AcDbLine
 10
38.500000000000014
 20
25.799992326630672
 30
0.0
 11
39.500000000000014
 21
25.799992326630672
 31
0.0
  0
LINE
  5
140
100
AcDbEntity
  8
0
  6
CONTINUOUS
 62
               7
100
AcDbLine
 10
38.500000000000014
 20
25.803498913800894
 30
0.0
 11
39.500000000000014
 21
25.803498913800894
 31
0.0
  0
LINE
  5
141
100
AcDbEntity
  8
0
  6
CONTINUOUS
 62
               7
100
AcDbLine
 10
39.141640786499849
 20
1.0999999999999943
 30
0.0
 11
36.458359213500145
 21
1.0999999999999943
 31
0.0
  0
LINE
  5
142
100
AcDbEntity
  8
0
  6
CONTINUOUS
 62
               7
100
AcDbLine
 10
39.100000000000009
 20
26.087780285402488
 30
0.0
 11
39.100000000000009
 21
28.771061858402192
 31
0.0
  0
ARC
  5
143
100
AcDbEntity
  8
0
  6
CONTINUOUS
 62
               7
100
AcDbCircle
 10
37.800000035276625
 20
58.799999972500046
 30
0.0
 40
1.6000000000000001
100
AcDbArc
 50
0.0000000000002385
 51
16.601549599020149
  0
ARC
  5
144
100
AcDbEntity
  8
0
  6
CONTINUOUS
 62
               7
100
AcDbCircle
 10
37.800000035276625
 20
58.799999972500046
 30
0.0
 40
1.6000000000000001
100
AcDbArc
 50
163.39845040097984
 51
179.99999999999974
  0
ARC
  5
145
100
AcDbEntity
  8
0
  6
CONTINUOUS
 62
               7
100
AcDbCircle
 10
36.458359248776773
 20
59.199999972500024
 30
0.0
 40
0.2
100
AcDbArc
 50
90.0
 51
163.39845040097887
  0
ARC
  5
146
100
AcDbEntity
  8
0
  6
CONTINUOUS
 62
               7
100
AcDbCircle
 10
39.141640821776477
 20
59.199999972500024
 30
0.0
 40
0.2
100
AcDbArc
 50
16.601549599021421
 51
90.0
  0
ARC
  5
147
100
AcDbEntity
  8
0
  6
CONTINUOUS
 62
               7
100
AcDbCircle
 10
37.799999999999997
 20
1.7000000000000171
 30
0.0
 40
1.6000000000000001
100
AcDbArc
 50
180.00000000000065
 51
196.6015495990205
  0
ARC
  5
148
100
AcDbEntity
  8
0
  6
CONTINUOUS
 62
               7
100
AcDbCircle
 10
37.799999999999997
 20
1.7000000000000171
 30
0.0
 40
1.6000000000000001
100
AcDbArc
 50
343.39845040097947
 51
359.99999999999932
  0
ARC
  5
149
100
AcDbEntity
  8
0
  6
CONTINUOUS
 62
               7
100
AcDbCircle
 10
38.499999999999986
 20
27.42942107190234
 30
0.0
 40
1.6000000000000001
100
AcDbArc
 50
73.398450400980053
 51
90.0
  0
ARC
  5
14A
100
AcDbEntity
  8
0
  6
CONTINUOUS
 62
               7
100
AcDbCircle
 10
38.499999999999986
 20
27.42942107190234
 30
0.0
 40
1.6000000000000001
100
AcDbArc
 50
270.0
 51
286.60154959902007
  0
ARC
  5
14B
100
AcDbEntity
  8
0
  6
CONTINUOUS
 62
               7
100
AcDbCircle
 10
39.141640786499877
 20
1.3000000000000114
 30
0.0
 40
0.2
100
AcDbArc
 50
270.0
 51
343.39845040097975
  0
ARC
  5
14C
100
AcDbEntity
  8
0
  6
CONTINUOUS
 62
               7
100
AcDbCircle
 10
36.458359213500145
 20
1.3000000000000114
 30
0.0
 40
0.2
100
AcDbArc
 50
196.60154959901993
 51
270.0
  0
ARC
  5
14D
100
AcDbEntity
  8
0
  6
CONTINUOUS
 62
               7
100
AcDbCircle
 10
38.899999999999991
 20
26.087780285402488
 30
0.0
 40
0.2
100
AcDbArc
 50
286.60154959902036
 51
0.0
  0
ARC
  5
14E
100
AcDbEntity
  8
0
  6
CONTINUOUS
 62
               7
100
AcDbCircle
 10
38.899999999999991
 20
28.771061858402192
 30
0.0
 40
0.2
100
AcDbArc
 50
0.0
 51
73.398450400979954
  0
LINE
  5
14F
100
AcDbEntity
  8
0
  6
CONTINUOUS
 62
               7
100
AcDbLine
 10
33.714461151652714
 20
59.901745319993154
 30
0.0
 11
33.721473642777809
 21
59.499999972500007
 31
0.0
  0
LINE
  5
150
100
AcDbEntity
  8
0
  6
CONTINUOUS
 62
               7
100
AcDbLine
 10
27.864278149758562
 20
67.000000079349405
 30
0.0
 11
27.59893565318346
 21
67.000000079349434
 31
0.0
  0
LINE
  5
151
100
AcDbEntity
  8
0
  6
CONTINUOUS
 62
               7
100
AcDbLine
 10
27.397512407253728
 20
67.000000079349434
 30
0.0
 11
27.59893565318346
 21
67.000000079349434
 31
0.0
  0
LINE
  5
152
100
AcDbEntity
  8
0
  6
CONTINUOUS
 62
               7
100
AcDbLine
 10
27.397512407253728
 20
67.000000079349434
 30
0.0
 11
27.132169910678229
 21
67.000000079349405
 31
0.0
  0
LINE
  5
153
100
AcDbEntity
  8
0
  6
CONTINUOUS
 62
               7
100
AcDbLine
 10
24.498224030218424
 20
68.000000079349434
 30
0.0
 11
26.798224030218407
 21
68.000000079349434
 31
0.0
  0
LINE
  5
154
100
AcDbEntity
  8
0
  6
CONTINUOUS
 62
               7
100
AcDbLine
 10
26.998224030218424
 20
67.800000079349445
 30
0.0
 11
26.798224030218407
 21
68.000000079349434
 31
0.0
  0
LINE
  5
155
100
AcDbEntity
  8
0
  6
CONTINUOUS
 62
               7
100
AcDbLine
 10
26.998224030218424
 20
67.260217675588336
 30
0.0
 11
26.998224030218424
 21
67.800000079349445
 31
0.0
  0
LINE
  5
156
100
AcDbEntity
  8
0
  6
CONTINUOUS
 62
               7
100
AcDbLine
 10
27.998224030218424
 20
67.260217675588137
 30
0.0
 11
27.998224030218424
 21
67.800000079349445
 31
0.0
  0
LINE
  5
157
100
AcDbEntity
  8
0
  6
CONTINUOUS
 62
               7
100
AcDbLine
 10
27.998224030218424
 20
67.800000079349445
 30
0.0
 11
28.198224030218412
 21
68.000000079349434
 31
0.0
  0
LINE
  5
158
100
AcDbEntity
  8
0
  6
CONTINUOUS
 62
               7
100
AcDbLine
 10
28.198224030218412
 20
68.000000079349434
 30
0.0
 11
30.498224030218424
 21
68.000000079349434
 31
0.0
  0
LINE
  5
159
100
AcDbEntity
  8
0
  6
CONTINUOUS
 62
               7
100
AcDbLine
 10
27.998224030218424
 20
67.000000079349434
 30
0.0
 11
27.864278149758562
 21
67.000000079349405
 31
0.0
  0
LINE
  5
15A
100
AcDbEntity
  8
0
  6
CONTINUOUS
 62
               7
100
AcDbLine
 10
27.998224030218424
 20
67.260217675588137
 30
0.0
 11
27.998224030218424
 21
67.000000079349434
 31
0.0
  0
LINE
  5
15B
100
AcDbEntity
  8
0
  6
CONTINUOUS
 62
               7
100
AcDbLine
 10
22.998224030218481
 20
60.30000007934936
 30
0.0
 11
23.298224030218407
 21
60.000000079349405
 31
0.0
  0
LINE
  5
15C
100
AcDbEntity
  8
0
  6
CONTINUOUS
 62
               7
100
AcDbLine
 10
31.698224030218412
 20
60.000000079349405
 30
0.0
 11
31.998224030218424
 21
60.300000079349445
 31
0.0
  0
LINE
  5
15D
100
AcDbEntity
  8
0
  6
CONTINUOUS
 62
               7
100
AcDbLine
 10
23.066589141663471
 20
60.300000079349445
 30
0.0
 11
23.269607236681807
 21
60.300000079349445
 31
0.0
  0
LINE
  5
15E
100
AcDbEntity
  8
0
  6
CONTINUOUS
 62
               7
100
AcDbLine
 10
23.269607236681807
 20
60.300000079349445
 30
0.0
 11
23.601109713188421
 21
60.300000079349445
 31
0.0
  0
LINE
  5
15F
100
AcDbEntity
  8
0
  6
CONTINUOUS
 62
               7
100
AcDbLine
 10
23.601109713188421
 20
60.300000079349445
 30
0.0
 11
24.051024036182994
 21
60.300000079349445
 31
0.0
  0
LINE
  5
160
100
AcDbEntity
  8
0
  6
CONTINUOUS
 62
               7
100
AcDbLine
 10
24.051024036182994
 20
60.300000079349445
 30
0.0
 11
24.605679786628983
 21
60.300000079349445
 31
0.0
  0
LINE
  5
161
100
AcDbEntity
  8
0
  6
CONTINUOUS
 62
               7
100
AcDbLine
 10
24.605679786628983
 20
60.300000079349445
 30
0.0
 11
25.248224030218424
 21
60.300000079349445
 31
0.0
  0
LINE
  5
162
100
AcDbEntity
  8
0
  6
CONTINUOUS
 62
               7
100
AcDbLine
 10
25.248224030218424
 20
60.300000079349445
 30
0.0
 11
25.959133385252883
 21
60.300000079349445
 31
0.0
  0
LINE
  5
163
100
AcDbEntity
  8
0
  6
CONTINUOUS
 62
               7
100
AcDbLine
 10
25.959133385252883
 20
60.300000079349445
 30
0.0
 11
26.716807230717237
 21
60.300000079349445
 31
0.0
  0
LINE
  5
164
100
AcDbEntity
  8
0
  6
CONTINUOUS
 62
               7
100
AcDbLine
 10
28.279640829719611
 20
60.300000079349445
 30
0.0
 11
29.037314675183907
 21
60.300000079349445
 31
0.0
  0
LINE
  5
165
100
AcDbEntity
  8
0
  6
CONTINUOUS
 62
               7
100
AcDbLine
 10
29.037314675183907
 20
60.300000079349445
 30
0.0
 11
29.748224030218424
 21
60.300000079349445
 31
0.0
  0
LINE
  5
166
100
AcDbEntity
  8
0
  6
CONTINUOUS
 62
               7
100
AcDbLine
 10
29.748224030218424
 20
60.300000079349445
 30
0.0
 11
30.390768273807836
 21
60.300000079349445
 31
0.0
  0
LINE
  5
167
100
AcDbEntity
  8
0
  6
CONTINUOUS
 62
               7
100
AcDbLine
 10
30.390768273807836
 20
60.300000079349445
 30
0.0
 11
30.945424024253796
 21
60.300000079349445
 31
0.0
  0
LINE
  5
168
100
AcDbEntity
  8
0
  6
CONTINUOUS
 62
               7
100
AcDbLine
 10
30.945424024253796
 20
60.300000079349445
 30
0.0
 11
31.395338347248369
 21
60.300000079349445
 31
0.0
  0
LINE
  5
169
100
AcDbEntity
  8
0
  6
CONTINUOUS
 62
               7
100
AcDbLine
 10
31.395338347248369
 20
60.300000079349445
 30
0.0
 11
31.726840823754983
 21
60.300000079349445
 31
0.0
  0
LINE
  5
16A
100
AcDbEntity
  8
0
  6
CONTINUOUS
 62
               7
100
AcDbLine
 10
31.726840823754983
 20
60.300000079349445
 30
0.0
 11
31.929858918773348
 21
60.300000079349445
 31
0.0
  0
LINE
  5
16B
100
AcDbEntity
  8
0
  6
CONTINUOUS
 62
               7
100
AcDbLine
 10
31.929858918773348
 20
60.300000079349445
 30
0.0
 11
31.998224030218424
 21
60.300000079349445
 31
0.0
  0
LINE
  5
16C
100
AcDbEntity
  8
0
  6
CONTINUOUS
 62
               7
100
AcDbLine
 10
22.998224030218424
 20
60.300000079349445
 30
0.0
 11
23.066589141663471
 21
60.300000079349445
 31
0.0
  0
LINE
  5
16D
100
AcDbEntity
  8
0
  6
CONTINUOUS
 62
               7
100
AcDbLine
 10
27.498224030218424
 20
60.300000079349445
 30
0.0
 11
28.279640829719611
 21
60.300000079349445
 31
0.0
  0
LINE
  5
16E
100
AcDbEntity
  8
0
  6
CONTINUOUS
 62
               7
100
AcDbLine
 10
26.716807230717237
 20
60.300000079349445
 30
0.0
 11
27.498224030218424
 21
60.300000079349445
 31
0.0
  0
LINE
  5
16F
100
AcDbEntity
  8
0
  6
CONTINUOUS
 62
               7
100
AcDbLine
 10
26.998224030218367
 20
67.000000079349434
 30
0.0
 11
26.998224030218424
 21
67.260217675588336
 31
0.0
  0
LINE
  5
170
100
AcDbEntity
  8
0
  6
CONTINUOUS
 62
               7
100
AcDbLine
 10
27.132169910678229
 20
67.000000079349405
 30
0.0
 11
26.998224030218367
 21
67.000000079349434
 31
0.0
  0
LINE
  5
171
100
AcDbEntity
  8
0
  6
CONTINUOUS
 62
               7
100
AcDbLine
 10
31.998224030218424
 20
60.30000007934936
 30
0.0
 11
31.998224030218424
 21
66.500000079349462
 31
0.0
  0
LINE
  5
172
100
AcDbEntity
  8
0
  6
CONTINUOUS
 62
               7
100
AcDbLine
 10
22.998224030218424
 20
60.30000007934936
 30
0.0
 11
22.998224030218424
 21
66.500000079349462
 31
0.0
  0
ARC
  5
173
100
AcDbEntity
  8
0
  6
CONTINUOUS
 62
               7
100
AcDbCircle
 10
33.614476382137084
 20
59.900000079349411
 30
0.0
 40
0.1
100
AcDbArc
 50
1.0000000000042124
 51
90.0
  0
ARC
  5
174
100
AcDbEntity
  8
0
  6
CONTINUOUS
 62
               7
100
AcDbCircle
 10
24.498224030218424
 20
66.500000079349434
 30
0.0
 40
1.5
100
AcDbArc
 50
90.0
 51
179.99999999999889
  0
ARC
  5
175
100
AcDbEntity
  8
0
  6
CONTINUOUS
 62
               7
100
AcDbCircle
 10
30.498224030218424
 20
66.500000079349434
 30
0.0
 40
1.5
100
AcDbArc
 50
0.0000000000010687
 51
90.0
  0
LINE
  5
176
100
AcDbEntity
  8
0
  6
CONTINUOUS
 62
               7
100
AcDbLine
 10
18.749999999999986
 20
60.000000079349405
 30
0.0
 11
33.614476382137084
 21
60.000000079349405
 31
0.0
  0
LINE
  5
177
100
AcDbEntity
  8
0
  6
CONTINUOUS
 62
               7
100
AcDbLine
 10
39.500000035276585
 20
59.499999972500007
 30
0.0
 11
39.500000035276585
 21
1.0
 31
0.0
  0
LINE
  5
178
100
AcDbEntity
  8
0
  6
CONTINUOUS
 62
               7
100
AcDbLine
 10
59.500000000000057
 20
1.0
 30
0.0
 11
20.499999999999986
 21
1.0
 31
0.0
  0
LINE
  5
179
100
AcDbEntity
  8
0
  6
CONTINUOUS
 62
               7
100
AcDbLine
 10
9.5
 20
1.6000000000000227
 30
0.0
 11
9.5
 21
59.5
 31
0.0
  0
LINE
  5
17A
100
AcDbEntity
  8
0
  6
CONTINUOUS
 62
               7
100
AcDbLine
 10
23.500000000000014
 20
59.5
 30
0.0
 11
23.500000000000014
 21
1.0
 31
0.0
  0
LINE
  5
17B
100
AcDbEntity
  8
0
  6
CONTINUOUS
 62
               7
100
AcDbLine
 10
51.000000035276585
 20
32.999999999999915
 30
0.0
 11
51.000000035276585
 21
27.217144432479571
 31
0.0
  0
ARC
  5
17C
100
AcDbEntity
  8
0
  6
CONTINUOUS
 62
               7
100
AcDbCircle
 10
58.800000035276653
 20
1.2999999999999545
 30
0.0
 40
0.3
100
AcDbArc
 50
270.0
 51
0.0
  0
LINE
  5
17D
100
AcDbEntity
  8
0
  6
CONTINUOUS
 62
               7
100
AcDbLine
 10
59.100000035276608
 20
18.499999999999929
 30
0.0
 11
59.100000035276608
 21
1.2999999999999545
 31
0.0
  0
ARC
  5
17E
100
AcDbEntity
  8
0
  6
CONTINUOUS
 62
               7
100
AcDbCircle
 10
53.600000035276608
 20
25.499999999999929
 30
0.0
 40
0.5
100
AcDbArc
 50
0.0
 51
90.0
  0
ARC
  5
17F
100
AcDbEntity
  8
0
  6
CONTINUOUS
 62
               7
100
AcDbCircle
 10
53.600000035276608
 20
23.499999999999929
 30
0.0
 40
0.5
100
AcDbArc
 50
270.0
 51
0.0
  0
LINE
  5
180
100
AcDbEntity
  8
0
  6
CONTINUOUS
 62
               7
100
AcDbLine
 10
54.100000035276608
 20
25.499999999999929
 30
0.0
 11
54.100000035276608
 21
23.499999999999929
 31
0.0
  0
LINE
  5
181
100
AcDbEntity
  8
0
  6
CONTINUOUS
 62
               7
100
AcDbLine
 10
53.600000035276608
 20
22.999999999999929
 30
0.0
 11
53.500000035276585
 21
22.999999999999929
 31
0.0
  0
LINE
  5
182
100
AcDbEntity
  8
0
  6
CONTINUOUS
 62
               7
100
AcDbLine
 10
53.600000035276608
 20
25.999999999999929
 30
0.0
 11
53.500000035276585
 21
25.999999999999929
 31
0.0
  0
LINE
  5
183
100
AcDbEntity
  8
0
  6
CONTINUOUS
 62
               7
100
AcDbLine
 10
54.500000035276585
 20
26.099999999999895
 30
0.0
 11
53.500000035276585
 21
26.099999999999895
 31
0.0
  0
LINE
  5
184
100
AcDbEntity
  8
0
  6
CONTINUOUS
 62
               7
100
AcDbLine
 10
54.500000035276585
 20
22.899999999999906
 30
0.0
 11
53.500000035276585
 21
22.899999999999906
 31
0.0
  0
LINE
  5
185
100
AcDbEntity
  8
0
  6
CONTINUOUS
 62
               7
100
AcDbLine
 10
53.500000035276585
 20
26.099999999999895
 30
0.0
 11
53.500000035276585
 21
22.899999999999906
 31
0.0
  0
LINE
  5
186
100
AcDbEntity
  8
0
  6
CONTINUOUS
 62
               7
100
AcDbLine
 10
53.200000035276631
 20
2.4999999999999432
 30
0.0
 11
53.200000035276631
 21
18.599999999999895
 31
0.0
  0
LINE
  5
187
100
AcDbEntity
  8
0
  6
CONTINUOUS
 62
               7
100
AcDbLine
 10
40.700000035276574
 20
0.9999999999999147
 30
0.0
 11
40.700000035276574
 21
2.4999999999999432
 31
0.0
  0
LINE
  5
188
100
AcDbEntity
  8
0
  6
CONTINUOUS
 62
               7
100
AcDbLine
 10
54.500000035276585
 20
26.599999999999895
 30
0.0
 11
54.500000035276585
 21
19.90918254822877
 31
0.0
  0
LINE
  5
189
100
AcDbEntity
  8
0
  6
CONTINUOUS
 62
               7
100
AcDbLine
 10
53.200000035276631
 20
18.599999999999895
 30
0.0
 11
59.100000035276494
 21
18.599999999999895
 31
0.0
  0
LINE
  5
18A
100
AcDbEntity
  8
0
  6
CONTINUOUS
 62
               7
100
AcDbLine
 10
54.500000035276585
 20
19.90918254822877
 30
0.0
 11
59.100000035276494
 21
19.098078436969828
 31
0.0
  0
LINE
  5
18B
100
AcDbEntity
  8
0
  6
CONTINUOUS
 62
               7
100
AcDbLine
 10
59.100000035276494
 20
19.098078436969828
 30
0.0
 11
59.100000035276494
 21
18.599999999999895
 31
0.0
  0
LINE
  5
18C
100
AcDbEntity
  8
0
  6
CONTINUOUS
 62
               7
100
AcDbLine
 10
58.500000035276585
 20
18.499999999999872
 30
0.0
 11
58.500000035276585
 21
18.599999999999895
 31
0.0
  0
LINE
  5
18D
100
AcDbEntity
  8
0
  6
CONTINUOUS
 62
               7
100
AcDbLine
 10
40.400000035276562
 20
0.9999999999999147
 30
0.0
 11
40.700000035276574
 21
1.2999999999999261
 31
0.0
  0
LINE
  5
18E
100
AcDbEntity
  8
0
  6
CONTINUOUS
 62
               7
100
AcDbLine
 10
53.200000035276631
 20
2.4999999999999432
 30
0.0
 11
40.700000035276574
 21
2.4999999999999432
 31
0.0
  0
LINE
  5
18F
100
AcDbEntity
  8
0
  6
CONTINUOUS
 62
               7
100
AcDbLine
 10
51.000000035276585
 20
27.217144432479571
 30
0.0
 11
54.500000035276585
 21
26.599999999999895
 31
0.0
  0
LINE
  5
190
100
AcDbEntity
  8
0
  6
CONTINUOUS
 62
               7
100
AcDbLine
 10
42.700000035276574
 20
32.299999999999898
 30
0.0
 11
42.700000035276574
 21
31.499999999999915
 31
0.0
  0
LINE
  5
191
100
AcDbEntity
  8
0
  6
CONTINUOUS
 62
               7
100
AcDbLine
 10
50.300000035276653
 20
31.499999999999915
 30
0.0
 11
50.300000035276653
 21
32.299999999999898
 31
0.0
  0
LINE
  5
192
100
AcDbEntity
  8
0
  6
CONTINUOUS
 62
               7
100
AcDbLine
 10
50.300000035276653
 20
31.499999999999915
 30
0.0
 11
42.700000035276574
 21
31.499999999999915
 31
0.0
  0
LINE
  5
193
100
AcDbEntity
  8
0
  6
CONTINUOUS
 62
               7
100
AcDbLine
 10
50.300000035276653
 20
32.299999999999898
 30
0.0
 11
42.700000035276574
 21
32.299999999999898
 31
0.0
  0
LINE
  5
194
100
AcDbEntity
  8
0
  6
CONTINUOUS
 62
               7
100
AcDbLine
 10
39.500000035276585
 20
32.999999999999915
 30
0.0
 11
51.000000035276585
 21
32.999999999999915
 31
0.0
  0
LINE
  5
195
100
AcDbEntity
  8
0
  6
CONTINUOUS
 62
               7
100
AcDbLine
 10
64.600000000000023
 20
18.5
 30
0.0
 11
53.200000035276631
 21
18.5
 31
0.0
  0
LINE
  5
196
100
AcDbEntity
  8
0
  6
CONTINUOUS
 62
               7
100
AcDbLine
 10
12.249999999999986
 20
59.519220935761126
 30
0.0
 11
12.249999999999986
 21
62.219220935761115
 31
0.0
  0
LINE
  5
197
100
AcDbEntity
  8
0
  6
CONTINUOUS
 62
               7
100
AcDbLine
 10
18.749999999999986
 20
59.519220935761126
 30
0.0
 11
18.749999999999986
 21
62.219220935761115
 31
0.0
  0
LINE
  5
198
100
AcDbEntity
  8
0
  6
CONTINUOUS
 62
               7
100
AcDbLine
 10
18.249999999999986
 20
62.719220935761129
 30
0.0
 11
12.749999999999986
 21
62.719220935761129
 31
0.0
  0
LINE
  5
199
100
AcDbEntity
  8
0
  6
CONTINUOUS
 62
               7
100
AcDbLine
 10
18.749999999999986
 20
62.219220935761115
 30
0.0
 11
18.249999999999986
 21
62.719220935761129
 31
0.0
  0
LINE
  5
19A
100
AcDbEntity
  8
0
  6
CONTINUOUS
 62
               7
100
AcDbLine
 10
12.249999999999986
 20
62.219220935761115
 30
0.0
 11
12.749999999999986
 21
62.719220935761129
 31
0.0
  0
LINE
  5
19B
100
AcDbEntity
  8
0
  6
CONTINUOUS
 62
               7
100
AcDbLine
 10
12.249999999999986
 20
62.219220935761115
 30
0.0
 11
18.749999999999986
 21
62.219220935761115
 31
0.0
  0
LINE
  5
19C
100
AcDbEntity
  8
0
  6
CONTINUOUS
 62
               7
100
AcDbLine
 10
43.500000035276585
 20
46.999999999999915
 30
0.0
 11
43.500000035276585
 21
33.499999999999943
 31
0.0
  0
LINE
  5
19D
100
AcDbEntity
  8
0
  6
CONTINUOUS
 62
               7
100
AcDbLine
 10
39.500000035276585
 20
46.999999999999915
 30
0.0
 11
43.500000035276585
 21
46.999999999999915
 31
0.0
  0
LINE
  5
19E
100
AcDbEntity
  8
0
  6
CONTINUOUS
 62
               7
100
AcDbLine
 10
43.500000035276585
 20
43.599999999999937
 30
0.0
 11
42.000000035276585
 21
43.599999999999937
 31
0.0
  0
LINE
  5
19F
100
AcDbEntity
  8
0
  6
CONTINUOUS
 62
               7
100
AcDbLine
 10
43.500000035276585
 20
40.39999999999992
 30
0.0
 11
42.000000035276585
 21
40.39999999999992
 31
0.0
  0
LINE
  5
1A0
100
AcDbEntity
  8
0
  6
CONTINUOUS
 62
               7
100
AcDbLine
 10
42.000000035276585
 20
43.599999999999937
 30
0.0
 11
42.000000035276585
 21
40.39999999999992
 31
0.0
  0
ARC
  5
1A1
100
AcDbEntity
  8
0
  6
CONTINUOUS
 62
               7
100
AcDbCircle
 10
42.000000035276585
 20
41.999999999999943
 30
0.0
 40
1.5
100
AcDbArc
 50
82.33774433923395
 51
90.0
  0
SPLINE
  5
1A2
100
AcDbEntity
  8
0
  6
CONTINUOUS
 62
               7
100
AcDbSpline
210
0.0
220
0.0
230
1.0
 70
               0
 71
               3
 72
               0
 73
               0
 74
               5
 44
0.000001
 12
0.5581455721859482
 22
-0.8297430447127716
 32
0.0
 13
-0.5581455721859486
 23
-0.8297430447127714
 33
0.0
 11
42.200000035276574
 21
43.486606874731791
 31
0.0
 11
42.559427175719065
 21
42.778029517482011
 31
0.0
 11
42.700000035276574
 21
41.999999999999943
 31
0.0
 11
42.559427175719065
 21
41.221970482517861
 31
0.0
 11
42.200000035276574
 21
40.513393125268067
 31
0.0
  0
ARC
  5
1A3
100
AcDbEntity
  8
0
  6
CONTINUOUS
 62
               7
100
AcDbCircle
 10
42.000000035276585
 20
41.999999999999943
 30
0.0
 40
1.5
100
AcDbArc
 50
270.0
 51
277.66225566076605
  0
LINE
  5
1A4
100
AcDbEntity
  8
0
  6
CONTINUOUS
 62
               7
100
AcDbLine
 10
39.500000035276585
 20
33.499999999999943
 30
0.0
 11
43.500000035276585
 21
33.499999999999943
 31
0.0
  0
LINE
  5
1A5
100
AcDbEntity
  8
0
  6
CONTINUOUS
 62
               7
100
AcDbLine
 10
39.500000035276585
 20
59.499999972500007
 30
0.0
 11
9.5
 21
59.499999972500007
 31
0.0
  0
LINE
  5
1A6
100
AcDbEntity
  8
0
  6
CONTINUOUS
 62
               7
100
AcDbLine
 10
22.998224030218424
 20
66.500000079349462
 30
0.0
 11
31.998224030218424
 21
66.500000079349462
 31
0.0
  0
LINE
  5
1A7
100
AcDbEntity
  8
0
  6
CONTINUOUS
 62
             200
100
AcDbLine
 10
10.0
 20
-1.6999999999999886
 30
0.0
 11
10.0
 21
3.3000000000000114
 31
0.0
  0
LINE
  5
1A8
100
AcDbEntity
  8
0
  6
CONTINUOUS
 62
             200
100
AcDbLine
 10
0.0
 20
-1.6999999999999886
 30
0.0
 11
0.0
 21
3.3000000000000114
 31
0.0
  0
LINE
  5
1A9
100
AcDbEntity
  8
0
  6
CONTINUOUS
 62
             200
100
AcDbLine
 10
13.471124524314874
 20
16.0
 30
0.0
 11
19.499999999999986
 21
16.0
 31
0.0
  0
LINE
  5
1AA
100
AcDbEntity
  8
0
  6
CONTINUOUS
 62
             200
100
AcDbLine
 10
13.499999999999986
 20
19.0
 30
0.0
 11
19.499999999999986
 21
19.0
 31
0.0
  0
LINE
  5
1AB
100
AcDbEntity
  8
0
  6
CONTINUOUS
 62
             200
100
AcDbLine
 10
16.499999999999986
 20
14.100000000000023
 30
0.0
 11
16.499999999999986
 21
22.0
 31
0.0
  0
LINE
  5
1AC
100
AcDbEntity
  8
0
  6
CONTINUOUS
 62
             200
100
AcDbLine
 10
13.499999999999929
 20
6.0
 30
0.0
 11
19.499999999999986
 21
6.0
 31
0.0
  0
LINE
  5
1AD
100
AcDbEntity
  8
0
  6
CONTINUOUS
 62
             200
100
AcDbLine
 10
16.499999999999986
 20
3.0
 30
0.0
 11
16.499999999999986
 21
9.0
 31
0.0
  0
CIRCLE
  5
1AE
100
AcDbEntity
  8
0
  6
CONTINUOUS
 62
               4
100
AcDbCircle
 10
16.499999999999986
 20
6.0
 30
0.0
 40
1.9999999999999996
  0
LINE
  5
1AF
100
AcDbEntity
  8
0
  6
CONTINUOUS
 62
               4
100
AcDbLine
 10
15.499999999999986
 20
5.4226496815681458
 30
0.0
 11
15.499999999999986
 21
6.5773502588272095
 31
0.0
  0
LINE
  5
1B0
100
AcDbEntity
  8
0
  6
CONTINUOUS
 62
               4
100
AcDbLine
 10
17.499999999999986
 20
5.4226497411727905
 30
0.0
 11
17.499999999999986
 21
6.5773502588272095
 31
0.0
  0
LINE
  5
1B1
100
AcDbEntity
  8
0
  6
CONTINUOUS
 62
               4
100
AcDbLine
 10
17.499999956111239
 20
6.5773502886295319
 30
0.0
 11
16.499999985913561
 21
7.1547005474567413
 31
0.0
  0
LINE
  5
1B2
100
AcDbEntity
  8
0
  6
CONTINUOUS
 62
               4
100
AcDbLine
 10
16.499999956111239
 20
4.8452994525432587
 30
0.0
 11
15.499999985913561
 21
5.4226497113704681
 31
0.0
  0
LINE
  5
1B3
100
AcDbEntity
  8
0
  6
CONTINUOUS
 62
               4
100
AcDbLine
 10
16.499999956111239
 20
7.1547005176544189
 30
0.0
 11
15.499999999999986
 21
6.5773502738039724
 31
0.0
  0
LINE
  5
1B4
100
AcDbEntity
  8
0
  6
CONTINUOUS
 62
               4
100
AcDbLine
 10
17.499999956111239
 20
5.4226497411727905
 30
0.0
 11
16.499999943090572
 21
4.8452994644656826
 31
0.0
  0
CIRCLE
  5
1B5
100
AcDbEntity
  8
0
  6
CONTINUOUS
 62
               4
100
AcDbCircle
 10
16.499999999999986
 20
6.0
 30
0.0
 40
2.25
  0
CIRCLE
  5
1B6
100
AcDbEntity
  8
0
  6
CONTINUOUS
 62
               4
100
AcDbCircle
 10
16.499999999999986
 20
19.0
 30
0.0
 40
1.9999999999999996
  0
LINE
  5
1B7
100
AcDbEntity
  8
0
  6
CONTINUOUS
 62
               4
100
AcDbLine
 10
15.499999999999986
 20
18.422649681568146
 30
0.0
 11
15.499999999999986
 21
19.577350258827209
 31
0.0
  0
LINE
  5
1B8
100
AcDbEntity
  8
0
  6
CONTINUOUS
 62
               4
100
AcDbLine
 10
17.499999999999986
 20
18.422649741172791
 30
0.0
 11
17.499999999999986
 21
19.577350258827209
 31
0.0
  0
LINE
  5
1B9
100
AcDbEntity
  8
0
  6
CONTINUOUS
 62
               4
100
AcDbLine
 10
17.499999956111239
 20
19.577350288629532
 30
0.0
 11
16.499999985913561
 21
20.154700547456741
 31
0.0
  0
LINE
  5
1BA
100
AcDbEntity
  8
0
  6
CONTINUOUS
 62
               4
100
AcDbLine
 10
16.499999956111239
 20
17.845299452543259
 30
0.0
 11
15.499999985913561
 21
18.422649711370468
 31
0.0
  0
LINE
  5
1BB
100
AcDbEntity
  8
0
  6
CONTINUOUS
 62
               4
100
AcDbLine
 10
16.499999956111239
 20
20.154700517654419
 30
0.0
 11
15.499999999999986
 21
19.577350273803972
 31
0.0
  0
LINE
  5
1BC
100
AcDbEntity
  8
0
  6
CONTINUOUS
 62
               4
100
AcDbLine
 10
17.499999956111239
 20
18.422649741172791
 30
0.0
 11
16.499999943090572
 21
17.845299464465683
 31
0.0
  0
CIRCLE
  5
1BD
100
AcDbEntity
  8
0
  6
CONTINUOUS
 62
               4
100
AcDbCircle
 10
16.499999999999986
 20
19.0
 30
0.0
 40
2.25
  0
ARC
  5
1BE
100
AcDbEntity
  8
0
  6
CONTINUOUS
 62
               4
100
AcDbCircle
 10
16.499999999999986
 20
19.0
 30
0.0
 40
4.0
100
AcDbArc
 50
0.0
 51
180.0
  0
LINE
  5
1BF
100
AcDbEntity
  8
0
  6
CONTINUOUS
 62
               4
100
AcDbLine
 10
20.499999999999986
 20
19.0
 30
0.0
 11
20.499999999999986
 21
0.5
 31
0.0
  0
LINE
  5
1C0
100
AcDbEntity
  8
0
  6
CONTINUOUS
 62
               4
100
AcDbLine
 10
12.499999999999986
 20
19.0
 30
0.0
 11
12.499999999999986
 21
1.6000000000000227
 31
0.0
  0
LINE
  5
1C1
100
AcDbEntity
  8
0
  6
CONTINUOUS
 62
               4
100
AcDbLine
 10
19.999999999999986
 20
0.0
 30
0.0
 11
-4.0
 21
0.0
 31
0.0
  0
LINE
  5
1C2
100
AcDbEntity
  8
0
  6
CONTINUOUS
 62
               4
100
AcDbLine
 10
20.499999999999986
 20
1.6000000000000227
 30
0.0
 11
-4.0
 21
1.6000000000000227
 31
0.0
  0
LINE
  5
1C3
100
AcDbEntity
  8
0
  6
CONTINUOUS
 62
               4
100
AcDbLine
 10
-4.5
 20
1.1000000000000227
 30
0.0
 11
-4.5
 21
0.5
 31
0.0
  0
ARC
  5
1C4
100
AcDbEntity
  8
0
  6
CONTINUOUS
 62
               4
100
AcDbCircle
 10
19.999999999999986
 20
0.5
 30
0.0
 40
0.5
100
AcDbArc
 50
270.0
 51
0.0
  0
ARC
  5
1C5
100
AcDbEntity
  8
0
  6
CONTINUOUS
 62
               4
100
AcDbCircle
 10
-4.0
 20
0.5
 30
0.0
 40
0.5
100
AcDbArc
 50
180.0
 51
270.0
  0
ARC
  5
1C6
100
AcDbEntity
  8
0
  6
CONTINUOUS
 62
               4
100
AcDbCircle
 10
-4.0
 20
1.1000000000000227
 30
0.0
 40
0.5
100
AcDbArc
 50
90.0
 51
180.0
  0
ARC
  5
1C7
100
AcDbEntity
  8
0
  6
CONTINUOUS
 62
               4
100
AcDbCircle
 10
16.499999999999986
 20
16.0
 30
0.0
 40
1.3999999999999999
100
AcDbArc
 50
180.0
 51
0.0
  0
LINE
  5
1C8
100
AcDbEntity
  8
0
  6
CONTINUOUS
 62
               4
100
AcDbLine
 10
15.09999999999998
 20
16.0
 30
0.0
 11
15.09999999999998
 21
17.238608504619151
 31
0.0
  0
LINE
  5
1C9
100
AcDbEntity
  8
0
  6
CONTINUOUS
 62
               4
100
AcDbLine
 10
17.899999999999991
 20
16.0
 30
0.0
 11
17.899999999999991
 21
17.238608504619151
 31
0.0
  0
LINE
  5
1CA
100
AcDbEntity
  8
0
  6
CONTINUOUS
 62
               7
100
AcDbLine
 10
64.599999999833699
 20
13.199999999999989
 30
0.0
 11
59.099999999833699
 21
13.199999999999989
 31
0.0
  0
LINE
  5
1CB
100
AcDbEntity
  8
0
  6
CONTINUOUS
 62
               7
100
AcDbLine
 10
60.299999999999955
 20
13.199999999999989
 30
0.0
 11
61.166025403784431
 21
12.699999999999989
 31
0.0
  0
LINE
  5
1CC
100
AcDbEntity
  8
0
  6
CONTINUOUS
 62
               2
100
AcDbLine
 10
75.141525436878396
 20
14.484999999999985
 30
0.0
 11
75.746326980708488
 21
17.914999999999992
 31
0.0
  0
LINE
  5
1CD
100
AcDbEntity
  8
0
  6
CONTINUOUS
 62
               2
100
AcDbLine
 10
74.641525436878396
 20
14.484999999999985
 30
0.0
 11
75.246326980708488
 21
17.914999999999992
 31
0.0
  0
LINE
  5
1CE
100
AcDbEntity
  8
0
  6
CONTINUOUS
 62
               7
100
AcDbLine
 10
61.166025403784431
 20
12.699999999999989
 30
0.0
 11
67.699999999999989
 21
12.699999999999989
 31
0.0
  0
LINE
  5
1CF
100
AcDbEntity
  8
0
  6
CONTINUOUS
 62
               7
100
AcDbLine
 10
68.699999999999989
 20
18.5
 30
0.0
 11
68.988675134594814
 21
19.0
 31
0.0
  0
LINE
  5
1D0
100
AcDbEntity
  8
0
  6
CONTINUOUS
 62
               7
100
AcDbLine
 10
68.988675134594814
 20
19.0
 30
0.0
 11
69.699999999999989
 21
19.0
 31
0.0
  0
LINE
  5
1D1
100
AcDbEntity
  8
0
  6
CONTINUOUS
 62
               7
100
AcDbLine
 10
67.699999999999989
 20
12.699999999999989
 30
0.0
 11
67.988675134594814
 21
12.199999999999989
 31
0.0
  0
LINE
  5
1D2
100
AcDbEntity
  8
0
  6
CONTINUOUS
 62
               7
100
AcDbLine
 10
67.988675134594814
 20
12.199999999999989
 30
0.0
 11
68.699999999999989
 21
12.199999999999989
 31
0.0
  0
LINE
  5
1D3
100
AcDbEntity
  8
0
  6
CONTINUOUS
 62
               7
100
AcDbLine
 10
64.600000000000023
 20
17.800000000000011
 30
0.0
 11
64.699999999999989
 21
17.800000000000011
 31
0.0
  0
LINE
  5
1D4
100
AcDbEntity
  8
0
  6
CONTINUOUS
 62
               7
100
AcDbLine
 10
69.699999999999989
 20
19.0
 30
0.0
 11
69.699999999999989
 21
13.699999999999989
 31
0.0
  0
LINE
  5
1D5
100
AcDbEntity
  8
0
  6
CONTINUOUS
 62
               7
100
AcDbLine
 10
68.699999999999989
 20
13.400244132795592
 30
0.0
 11
67.0
 21
13.699999999999989
 31
0.0
  0
LINE
  5
1D6
100
AcDbEntity
  8
0
  6
CONTINUOUS
 62
               7
100
AcDbLine
 10
64.600000000000023
 20
13.699999999999989
 30
0.0
 11
69.699999999999989
 21
13.699999999999989
 31
0.0
  0
LINE
  5
1D7
100
AcDbEntity
  8
0
  6
CONTINUOUS
 62
               7
100
AcDbLine
 10
64.699999999999989
 20
13.699999999999989
 30
0.0
 11
64.699999999999989
 21
18.5
 31
0.0
  0
LINE
  5
1D8
100
AcDbEntity
  8
0
  6
CONTINUOUS
 62
               7
100
AcDbLine
 10
68.699999999999989
 20
13.400244132795592
 30
0.0
 11
68.699999999999989
 21
12.199999999999989
 31
0.0
  0
LINE
  5
1D9
100
AcDbEntity
  8
0
  6
CONTINUOUS
 62
               7
100
AcDbLine
 10
64.699999999999989
 20
18.5
 30
0.0
 11
68.699999999999989
 21
18.5
 31
0.0
  0
LINE
  5
1DA
100
AcDbEntity
  8
0
  6
CONTINUOUS
 62
               7
100
AcDbLine
 10
64.600000000000023
 20
18.5
 30
0.0
 11
64.600000000000023
 21
13.199999999999989
 31
0.0
  0
LINE
  5
1DB
100
AcDbEntity
  8
0
  6
CONTINUOUS
 62
               7
100
AcDbLine
 10
69.699999999999989
 20
16.91500000000002
 30
0.0
 11
75.069999999999993
 21
16.91500000000002
 31
0.0
  0
LINE
  5
1DC
100
AcDbEntity
  8
0
  6
CONTINUOUS
 62
               7
100
AcDbLine
 10
69.699999999999989
 20
15.485000000000014
 30
0.0
 11
74.817852417586892
 21
15.485000000000014
 31
0.0
  0
LINE
  5
1DD
100
AcDbEntity
  8
0
  6
CONTINUOUS
 62
               7
100
AcDbLine
 10
75.317852417586892
 20
15.485000000000014
 30
0.0
 11
80.129999999999995
 21
15.485000000000014
 31
0.0
  0
LINE
  5
1DE
100
AcDbEntity
  8
0
  6
CONTINUOUS
 62
               7
100
AcDbLine
 10
75.569999999999993
 20
16.91500000000002
 30
0.0
 11
80.129999999999995
 21
16.91500000000002
 31
0.0
  0
LINE
  5
1DF
100
AcDbEntity
  8
0
  6
CONTINUOUS
 62
               7
100
AcDbLine
 10
80.129999999999995
 20
16.600000000000023
 30
0.0
 11
85.129999999999995
 21
16.600000000000023
 31
0.0
  0
LINE
  5
1E0
100
AcDbEntity
  8
0
  6
CONTINUOUS
 62
               7
100
AcDbLine
 10
80.129999999999995
 20
15.800000000000011
 30
0.0
 11
85.129999999999995
 21
15.800000000000011
 31
0.0
  0
LINE
  5
1E1
100
AcDbEntity
  8
0
  6
CONTINUOUS
 62
               7
100
AcDbLine
 10
80.129999999999995
 20
16.91500000000002
 30
0.0
 11
80.129999999999995
 21
15.485000000000014
 31
0.0
  0
LINE
  5
1E2
100
AcDbEntity
  8
0
  6
CONTINUOUS
 62
               7
100
AcDbLine
 10
85.129999999999995
 20
16.600000000000023
 30
0.0
 11
85.129999999999995
 21
15.800000000000011
 31
0.0
  0
LINE
  5
1E3
100
AcDbEntity
  8
0
  6
CONTINUOUS
 62
               7
100
AcDbLine
 10
57.000000162362255
 20
23.708806453204588
 30
0.0
 11
57.000000162362255
 21
19.468365074048961
 31
0.0
  0
LINE
  5
1E4
100
AcDbEntity
  8
0
  6
CONTINUOUS
 62
               7
100
AcDbLine
 10
57.000000162362255
 20
23.708806453204588
 30
0.0
 11
54.500000035276585
 21
23.708806453204588
 31
0.0
  0
LINE
  5
1E5
100
AcDbEntity
  8
0
  6
CONTINUOUS
 62
               7
100
AcDbLine
 10
39.599999803161666
 20
67.550884061065744
 30
0.0
 11
39.599999803161666
 21
79.17236572838037
 31
0.0
  0
LINE
  5
1E6
100
AcDbEntity
  8
0
  6
CONTINUOUS
 62
               7
100
AcDbLine
 10
43.39999980316162
 20
67.550884061065744
 30
0.0
 11
43.39999980316162
 21
78.502323201688213
 31
0.0
  0
LINE
  5
1E7
100
AcDbEntity
  8
0
  6
CONTINUOUS
 62
               7
100
AcDbLine
 10
36.309384685011253
 20
117.37702103754623
 30
0.0
 11
37.263573568315849
 21
117.72431739470107
 31
0.0
  0
LINE
  5
1E8
100
AcDbEntity
  8
0
  6
CONTINUOUS
 62
               7
100
AcDbLine
 10
39.881528507116798
 20
117.65210601345734
 30
0.0
 11
40.818392382036166
 21
117.65210601345734
 31
0.0
  0
LINE
  5
1E9
100
AcDbEntity
  8
0
  6
CONTINUOUS
 62
               7
100
AcDbLine
 10
40.818392382036166
 20
117.65210601345734
 30
0.0
 11
42.818392382036166
 21
117.65210601345734
 31
0.0
  0
LINE
  5
1EA
100
AcDbEntity
  8
0
  6
CONTINUOUS
 62
               7
100
AcDbLine
 10
42.818392382036166
 20
117.65210601345734
 30
0.0
 11
43.860071817321739
 21
117.65210601345734
 31
0.0
  0
LINE
  5
1EB
100
AcDbEntity
  8
0
  6
CONTINUOUS
 62
               7
100
AcDbLine
 10
39.599999826403007
 20
91.75088404261993
 30
0.0
 11
43.39999980316162
 21
91.75088404261993
 31
0.0
  0
LINE
  5
1EC
100
AcDbEntity
  8
0
  6
CONTINUOUS
 62
               7
100
AcDbLine
 10
43.39999980316162
 20
80.502323201688213
 30
0.0
 11
43.39999980316162
 21
91.75088404261993
 31
0.0
  0
LINE
  5
1ED
100
AcDbEntity
  8
0
  6
CONTINUOUS
 62
               7
100
AcDbLine
 10
39.599999803161666
 20
81.17236572838037
 30
0.0
 11
39.599999803161666
 21
91.75088404261993
 31
0.0
  0
LINE
  5
1EE
100
AcDbEntity
  8
0
  6
CONTINUOUS
 62
               7
100
AcDbLine
 10
43.099999803161666
 20
97.484884629979206
 30
0.0
 11
43.099999803161666
 21
91.75088404261993
 31
0.0
  0
LINE
  5
1EF
100
AcDbEntity
  8
0
  6
CONTINUOUS
 62
               7
100
AcDbLine
 10
40.086981970818385
 20
91.750883929935526
 30
0.0
 11
39.357257063487637
 21
100.09167781803795
 31
0.0
  0
LINE
  5
1F0
100
AcDbEntity
  8
0
  6
CONTINUOUS
 62
               7
100
AcDbLine
 10
43.099999826403007
 20
97.49407088061912
 30
0.0
 11
40.344916325064048
 21
100.24915438195808
 31
0.0
  0
LINE
  5
1F1
100
AcDbEntity
  8
0
  6
CONTINUOUS
 62
               7
100
AcDbLine
 10
40.248382962098106
 20
110.65210601345734
 30
0.0
 11
43.493217362340431
 21
110.65210601345734
 31
0.0
  0
LINE
  5
1F2
100
AcDbEntity
  8
0
  6
CONTINUOUS
 62
               7
100
AcDbLine
 10
40.818392386661515
 20
99.775678270069193
 30
0.0
 11
39.881528507116798
 21
117.65210601345734
 31
0.0
  0
LINE
  5
1F3
100
AcDbEntity
  8
0
  6
CONTINUOUS
 62
               7
100
AcDbLine
 10
42.818392379210934
 20
97.775678270069193
 30
0.0
 11
43.860071817321739
 21
117.65210601345734
 31
0.0
  0
LINE
  5
1F4
100
AcDbEntity
  8
0
  6
CONTINUOUS
 62
               7
100
AcDbLine
 10
42.818392382036166
 20
97.775678329673838
 30
0.0
 11
42.818392382036166
 21
117.65210601345734
 31
0.0
  0
LINE
  5
1F5
100
AcDbEntity
  8
0
  6
CONTINUOUS
 62
               7
100
AcDbLine
 10
41.818392382036166
 20
98.775678329673838
 30
0.0
 11
41.818392382036166
 21
117.65210601345734
 31
0.0
  0
LINE
  5
1F6
100
AcDbEntity
  8
0
  6
CONTINUOUS
 62
               7
100
AcDbLine
 10
40.818392382036166
 20
99.775678329673838
 30
0.0
 11
40.818392382036166
 21
117.65210601345734
 31
0.0
  0
LINE
  5
1F7
100
AcDbEntity
  8
0
  6
CONTINUOUS
 62
               7
100
AcDbLine
 10
40.344916312079079
 20
100.24915436066766
 30
0.0
 11
37.263573576476858
 21
117.72431739709958
 31
0.0
  0
LINE
  5
1F8
100
AcDbEntity
  8
0
  6
CONTINUOUS
 62
               7
100
AcDbLine
 10
39.357257063487637
 20
100.09167781803794
 30
0.0
 11
36.309384684394047
 21
117.37702103010656
 31
0.0
  0
LINE
  5
1F9
100
AcDbEntity
  8
0
  6
CONTINUOUS
 62
               2
100
AcDbLine
 10
45.399999803161649
 20
78.14966924027128
 30
0.0
 11
37.399999803161649
 21
79.560285085939
 31
0.0
  0
LINE
  5
1FA
100
AcDbEntity
  8
0
  6
CONTINUOUS
 62
               2
100
AcDbLine
 10
45.399999803161649
 20
80.14966924027128
 30
0.0
 11
37.399999803161649
 21
81.560285085939
 31
0.0
  0
LINE
  5
1FB
100
AcDbEntity
  8
0
  6
CONTINUOUS
 62
               7
100
AcDbLine
 10
59.499999976551919
 20
67.499999999649916
 30
0.0
 11
34.499999604001857
 21
67.499999999649916
 31
0.0
  0
LINE
  5
1FC
100
AcDbEntity
  8
0
  6
CONTINUOUS
 62
               7
100
AcDbLine
 10
59.500000000000057
 20
1.0
 30
0.0
 11
59.499999995698289
 21
13.199999999999989
 31
0.0
  0
LINE
  5
1FD
100
AcDbEntity
  8
0
  6
CONTINUOUS
 62
               7
100
AcDbLine
 10
59.499999993829491
 20
18.5
 30
0.0
 11
59.499999976551919
 21
67.499999999649916
 31
0.0
  0
LINE
  5
1FE
100
AcDbEntity
  8
0
  6
CONTINUOUS
 62
               7
100
AcDbLine
 10
34.499999604001857
 20
59.499999972500007
 30
0.0
 11
34.499999604001857
 21
67.499999999649916
 31
0.0
  0
LINE
  5
1FF
100
AcDbEntity
  8
0
  6
CONTINUOUS
 62
               2
100
AcDbLine
 10
15.499999999999986
 20
64.219220935761129
 30
0.0
 11
15.499999999999986
 21
58.019220948219299
 31
0.0
  0
ENDBLK
  5
200
100
AcDbEntity
  8
0
100
AcDbBlockEnd
  0
BLOCK
  5
201
100
AcDbEntity
  8
0
100
AcDbBlockBegin
  2
MV180-05-DA-F-4
 70
               0
 10
0.0
 20
0.0
 30
0.0
  3
MV180-05-DA-F-4
  1

  0
LINE
  5
202
100
AcDbEntity
  8
0
  6
CONTINUOUS
 62
               7
100
AcDbLine
 10
-6.0000000000001137
 20
43.50000003527667
 30
0.0
 11
-5.9999999999999147
 21
9.5000000000000426
 31
0.0
  0
LINE
  5
203
100
AcDbEntity
  8
0
  6
CONTINUOUS
 62
               7
100
AcDbLine
 10
-28.200000000000017
 20
9.5000000000000426
 30
0.0
 11
-5.9999999999999147
 21
9.5000000000000426
 31
0.0
  0
LINE
  5
204
100
AcDbEntity
  8
0
  6
CONTINUOUS
 62
               7
100
AcDbLine
 10
-28.200000000000017
 20
59.500000000000099
 30
0.0
 11
-18.499999919713559
 21
59.500000000000099
 31
0.0
  0
CIRCLE
  5
205
100
AcDbEntity
  8
0
  6
CONTINUOUS
 62
               7
100
AcDbCircle
 10
-14.099999999999994
 20
15.500000000000043
 30
0.0
 40
3.2499999999999996
  0
LINE
  5
206
100
AcDbEntity
  8
0
  6
CONTINUOUS
 62
               7
100
AcDbLine
 10
-18.241354507353094
 20
42.700000032151408
 30
0.0
 11
-18.239657912179638
 21
42.700000032151408
 31
0.0
  0
LINE
  5
207
100
AcDbEntity
  8
0
  6
CONTINUOUS
 62
               7
100
AcDbLine
 10
-20.282809570837031
 20
26.798224030218464
 30
0.0
 11
-26.117190429165333
 21
26.798224030218464
 31
0.0
  0
LINE
  5
208
100
AcDbEntity
  8
0
  6
CONTINUOUS
 62
               7
100
AcDbLine
 10
-27.585804529871126
 20
26.998224030218452
 30
0.0
 11
-18.814195470128794
 21
26.998224030218452
 31
0.0
  0
LINE
  5
209
100
AcDbEntity
  8
0
  6
CONTINUOUS
 62
               7
100
AcDbLine
 10
-20.282809570837003
 20
28.198224030218441
 30
0.0
 11
-26.117190429162946
 21
28.198224030218441
 31
0.0
  0
LINE
  5
20A
100
AcDbEntity
  8
0
  6
CONTINUOUS
 62
               7
100
AcDbLine
 10
-27.585804529871126
 20
27.998224030218452
 30
0.0
 11
-18.814195470128794
 21
27.998224030218452
 31
0.0
  0
LINE
  5
20B
100
AcDbEntity
  8
0
  6
CONTINUOUS
 62
               7
100
AcDbLine
 10
-28.099999999999966
 20
11.500000000000043
 30
0.0
 11
-18.299999999999955
 21
11.500000000000043
 31
0.0
  0
LINE
  5
20C
100
AcDbEntity
  8
0
  6
CONTINUOUS
 62
               7
100
AcDbLine
 10
-18.299999999999955
 20
34.496448060436919
 30
0.0
 11
-28.099999999999966
 21
34.496448060436919
 31
0.0
  0
ARC
  5
20D
100
AcDbEntity
  8
0
  6
CONTINUOUS
 62
               7
100
AcDbCircle
 10
-23.19999999999996
 20
27.498224030218452
 30
0.0
 40
4.4142135623730958
100
AcDbArc
 50
353.49612214213636
 51
6.5038778578636256
  0
ARC
  5
20E
100
AcDbEntity
  8
0
  6
CONTINUOUS
 62
               7
100
AcDbCircle
 10
-23.19999999999996
 20
27.498224030218452
 30
0.0
 40
4.4142135623730958
100
AcDbArc
 50
173.49612214213639
 51
186.50387785786361
  0
ELLIPSE
  5
20F
100
AcDbEntity
  8
0
  6
CONTINUOUS
 62
               7
100
AcDbEllipse
 10
-18.299999999999955
 20
11.599984769515672
 30
0.0
 11
-0.0713250449154178
 21
0.0713250449154185
 31
0.0
210
0.0
220
0.0
230
1.0
 40
0.9826972631156901
 41
2.3474678439322783
 42
3.9182641707273489
  0
ELLIPSE
  5
210
100
AcDbEntity
  8
0
  6
CONTINUOUS
 62
               7
100
AcDbEllipse
 10
-28.099999999999966
 20
11.599984769515672
 30
0.0
 11
-0.0713250449154178
 21
-0.0713250449154185
 31
0.0
210
0.0
220
0.0
230
1.0
 40
0.9826972631156901
 41
5.5065137900420176
 42
0.7941248096574149
  0
ELLIPSE
  5
211
100
AcDbEntity
  8
0
  6
CONTINUOUS
 62
               7
100
AcDbEllipse
 10
-28.099999999999881
 20
34.39646329092129
 30
0.0
 11
-0.0713250449154178
 21
0.0713250449154185
 31
0.0
210
0.0
220
0.0
230
1.0
 40
0.9826972631156901
 41
5.4890604975233073
 42
0.7766715171364256
  0
ELLIPSE
  5
212
100
AcDbEntity
  8
0
  6
CONTINUOUS
 62
               7
100
AcDbEllipse
 10
-18.299999999999955
 20
34.39646329092129
 30
0.0
 11
-0.0713250449154178
 21
-0.0713250449154185
 31
0.0
210
0.0
220
0.0
230
1.0
 40
0.9826972631156901
 41
2.3649211364522125
 42
3.9357174632472707
  0
LINE
  5
213
100
AcDbEntity
  8
0
  6
CONTINUOUS
 62
               7
100
AcDbLine
 10
-18.599999526313496
 20
34.499999604001957
 30
0.0
 11
-21.199999696213496
 21
34.499999604001957
 31
0.0
  0
LINE
  5
214
100
AcDbEntity
  8
0
  6
CONTINUOUS
 62
               7
100
AcDbLine
 10
-18.499999696365876
 20
34.499999604001957
 30
0.0
 11
-18.599999807988496
 21
34.499999604001957
 31
0.0
  0
ARC
  5
215
100
AcDbEntity
  8
0
  6
CONTINUOUS
 62
               7
100
AcDbCircle
 10
-27.899999696213513
 20
59.19999997655195
 30
0.0
 40
0.3000000000000007
100
AcDbArc
 50
138.18968510421894
 51
179.99999999999994
  0
ARC
  5
216
100
AcDbEntity
  8
0
  6
CONTINUOUS
 62
               7
100
AcDbCircle
 10
-27.89999969621357
 20
59.19999997655195
 30
0.0
 40
0.3
100
AcDbArc
 50
90.000000009708216
 51
138.18968510421132
  0
ARC
  5
217
100
AcDbEntity
  8
0
  6
CONTINUOUS
 62
               7
100
AcDbCircle
 10
-18.499999919713559
 20
59.19999997655195
 30
0.0
 40
0.3000000000000008
100
AcDbArc
 50
0.0
 51
90.000000000005755
  0
ELLIPSE
  5
218
100
AcDbEntity
  8
0
  6
CONTINUOUS
 62
               7
100
AcDbEllipse
 10
-18.299999999999955
 20
11.599984769515672
 30
0.0
 11
-0.0713250449154178
 21
0.0713250449154185
 31
0.0
210
0.0
220
0.0
230
1.0
 40
0.9826972631156901
 41
2.3474678439322783
 42
3.9182641707273489
  0
ELLIPSE
  5
219
100
AcDbEntity
  8
0
  6
CONTINUOUS
 62
               7
100
AcDbEllipse
 10
-28.099999999999966
 20
11.599984769515672
 30
0.0
 11
-0.0713250449154178
 21
-0.0713250449154185
 31
0.0
210
0.0
220
0.0
230
1.0
 40
0.9826972631156901
 41
5.5065137900420176
 42
0.7941248096574149
  0
ELLIPSE
  5
21A
100
AcDbEntity
  8
0
  6
CONTINUOUS
 62
               7
100
AcDbEllipse
 10
-28.099999999999881
 20
34.39646329092129
 30
0.0
 11
-0.0713250449154178
 21
0.0713250449154185
 31
0.0
210
0.0
220
0.0
230
1.0
 40
0.9826972631156901
 41
5.4890604975233073
 42
0.7766715171364256
  0
ELLIPSE
  5
21B
100
AcDbEntity
  8
0
  6
CONTINUOUS
 62
               7
100
AcDbEllipse
 10
-18.299999999999955
 20
34.39646329092129
 30
0.0
 11
-0.0713250449154178
 21
-0.0713250449154185
 31
0.0
210
0.0
220
0.0
230
1.0
 40
0.9826972631156901
 41
2.3649211364522125
 42
3.9357174632472707
  0
LINE
  5
21C
100
AcDbEntity
  8
0
  6
CONTINUOUS
 62
               7
100
AcDbLine
 10
-28.200000000000017
 20
9.5000000000000426
 30
0.0
 11
-28.200000000000017
 21
59.500000000000099
 31
0.0
  0
LINE
  5
21D
100
AcDbEntity
  8
0
  6
CONTINUOUS
 62
               7
100
AcDbLine
 10
-18.200000000000017
 20
23.500000000000043
 30
0.0
 11
-6.0
 21
23.500000000000043
 31
0.0
  0
LINE
  5
21E
100
AcDbEntity
  8
0
  6
CONTINUOUS
 62
               7
100
AcDbLine
 10
-16.0
 20
39.500000000000043
 30
0.0
 11
-16.0
 21
43.50000003527667
 31
0.0
  0
ARC
  5
21F
100
AcDbEntity
  8
0
  6
CONTINUOUS
 62
               7
100
AcDbCircle
 10
-15.899999999999977
 20
41.000000000000043
 30
0.0
 40
0.2
100
AcDbArc
 50
120.0000000000078
 51
180.0
  0
LINE
  5
220
100
AcDbEntity
  8
0
  6
CONTINUOUS
 62
               7
100
AcDbLine
 10
-16.0
 20
42.30000000000004
 30
0.0
 11
-17.199999999999989
 21
42.30000000000004
 31
0.0
  0
LINE
  5
221
100
AcDbEntity
  8
0
  6
CONTINUOUS
 62
               7
100
AcDbLine
 10
-16.0
 20
40.200000000000031
 30
0.0
 11
-17.199999999999989
 21
40.200000000000031
 31
0.0
  0
LINE
  5
222
100
AcDbEntity
  8
0
  6
CONTINUOUS
 62
               7
100
AcDbLine
 10
-18.200000000000017
 20
9.5000000000000426
 30
0.0
 11
-18.199999999999989
 21
65.600000000000037
 31
0.0
  0
LINE
  5
223
100
AcDbEntity
  8
0
  6
CONTINUOUS
 62
               7
100
AcDbLine
 10
-5.9951497239924834
 20
43.50000003527667
 30
0.0
 11
-16.0
 21
43.50000003527667
 31
0.0
  0
LINE
  5
224
100
AcDbEntity
  8
0
  6
CONTINUOUS
 62
               7
100
AcDbLine
 10
-8.1999999999999886
 20
59.100000000000037
 30
0.0
 11
-18.199999999999989
 21
59.100000000000037
 31
0.0
  0
ARC
  5
225
100
AcDbEntity
  8
0
  6
CONTINUOUS
 62
               7
100
AcDbCircle
 10
-17.199999999999989
 20
42.000000000000043
 30
0.0
 40
0.3
100
AcDbArc
 50
90.0
 51
180.0
  0
ARC
  5
226
100
AcDbEntity
  8
0
  6
CONTINUOUS
 62
               7
100
AcDbCircle
 10
-17.199999999999989
 20
40.500000000000043
 30
0.0
 40
0.3
100
AcDbArc
 50
180.0
 51
270.0
  0
LINE
  5
227
100
AcDbEntity
  8
0
  6
CONTINUOUS
 62
               7
100
AcDbLine
 10
-8.1999999999999886
 20
54.500000000000043
 30
0.0
 11
-18.199999999999989
 21
54.500000000000043
 31
0.0
  0
LINE
  5
228
100
AcDbEntity
  8
0
  6
CONTINUOUS
 62
               7
100
AcDbLine
 10
-8.1999999999999886
 20
51.000000000000043
 30
0.0
 11
-18.199999999999989
 21
51.000000000000043
 31
0.0
  0
LINE
  5
229
100
AcDbEntity
  8
0
  6
CONTINUOUS
 62
               7
100
AcDbLine
 10
-16.099999999999966
 20
41.000000000000043
 30
0.0
 11
-16.099999999999966
 21
40.200000000000031
 31
0.0
  0
LINE
  5
22A
100
AcDbEntity
  8
0
  6
CONTINUOUS
 62
               7
100
AcDbLine
 10
-17.5
 20
40.500000000000043
 30
0.0
 11
-17.5
 21
42.000000000000043
 31
0.0
  0
LINE
  5
22B
100
AcDbEntity
  8
0
  6
CONTINUOUS
 62
               7
100
AcDbLine
 10
-18.199999999999989
 20
60.100000000000037
 30
0.0
 11
-8.1999999999999886
 21
60.100000000000037
 31
0.0
  0
CIRCLE
  5
22C
100
AcDbEntity
  8
0
  6
CONTINUOUS
 62
               7
100
AcDbCircle
 10
-14.099999999999994
 20
15.500000000000043
 30
0.0
 40
2.75
  0
LINE
  5
22D
100
AcDbEntity
  8
0
  6
CONTINUOUS
 62
               7
100
AcDbLine
 10
-6.0
 20
36.200000000000031
 30
0.0
 11
-7.5999999999999943
 21
36.200000000000031
 31
0.0
  0
LINE
  5
22E
100
AcDbEntity
  8
0
  6
CONTINUOUS
 62
               7
100
AcDbLine
 10
-9.2999999999999829
 20
37.900000000000077
 30
0.0
 11
-9.2999999999999829
 21
39.500000000000043
 31
0.0
  0
LINE
  5
22F
100
AcDbEntity
  8
0
  6
CONTINUOUS
 62
               7
100
AcDbLine
 10
-16.599999999999994
 20
26.800000000000054
 30
0.0
 11
-18.199999999999989
 21
26.800000000000054
 31
0.0
  0
LINE
  5
230
100
AcDbEntity
  8
0
  6
CONTINUOUS
 62
               7
100
AcDbLine
 10
-14.899999999999977
 20
23.500000000000043
 30
0.0
 11
-14.899999999999977
 21
25.100000000000065
 31
0.0
  0
ARC
  5
231
100
AcDbEntity
  8
0
  6
CONTINUOUS
 62
               7
100
AcDbCircle
 10
-7.5999999999999943
 20
37.900000000000077
 30
0.0
 40
1.6999999999999993
100
AcDbArc
 50
180.0
 51
269.99999999999989
  0
ARC
  5
232
100
AcDbEntity
  8
0
  6
CONTINUOUS
 62
               7
100
AcDbCircle
 10
-16.599999999999994
 20
25.100000000000065
 30
0.0
 40
1.7000000000000002
100
AcDbArc
 50
0.0
 51
90.0
  0
CIRCLE
  5
233
100
AcDbEntity
  8
0
  6
CONTINUOUS
 62
               7
100
AcDbCircle
 10
-7.5999999999999943
 20
37.900000000000077
 30
0.0
 40
1.5
  0
CIRCLE
  5
234
100
AcDbEntity
  8
0
  6
CONTINUOUS
 62
               7
100
AcDbCircle
 10
-16.599999999999994
 20
25.100000000000065
 30
0.0
 40
1.5
  0
CIRCLE
  5
235
100
AcDbEntity
  8
0
  6
CONTINUOUS
 62
               7
100
AcDbCircle
 10
-23.19999999999996
 20
27.498224030218452
 30
0.0
 40
4.5
  0
ARC
  5
236
100
AcDbEntity
  8
0
  6
CONTINUOUS
 62
               7
100
AcDbCircle
 10
-20.291181507978678
 20
26.474248265624411
 30
0.0
 40
1.7239960922922868
100
AcDbArc
 50
62.126096369515686
 51
89.721763551544683
  0
ARC
  5
237
100
AcDbEntity
  8
0
  6
CONTINUOUS
 62
               7
100
AcDbCircle
 10
-20.291181507978678
 20
28.522199794812494
 30
0.0
 40
1.7239960922922868
100
AcDbArc
 50
270.27823644845529
 51
297.87390363048428
  0
ARC
  5
238
100
AcDbEntity
  8
0
  6
CONTINUOUS
 62
               7
100
AcDbCircle
 10
-26.108818492021243
 20
26.474248265624411
 30
0.0
 40
1.7239960922922868
100
AcDbArc
 50
90.278236448455317
 51
117.87390363048432
  0
ARC
  5
239
100
AcDbEntity
  8
0
  6
CONTINUOUS
 62
               7
100
AcDbCircle
 10
-26.108818492021243
 20
28.522199794812494
 30
0.0
 40
1.7239960922922868
100
AcDbArc
 50
242.12609636951572
 51
269.72176355154471
  0
LINE
  5
23A
100
AcDbEntity
  8
0
  6
CONTINUOUS
 62
               7
100
AcDbLine
 10
-8.3278174593051801
 20
37.172182540694891
 30
0.0
 11
-6.8721825406948085
 21
38.627817459305263
 31
0.0
  0
LINE
  5
23B
100
AcDbEntity
  8
0
  6
CONTINUOUS
 62
               7
100
AcDbLine
 10
-8.3278174593051801
 20
38.627817459305263
 30
0.0
 11
-6.8721825406947801
 21
37.172182540694905
 31
0.0
  0
LINE
  5
23C
100
AcDbEntity
  8
0
  6
CONTINUOUS
 62
               7
100
AcDbLine
 10
-17.32781745930518
 20
24.37218254069488
 30
0.0
 11
-15.872182540694808
 21
25.827817459305251
 31
0.0
  0
LINE
  5
23D
100
AcDbEntity
  8
0
  6
CONTINUOUS
 62
               7
100
AcDbLine
 10
-17.32781745930518
 20
25.827817459305251
 30
0.0
 11
-15.87218254069478
 21
24.372182540694894
 31
0.0
  0
LINE
  5
23E
100
AcDbEntity
  8
0
  6
CONTINUOUS
 62
               7
100
AcDbLine
 10
-6.0000000000000853
 20
39.500000000000043
 30
0.0
 11
-18.199999999999989
 21
39.500000000000043
 31
0.0
  0
ARC
  5
23F
100
AcDbEntity
  8
0
  6
CONTINUOUS
 62
               4
100
AcDbCircle
 10
-4.7000000000000171
 20
10.5
 30
0.0
 40
0.5
100
AcDbArc
 50
270.0
 51
0.0
  0
ARC
  5
240
100
AcDbEntity
  8
0
  6
CONTINUOUS
 62
               4
100
AcDbCircle
 10
-4.4000000000000057
 20
12.299999999999997
 30
0.0
 40
0.2
100
AcDbArc
 50
0.0
 51
90.0
  0
LINE
  5
241
100
AcDbEntity
  8
0
  6
CONTINUOUS
 62
             200
100
AcDbLine
 10
0.0
 20
3.2999999999999972
 30
0.0
 11
0.0
 21
-3.2999999999999972
 31
0.0
  0
LINE
  5
242
100
AcDbEntity
  8
0
  6
CONTINUOUS
 62
             200
100
AcDbLine
 10
3.3000000000000114
 20
0.0
 30
0.0
 11
-3.2999999999999829
 21
0.0
 31
0.0
  0
LINE
  5
243
100
AcDbEntity
  8
0
  6
CONTINUOUS
 62
             200
100
AcDbLine
 10
0.0
 20
13.299999999999997
 30
0.0
 11
0.0
 21
6.7000000000000028
 31
0.0
  0
LINE
  5
244
100
AcDbEntity
  8
0
  6
CONTINUOUS
 62
             200
100
AcDbLine
 10
3.3000000000000114
 20
10.0
 30
0.0
 11
-3.2999999999999829
 21
10.0
 31
0.0
  0
ARC
  5
245
100
AcDbEntity
  8
0
  6
CONTINUOUS
 62
               4
100
AcDbCircle
 10
0.0
 20
-0.5
 30
0.0
 40
4.0
100
AcDbArc
 50
270.0
 51
0.0
  0
ARC
  5
246
100
AcDbEntity
  8
0
  6
CONTINUOUS
 62
               4
100
AcDbCircle
 10
0.0
 20
16.499999999999986
 30
0.0
 40
4.0
100
AcDbArc
 50
0.0
 51
90.0
  0
CIRCLE
  5
247
100
AcDbEntity
  8
0
  6
CONTINUOUS
 62
               4
100
AcDbCircle
 10
0.0
 20
0.0
 30
0.0
 40
1.8
  0
CIRCLE
  5
248
100
AcDbEntity
  8
0
  6
CONTINUOUS
 62
               4
100
AcDbCircle
 10
0.0
 20
10.0
 30
0.0
 40
1.8
  0
LINE
  5
249
100
AcDbEntity
  8
0
  6
CONTINUOUS
 62
               4
100
AcDbLine
 10
-6.0
 20
10.0
 30
0.0
 11
-4.7000000000000171
 21
10.0
 31
0.0
  0
LINE
  5
24A
100
AcDbEntity
  8
0
  6
CONTINUOUS
 62
             200
100
AcDbLine
 10
-7.7000000000000171
 20
16.499999999999986
 30
0.0
 11
-0.4512971541956006
 21
16.499999999999986
 31
0.0
  0
LINE
  5
24B
100
AcDbEntity
  8
0
  6
CONTINUOUS
 62
               4
100
AcDbLine
 10
-2.0500000000000114
 20
18.749999999999986
 30
0.0
 11
-1.8000000000000114
 21
18.499999999999986
 31
0.0
  0
LINE
  5
24C
100
AcDbEntity
  8
0
  6
CONTINUOUS
 62
               4
100
AcDbLine
 10
-2.0500000000000114
 20
14.249999999999986
 30
0.0
 11
-1.8000000000000114
 21
14.499999999999986
 31
0.0
  0
LINE
  5
24D
100
AcDbEntity
  8
0
  6
CONTINUOUS
 62
               4
100
AcDbLine
 10
-2.0500000000000114
 20
18.749999999999986
 30
0.0
 11
-2.0500000000000114
 21
14.249999999999986
 31
0.0
  0
LINE
  5
24E
100
AcDbEntity
  8
0
  6
CONTINUOUS
 62
               4
100
AcDbLine
 10
-1.8000000000000114
 20
18.499999999999986
 30
0.0
 11
-1.8000000000000114
 21
14.499999999999986
 31
0.0
  0
LINE
  5
24F
100
AcDbEntity
  8
0
  6
CONTINUOUS
 62
               4
100
AcDbLine
 10
-2.0500000000000114
 20
14.249999999999986
 30
0.0
 11
-4.4000000000000057
 21
14.249999999999986
 31
0.0
  0
LINE
  5
250
100
AcDbEntity
  8
0
  6
CONTINUOUS
 62
               4
100
AcDbLine
 10
-2.0500000000000114
 20
18.749999999999986
 30
0.0
 11
-4.4000000000000057
 21
18.749999999999986
 31
0.0
  0
LINE
  5
251
100
AcDbEntity
  8
0
  6
CONTINUOUS
 62
               4
100
AcDbLine
 10
-6.0
 20
-4.5
 30
0.0
 11
-6.0
 21
9.5000000000000426
 31
0.0
  0
LINE
  5
252
100
AcDbEntity
  8
0
  6
CONTINUOUS
 62
               4
100
AcDbLine
 10
-6.0
 20
-4.5
 30
0.0
 11
0.0
 21
-4.5
 31
0.0
  0
LINE
  5
253
100
AcDbEntity
  8
0
  6
CONTINUOUS
 62
               4
100
AcDbLine
 10
-6.0
 20
12.5
 30
0.0
 11
-4.4000000000000057
 21
12.5
 31
0.0
  0
LINE
  5
254
100
AcDbEntity
  8
0
  6
CONTINUOUS
 62
               4
100
AcDbLine
 10
-5.4999999999999716
 20
20.499999999999986
 30
0.0
 11
0.0
 21
20.499999999999986
 31
0.0
  0
LINE
  5
255
100
AcDbEntity
  8
0
  6
CONTINUOUS
 62
               4
100
AcDbLine
 10
4.0
 20
-0.5
 30
0.0
 11
4.0
 21
16.499999999999986
 31
0.0
  0
LINE
  5
256
100
AcDbEntity
  8
0
  6
CONTINUOUS
 62
               4
100
AcDbLine
 10
-4.2000000000000171
 20
10.5
 30
0.0
 11
-4.2000000000000171
 21
12.299999999999997
 31
0.0
  0
LINE
  5
257
100
AcDbEntity
  8
0
  6
CONTINUOUS
 62
               7
100
AcDbLine
 10
-15.699999999999989
 20
65.600000000000037
 30
0.0
 11
-18.199999999999989
 21
65.600000000000037
 31
0.0
  0
LINE
  5
258
100
AcDbEntity
  8
0
  6
CONTINUOUS
 62
               7
100
AcDbLine
 10
-15.699999999999989
 20
61.100000000000037
 30
0.0
 11
-15.699999999999989
 21
69.600000000000037
 31
0.0
  0
LINE
  5
259
100
AcDbEntity
  8
0
  6
CONTINUOUS
 62
               7
100
AcDbLine
 10
-10.699999999999989
 20
61.100000000000037
 30
0.0
 11
-10.699999999999989
 21
69.600000000000037
 31
0.0
  0
LINE
  5
25A
100
AcDbEntity
  8
0
  6
CONTINUOUS
 62
               7
100
AcDbLine
 10
-8.5
 20
70.600000000000037
 30
0.0
 11
-17.899999999999977
 21
70.600000000000037
 31
0.0
  0
LINE
  5
25B
100
AcDbEntity
  8
0
  6
CONTINUOUS
 62
               7
100
AcDbLine
 10
-16.100000000000023
 20
60.100000000000037
 30
0.0
 11
-16.100000000000023
 21
65.600000000000037
 31
0.0
  0
LINE
  5
25C
100
AcDbEntity
  8
0
  6
CONTINUOUS
 62
               7
100
AcDbLine
 10
-10.300000000000011
 20
60.100000000000037
 30
0.0
 11
-10.300000000000011
 21
65.600000000000037
 31
0.0
  0
LINE
  5
25D
100
AcDbEntity
  8
0
  6
CONTINUOUS
 62
               2
100
AcDbLine
 10
-17.455000000000041
 20
76.39769002703585
 30
0.0
 11
-14.025000000000034
 21
77.002491570865899
 31
0.0
  0
LINE
  5
25E
100
AcDbEntity
  8
0
  6
CONTINUOUS
 62
               2
100
AcDbLine
 10
-17.455000000000041
 20
75.889976716615351
 30
0.0
 11
-14.025000000000034
 21
76.494778260445386
 31
0.0
  0
LINE
  5
25F
100
AcDbEntity
  8
0
  6
CONTINUOUS
 62
               7
100
AcDbLine
 10
-11.375000000000057
 20
77.469758069743321
 30
0.0
 11
-11.375000000000057
 21
81.030000000000044
 31
0.0
  0
LINE
  5
260
100
AcDbEntity
  8
0
  6
CONTINUOUS
 62
               7
100
AcDbLine
 10
-9.94500000000005
 20
77.721905652156437
 30
0.0
 11
-9.94500000000005
 21
81.030000000000044
 31
0.0
  0
LINE
  5
261
100
AcDbEntity
  8
0
  6
CONTINUOUS
 62
               7
100
AcDbLine
 10
-9.94500000000005
 20
70.600000000000037
 30
0.0
 11
-9.94500000000005
 21
77.214192341735924
 31
0.0
  0
LINE
  5
262
100
AcDbEntity
  8
0
  6
CONTINUOUS
 62
               7
100
AcDbLine
 10
-11.375000000000057
 20
70.600000000000037
 30
0.0
 11
-11.375000000000057
 21
76.962044759322822
 31
0.0
  0
LINE
  5
263
100
AcDbEntity
  8
0
  6
CONTINUOUS
 62
               7
100
AcDbLine
 10
-10.335000000000036
 20
81.030000000000044
 30
0.0
 11
-10.335000000000036
 21
86.030000000000044
 31
0.0
  0
LINE
  5
264
100
AcDbEntity
  8
0
  6
CONTINUOUS
 62
               7
100
AcDbLine
 10
-11.135000000000048
 20
81.030000000000044
 30
0.0
 11
-11.135000000000048
 21
86.030000000000044
 31
0.0
  0
LINE
  5
265
100
AcDbEntity
  8
0
  6
CONTINUOUS
 62
               7
100
AcDbLine
 10
-9.94500000000005
 20
81.030000000000044
 30
0.0
 11
-11.375000000000057
 21
81.030000000000044
 31
0.0
  0
LINE
  5
266
100
AcDbEntity
  8
0
  6
CONTINUOUS
 62
               7
100
AcDbLine
 10
-10.335000000000036
 20
86.030000000000044
 30
0.0
 11
-11.135000000000048
 21
86.030000000000044
 31
0.0
  0
LINE
  5
267
100
AcDbEntity
  8
0
  6
CONTINUOUS
 62
               7
100
AcDbLine
 10
-16.455000000000041
 20
76.574017007744317
 30
0.0
 11
-16.455000000000041
 21
81.030000000000044
 31
0.0
  0
LINE
  5
268
100
AcDbEntity
  8
0
  6
CONTINUOUS
 62
               7
100
AcDbLine
 10
-15.025000000000034
 20
76.826164590157433
 30
0.0
 11
-15.025000000000034
 21
81.030000000000044
 31
0.0
  0
LINE
  5
269
100
AcDbEntity
  8
0
  6
CONTINUOUS
 62
               7
100
AcDbLine
 10
-15.025000000000034
 20
70.600000000000037
 30
0.0
 11
-15.025000000000034
 21
76.318451279736919
 31
0.0
  0
LINE
  5
26A
100
AcDbEntity
  8
0
  6
CONTINUOUS
 62
               7
100
AcDbLine
 10
-16.455000000000041
 20
70.600000000000037
 30
0.0
 11
-16.455000000000041
 21
76.066303697323818
 31
0.0
  0
LINE
  5
26B
100
AcDbEntity
  8
0
  6
CONTINUOUS
 62
               7
100
AcDbLine
 10
-16.134999999999991
 20
81.030000000000044
 30
0.0
 11
-16.134999999999991
 21
86.030000000000044
 31
0.0
  0
LINE
  5
26C
100
AcDbEntity
  8
0
  6
CONTINUOUS
 62
               7
100
AcDbLine
 10
-15.335000000000036
 20
81.030000000000044
 30
0.0
 11
-15.335000000000036
 21
86.030000000000044
 31
0.0
  0
LINE
  5
26D
100
AcDbEntity
  8
0
  6
CONTINUOUS
 62
               7
100
AcDbLine
 10
-16.455000000000041
 20
81.030000000000044
 30
0.0
 11
-15.025000000000034
 21
81.030000000000044
 31
0.0
  0
LINE
  5
26E
100
AcDbEntity
  8
0
  6
CONTINUOUS
 62
               7
100
AcDbLine
 10
-16.134999999999991
 20
86.030000000000044
 30
0.0
 11
-15.335000000000036
 21
86.030000000000044
 31
0.0
  0
LINE
  5
26F
100
AcDbEntity
  8
0
  6
CONTINUOUS
 62
               7
100
AcDbLine
 10
-8.1999999999999886
 20
65.600000000000037
 30
0.0
 11
-10.699999999999989
 21
65.600000000000037
 31
0.0
  0
LINE
  5
270
100
AcDbEntity
  8
0
  6
CONTINUOUS
 62
               7
100
AcDbLine
 10
-10.699999999999989
 20
69.600000000000037
 30
0.0
 11
-15.699999999999989
 21
69.600000000000037
 31
0.0
  0
LINE
  5
271
100
AcDbEntity
  8
0
  6
CONTINUOUS
 62
               7
100
AcDbLine
 10
-8.5
 20
65.600000000000037
 30
0.0
 11
-8.5
 21
70.600000000000037
 31
0.0
  0
LINE
  5
272
100
AcDbEntity
  8
0
  6
CONTINUOUS
 62
               7
100
AcDbLine
 10
-15.699999999999989
 20
68.888675134594806
 30
0.0
 11
-10.699999999999989
 21
68.888675134594806
 31
0.0
  0
LINE
  5
273
100
AcDbEntity
  8
0
  6
CONTINUOUS
 62
               7
100
AcDbLine
 10
-15.699999999999989
 20
68.600000000000037
 30
0.0
 11
-10.699999999999989
 21
68.600000000000037
 31
0.0
  0
LINE
  5
274
100
AcDbEntity
  8
0
  6
CONTINUOUS
 62
               7
100
AcDbLine
 10
-9.6000000000000227
 20
65.600000000000037
 30
0.0
 11
-9.6000000000000227
 21
70.600000000000037
 31
0.0
  0
LINE
  5
275
100
AcDbEntity
  8
0
  6
CONTINUOUS
 62
               7
100
AcDbLine
 10
-16.800000000000011
 20
65.600000000000037
 30
0.0
 11
-16.800000000000011
 21
70.600000000000037
 31
0.0
  0
LINE
  5
276
100
AcDbEntity
  8
0
  6
CONTINUOUS
 62
               7
100
AcDbLine
 10
-17.899999999999977
 20
65.600000000000037
 30
0.0
 11
-17.899999999999977
 21
70.600000000000037
 31
0.0
  0
LINE
  5
277
100
AcDbEntity
  8
0
  6
CONTINUOUS
 62
               7
100
AcDbLine
 10
-15.699999999999989
 20
61.966025403784457
 30
0.0
 11
-10.699999999999989
 21
61.966025403784457
 31
0.0
  0
LINE
  5
279
100
AcDbEntity
  8
0
  6
PHANTOM
 62
               7
100
AcDbLine
 10
-13.199999999999989
 20
61.966025403784457
 30
0.0
 11
-11.949999999999989
 21
61.966025403784457
 31
0.0
  0
LINE
  5
27A
100
AcDbEntity
  8
0
  6
CONTINUOUS
 62
               7
100
AcDbLine
 10
-10.699999999999989
 20
61.100000000000037
 30
0.0
 11
-15.699999999999989
 21
61.100000000000037
 31
0.0
  0
LINE
  5
27B
100
AcDbEntity
  8
0
  6
CONTINUOUS
 62
               7
100
AcDbLine
 10
-8.1999999999999886
 20
43.50000003527667
 30
0.0
 11
-8.1999999999999886
 21
65.600000000000037
 31
0.0
  0
LINE
  5
27C
100
AcDbEntity
  8
0
  6
CONTINUOUS
 62
               2
100
AcDbLine
 10
-12.375000000000057
 20
77.293431089034854
 30
0.0
 11
-8.94500000000005
 21
77.898232632864904
 31
0.0
  0
LINE
  5
27D
100
AcDbEntity
  8
0
  6
CONTINUOUS
 62
               2
100
AcDbLine
 10
-12.375000000000057
 20
76.785717778614355
 30
0.0
 11
-8.94500000000005
 21
77.390519322444391
 31
0.0
  0
LINE
  5
27E
100
AcDbEntity
  8
0
  6
CONTINUOUS
 62
               7
100
AcDbLine
 10
-21.199999999999989
 20
43.499999790276874
 30
0.0
 11
-21.199999999999989
 21
59.499999790276874
 31
0.0
  0
LINE
  5
27F
100
AcDbEntity
  8
0
  6
CONTINUOUS
 62
               7
100
AcDbLine
 10
-21.199999999999989
 20
39.499999790276874
 30
0.0
 11
-21.199999999999989
 21
34.499999790276874
 31
0.0
  0
CIRCLE
  5
280
100
AcDbEntity
  8
0
  6
CONTINUOUS
 62
               7
100
AcDbCircle
 10
-21.199999999999989
 20
41.499999790276874
 30
0.0
 40
2.0
  0
CIRCLE
  5
281
100
AcDbEntity
  8
0
  6
CONTINUOUS
 62
               7
100
AcDbCircle
 10
-21.199999999999989
 20
41.499999790276874
 30
0.0
 40
3.0
  0
ARC
  5
282
100
AcDbEntity
  8
0
  6
CONTINUOUS
 62
               4
100
AcDbCircle
 10
-4.9000000000000057
 20
19.999999999999986
 30
0.0
 40
0.5
100
AcDbArc
 50
0.0
 51
90.0
  0
ARC
  5
283
100
AcDbEntity
  8
0
  6
CONTINUOUS
 62
               4
100
AcDbCircle
 10
-5.4999999999999716
 20
19.999999999999986
 30
0.0
 40
0.5
100
AcDbArc
 50
90.0
 51
180.0
  0
LINE
  5
284
100
AcDbEntity
  8
0
  6
CONTINUOUS
 62
               4
100
AcDbLine
 10
-4.4000000000000057
 20
12.5
 30
0.0
 11
-4.4000000000000057
 21
19.999999999999986
 31
0.0
  0
LINE
  5
285
100
AcDbEntity
  8
0
  6
CONTINUOUS
 62
               2
100
AcDbLine
 10
-9.3499999999999943
 20
15.500000000000043
 30
0.0
 11
-18.849999999999994
 21
15.500000000000043
 31
0.0
  0
LINE
  5
286
100
AcDbEntity
  8
0
  6
CONTINUOUS
 62
               2
100
AcDbLine
 10
-14.099999999999994
 20
20.250000000000043
 30
0.0
 11
-14.099999999999994
 21
10.750000000000043
 31
0.0
  0
ENDBLK
  5
287
100
AcDbEntity
  8
0
100
AcDbBlockEnd
  0
BLOCK
  5
288
100
AcDbEntity
  8
0
100
AcDbBlockBegin
  2
MV180-05-DA-F-5
 70
               0
 10
0.0
 20
0.0
 30
0.0
  3
MV180-05-DA-F-5
  1

  0
LINE
  5
289
100
AcDbEntity
  8
0
  6
CONTINUOUS
 62
               7
100
AcDbLine
 10
9.3000000000000114
 20
58.800000000000011
 30
0.0
 11
9.3000000000000114
 21
59.5
 31
0.0
  0
ARC
  5
28A
100
AcDbEntity
  8
0
  6
CONTINUOUS
 62
               7
100
AcDbCircle
 10
8.9976202682213966
 20
58.881593465285789
 30
0.0
 40
0.2
100
AcDbArc
 50
3.3411512917008754
 51
59.398286179201087
  0
LINE
  5
28B
100
AcDbEntity
  8
0
  6
CONTINUOUS
 62
               7
100
AcDbLine
 10
9.3000000000000114
 20
58.800000000000011
 30
0.0
 11
7.599999966987923
 21
58.800000000000011
 31
0.0
  0
LINE
  5
28C
100
AcDbEntity
  8
0
  6
CONTINUOUS
 62
               7
100
AcDbLine
 10
7.599999966987923
 20
58.800000000000011
 30
0.0
 11
5.9999999669879003
 21
58.800000000000011
 31
0.0
  0
ARC
  5
28D
100
AcDbEntity
  8
0
  6
CONTINUOUS
 62
               7
100
AcDbCircle
 10
16.600000033011099
 20
58.799999999999983
 30
0.0
 40
1.6000000000000001
100
AcDbArc
 50
0.0
 51
3.3411512916990844
  0
ARC
  5
28E
100
AcDbEntity
  8
0
  6
CONTINUOUS
 62
               7
100
AcDbCircle
 10
6.2023796657544494
 20
58.881593465285789
 30
0.0
 40
0.2
100
AcDbArc
 50
120.60171382079891
 51
176.65884870829913
  0
LINE
  5
28F
100
AcDbEntity
  8
0
  6
CONTINUOUS
 62
               7
100
AcDbLine
 10
8.2000000330119747
 20
1.7000000000000455
 30
0.0
 11
7.6000000330120656
 21
1.7000000000000455
 31
0.0
  0
LINE
  5
290
100
AcDbEntity
  8
0
  6
CONTINUOUS
 62
               7
100
AcDbLine
 10
7.6000000330120656
 20
1.7000000000000455
 30
0.0
 11
6.0000000330120429
 21
1.7000000000000739
 31
0.0
  0
ARC
  5
291
100
AcDbEntity
  8
0
  6
CONTINUOUS
 62
               7
100
AcDbCircle
 10
7.6000000330120656
 20
1.7000000000000455
 30
0.0
 40
1.6000000000000001
100
AcDbArc
 50
180.0
 51
183.34115129169891
  0
ARC
  5
292
100
AcDbEntity
  8
0
  6
CONTINUOUS
 62
               7
100
AcDbCircle
 10
6.2023797317775688
 20
1.6184065347142109
 30
0.0
 40
0.2
100
AcDbArc
 50
183.34115129169879
 51
239.39828617920105
  0
ARC
  5
293
100
AcDbEntity
  8
0
  6
CONTINUOUS
 62
               7
100
AcDbCircle
 10
8.5000000330119576
 20
1.3000000000000682
 30
0.0
 40
0.3
100
AcDbArc
 50
180.0
 51
270.0
  0
LINE
  5
294
100
AcDbEntity
  8
0
  6
CONTINUOUS
 62
               7
100
AcDbLine
 10
10.849999999999966
 20
62.219220935761101
 30
0.0
 11
11.349999999999966
 21
62.719220935761115
 31
0.0
  0
LINE
  5
295
100
AcDbEntity
  8
0
  6
CONTINUOUS
 62
               7
100
AcDbLine
 10
10.849999999999966
 20
59.519220935761112
 30
0.0
 11
10.849999999999966
 21
62.219220935761101
 31
0.0
  0
LINE
  5
296
100
AcDbEntity
  8
0
  6
CONTINUOUS
 62
               7
100
AcDbLine
 10
17.349999999999966
 20
62.219220935761101
 30
0.0
 11
16.849999999999966
 21
62.719220935761115
 31
0.0
  0
LINE
  5
297
100
AcDbEntity
  8
0
  6
CONTINUOUS
 62
               7
100
AcDbLine
 10
10.849999999999966
 20
62.219220935761101
 30
0.0
 11
17.349999999999966
 21
62.219220935761101
 31
0.0
  0
LINE
  5
298
100
AcDbEntity
  8
0
  6
CONTINUOUS
 62
               7
100
AcDbLine
 10
16.849999999999966
 20
62.719220935761115
 30
0.0
 11
11.349999999999966
 21
62.719220935761115
 31
0.0
  0
LINE
  5
299
100
AcDbEntity
  8
0
  6
CONTINUOUS
 62
               7
100
AcDbLine
 10
17.349999999999966
 20
59.5
 30
0.0
 11
17.349999999999966
 21
62.219220935761101
 31
0.0
  0
LINE
  5
29A
100
AcDbEntity
  8
0
  6
CONTINUOUS
 62
               7
100
AcDbLine
 10
5.9999999999999432
 20
46.999999999999915
 30
0.0
 11
15.999999999999943
 21
46.999999999999915
 31
0.0
  0
LINE
  5
29B
100
AcDbEntity
  8
0
  6
CONTINUOUS
 62
               7
100
AcDbLine
 10
5.9999999999999432
 20
59.5
 30
0.0
 11
6.0
 21
1.0
 31
0.0
  0
ARC
  5
29C
100
AcDbEntity
  8
0
  6
CONTINUOUS
 62
               7
100
AcDbCircle
 10
16.599999999999966
 20
39.000000027499908
 30
0.0
 40
1.6999999999999993
100
AcDbArc
 50
90.0
 51
110.66731649351347
  0
ARC
  5
29D
100
AcDbEntity
  8
0
  6
CONTINUOUS
 62
               7
100
AcDbCircle
 10
7.5999999999999659
 20
27.499999972499864
 30
0.0
 40
1.6999999999999993
100
AcDbArc
 50
270.0
 51
290.66731649351345
  0
LINE
  5
29E
100
AcDbEntity
  8
0
  6
CONTINUOUS
 62
               7
100
AcDbLine
 10
16.599999999999966
 20
37.300000027499919
 30
0.0
 11
18.19999999999996
 21
37.300000027499919
 31
0.0
  0
LINE
  5
29F
100
AcDbEntity
  8
0
  6
CONTINUOUS
 62
               7
100
AcDbLine
 10
18.19999999999996
 20
40.700000027499954
 30
0.0
 11
16.599999999999966
 21
40.700000027499954
 31
0.0
  0
LINE
  5
2A0
100
AcDbEntity
  8
0
  6
CONTINUOUS
 62
               7
100
AcDbLine
 10
18.19999999999996
 20
50.999999999999915
 30
0.0
 11
5.9999999999999432
 21
50.999999999999915
 31
0.0
  0
LINE
  5
2A1
100
AcDbEntity
  8
0
  6
CONTINUOUS
 62
               7
100
AcDbLine
 10
7.5999999999999659
 20
29.19999997249991
 30
0.0
 11
6.0
 21
29.19999997249991
 31
0.0
  0
LINE
  5
2A2
100
AcDbEntity
  8
0
  6
CONTINUOUS
 62
               7
100
AcDbLine
 10
6.0
 20
25.799999972499876
 30
0.0
 11
7.5999999999999659
 21
25.799999972499876
 31
0.0
  0
LINE
  5
2A3
100
AcDbEntity
  8
0
  6
CONTINUOUS
 62
               7
100
AcDbLine
 10
8.1999999999999886
 20
9.4999999999999716
 30
0.0
 11
5.9999999999999716
 21
9.4999999999999716
 31
0.0
  0
LINE
  5
2A4
100
AcDbEntity
  8
0
  6
CONTINUOUS
 62
               7
100
AcDbLine
 10
5.9999999999999432
 20
1.0
 30
0.0
 11
28.19999999999996
 21
1.0
 31
0.0
  0
LINE
  5
2A5
100
AcDbEntity
  8
0
  6
CONTINUOUS
 62
               7
100
AcDbLine
 10
18.19999999999996
 20
68.0
 30
0.0
 11
18.19999999999996
 21
1.0
 31
0.0
  0
LINE
  5
2A6
100
AcDbEntity
  8
0
  6
CONTINUOUS
 62
               7
100
AcDbLine
 10
14.499999999999943
 20
43.599999999999909
 30
0.0
 11
15.999999999999943
 21
43.599999999999923
 31
0.0
  0
LINE
  5
2A7
100
AcDbEntity
  8
0
  6
CONTINUOUS
 62
               7
100
AcDbLine
 10
15.999999999999943
 20
40.39999999999992
 30
0.0
 11
14.499999999999943
 21
40.39999999999992
 31
0.0
  0
LINE
  5
2A8
100
AcDbEntity
  8
0
  6
CONTINUOUS
 62
               7
100
AcDbLine
 10
7.4999999999999432
 20
40.39999999999992
 30
0.0
 11
5.9999999999999432
 21
40.39999999999992
 31
0.0
  0
LINE
  5
2A9
100
AcDbEntity
  8
0
  6
CONTINUOUS
 62
               7
100
AcDbLine
 10
5.9999999999999432
 20
43.599999999999923
 30
0.0
 11
7.4999999999999432
 21
43.599999999999923
 31
0.0
  0
ARC
  5
2AA
100
AcDbEntity
  8
0
  6
CONTINUOUS
 62
               7
100
AcDbCircle
 10
7.4999999999999432
 20
41.999999999999915
 30
0.0
 40
1.6000000000000001
100
AcDbArc
 50
270.0
 51
90.0
  0
ARC
  5
2AB
100
AcDbEntity
  8
0
  6
CONTINUOUS
 62
               7
100
AcDbCircle
 10
14.499999999999943
 20
41.999999999999915
 30
0.0
 40
1.6000000000000001
100
AcDbArc
 50
90.0
 51
270.0
  0
LINE
  5
2AC
100
AcDbEntity
  8
0
  6
CONTINUOUS
 62
               7
100
AcDbLine
 10
15.999999999999943
 20
46.999999999999915
 30
0.0
 11
15.999999999999943
 21
33.499999999999915
 31
0.0
  0
CIRCLE
  5
2AD
100
AcDbEntity
  8
0
  6
CONTINUOUS
 62
               7
100
AcDbCircle
 10
7.4999999999999432
 20
41.999999999999915
 30
0.0
 40
1.5
  0
LINE
  5
2AE
100
AcDbEntity
  8
0
  6
CONTINUOUS
 62
               7
100
AcDbLine
 10
6.7928932188133899
 20
41.292893218813376
 30
0.0
 11
8.2071067811864964
 21
42.707106781186468
 31
0.0
  0
LINE
  5
2AF
100
AcDbEntity
  8
0
  6
CONTINUOUS
 62
               7
100
AcDbLine
 10
6.7928932188133899
 20
42.707106781186468
 30
0.0
 11
8.2071067811864964
 21
41.292893218813376
 31
0.0
  0
LINE
  5
2B0
100
AcDbEntity
  8
0
  6
CONTINUOUS
 62
               7
100
AcDbLine
 10
15.207106781186496
 20
42.707106781186468
 30
0.0
 11
13.79289321881339
 21
41.292893218813376
 31
0.0
  0
LINE
  5
2B1
100
AcDbEntity
  8
0
  6
CONTINUOUS
 62
               7
100
AcDbLine
 10
15.207106781186496
 20
41.292893218813361
 30
0.0
 11
13.79289321881339
 21
42.707106781186468
 31
0.0
  0
CIRCLE
  5
2B2
100
AcDbEntity
  8
0
  6
CONTINUOUS
 62
               7
100
AcDbCircle
 10
14.499999999999943
 20
41.999999999999915
 30
0.0
 40
1.5
  0
LINE
  5
2B3
100
AcDbEntity
  8
0
  6
CONTINUOUS
 62
               7
100
AcDbLine
 10
15.999999999999943
 20
33.499999999999915
 30
0.0
 11
5.9999999999999432
 21
33.499999999999915
 31
0.0
  0
LINE
  5
2B4
100
AcDbEntity
  8
0
  6
CONTINUOUS
 62
               7
100
AcDbLine
 10
15.594370406123886
 20
27.040817451771076
 30
0.0
 11
15.849999999999994
 21
26.599999999999909
 31
0.0
  0
LINE
  5
2B5
100
AcDbEntity
  8
0
  6
CONTINUOUS
 62
               7
100
AcDbLine
 10
10.549999999999983
 20
26.599999999999909
 30
0.0
 11
10.805629593876091
 21
27.040817451771076
 31
0.0
  0
LINE
  5
2B6
100
AcDbEntity
  8
0
  6
CONTINUOUS
 62
               7
100
AcDbLine
 10
14.344370406123886
 20
25.790817451771076
 30
0.0
 11
14.599999999999994
 21
25.349999999999909
 31
0.0
  0
LINE
  5
2B7
100
AcDbEntity
  8
0
  6
CONTINUOUS
 62
               7
100
AcDbLine
 10
15.849999999999994
 20
26.599999999999909
 30
0.0
 11
14.599999999999994
 21
25.349999999999909
 31
0.0
  0
LINE
  5
2B8
100
AcDbEntity
  8
0
  6
CONTINUOUS
 62
               7
100
AcDbLine
 10
14.344370406123886
 20
25.790817451771076
 30
0.0
 11
15.594370406123886
 21
27.040817451771076
 31
0.0
  0
LINE
  5
2B9
100
AcDbEntity
  8
0
  6
CONTINUOUS
 62
               7
100
AcDbLine
 10
12.055629593876091
 20
25.790817451771076
 30
0.0
 11
11.799999999999983
 21
25.349999999999909
 31
0.0
  0
LINE
  5
2BA
100
AcDbEntity
  8
0
  6
CONTINUOUS
 62
               7
100
AcDbLine
 10
8.1999999999999886
 20
19.909182548228742
 30
0.0
 11
18.199999999999989
 21
19.909182548228756
 31
0.0
  0
LINE
  5
2BB
100
AcDbEntity
  8
0
  6
CONTINUOUS
 62
               7
100
AcDbLine
 10
12.055629593876091
 20
25.790817451771076
 30
0.0
 11
10.805629593876091
 21
27.040817451771076
 31
0.0
  0
LINE
  5
2BC
100
AcDbEntity
  8
0
  6
CONTINUOUS
 62
               7
100
AcDbLine
 10
8.1999999999999886
 20
27.040817451771076
 30
0.0
 11
10.805629593876091
 21
27.040817451771076
 31
0.0
  0
LINE
  5
2BD
100
AcDbEntity
  8
0
  6
CONTINUOUS
 62
               7
100
AcDbLine
 10
15.594370406123886
 20
27.040817451771076
 30
0.0
 11
18.199999999999989
 21
27.040817451771076
 31
0.0
  0
LINE
  5
2BE
100
AcDbEntity
  8
0
  6
CONTINUOUS
 62
               7
100
AcDbLine
 10
14.344370406123886
 20
25.790817451771076
 30
0.0
 11
12.055629593876091
 21
25.790817451771076
 31
0.0
  0
LINE
  5
2BF
100
AcDbEntity
  8
0
  6
CONTINUOUS
 62
               7
100
AcDbLine
 10
8.1999999999999602
 20
26.599999999999923
 30
0.0
 11
10.549999999999983
 21
26.599999999999909
 31
0.0
  0
LINE
  5
2C0
100
AcDbEntity
  8
0
  6
CONTINUOUS
 62
               7
100
AcDbLine
 10
10.549999999999983
 20
26.599999999999909
 30
0.0
 11
11.799999999999983
 21
25.349999999999909
 31
0.0
  0
LINE
  5
2C1
100
AcDbEntity
  8
0
  6
CONTINUOUS
 62
               7
100
AcDbLine
 10
14.599999999999994
 20
25.349999999999909
 30
0.0
 11
11.799999999999983
 21
25.349999999999909
 31
0.0
  0
LINE
  5
2C2
100
AcDbEntity
  8
0
  6
CONTINUOUS
 62
               7
100
AcDbLine
 10
15.849999999999994
 20
26.599999999999909
 30
0.0
 11
18.199999999999989
 21
26.599999999999909
 31
0.0
  0
CIRCLE
  5
2C3
100
AcDbEntity
  8
0
  6
CONTINUOUS
 62
               7
100
AcDbCircle
 10
13.199999999999989
 20
22.749999999999915
 30
0.0
 40
2.0500000000000003
  0
LINE
  5
2C4
100
AcDbEntity
  8
0
  6
CONTINUOUS
 62
               7
100
AcDbLine
 10
18.199999999999989
 20
19.098078436969814
 30
0.0
 11
8.1999999999999886
 21
19.098078436969814
 31
0.0
  0
LINE
  5
2C5
100
AcDbEntity
  8
0
  6
CONTINUOUS
 62
               7
100
AcDbLine
 10
9.6999999999999886
 20
22.89999999999992
 30
0.0
 11
8.1999999999999886
 21
22.899999999999906
 31
0.0
  0
LINE
  5
2C6
100
AcDbEntity
  8
0
  6
CONTINUOUS
 62
               7
100
AcDbLine
 10
8.1999999999999886
 20
26.099999999999909
 30
0.0
 11
9.6999999999999886
 21
26.099999999999909
 31
0.0
  0
LINE
  5
2C7
100
AcDbEntity
  8
0
  6
CONTINUOUS
 62
               7
100
AcDbLine
 10
16.699999999999989
 20
26.099999999999909
 30
0.0
 11
18.199999999999989
 21
26.099999999999909
 31
0.0
  0
LINE
  5
2C8
100
AcDbEntity
  8
0
  6
CONTINUOUS
 62
               7
100
AcDbLine
 10
18.199999999999989
 20
22.89999999999992
 30
0.0
 11
16.699999999999989
 21
22.89999999999992
 31
0.0
  0
ARC
  5
2C9
100
AcDbEntity
  8
0
  6
CONTINUOUS
 62
               7
100
AcDbCircle
 10
16.699999999999989
 20
24.499999999999915
 30
0.0
 40
1.6000000000000001
100
AcDbArc
 50
90.0
 51
270.0
  0
ARC
  5
2CA
100
AcDbEntity
  8
0
  6
CONTINUOUS
 62
               7
100
AcDbCircle
 10
9.6999999999999886
 20
24.499999999999915
 30
0.0
 40
1.6000000000000001
100
AcDbArc
 50
270.0
 51
90.0
  0
LINE
  5
2CB
100
AcDbEntity
  8
0
  6
CONTINUOUS
 62
               7
100
AcDbLine
 10
8.1999999999999886
 20
0.9999999999999147
 30
0.0
 11
8.1999999999999886
 21
32.999999999999915
 31
0.0
  0
CIRCLE
  5
2CC
100
AcDbEntity
  8
0
  6
CONTINUOUS
 62
               7
100
AcDbCircle
 10
13.199999999999989
 20
22.749999999999915
 30
0.0
 40
1.9000000000000001
  0
ARC
  5
2CD
100
AcDbEntity
  8
0
  6
CONTINUOUS
 62
               7
100
AcDbCircle
 10
17.900000000000006
 20
1.2999999999998977
 30
0.0
 40
0.3
100
AcDbArc
 50
270.0
 51
0.0
  0
LINE
  5
2CE
100
AcDbEntity
  8
0
  6
CONTINUOUS
 62
               2
100
AcDbLine
 10
11.699999999999989
 20
5.9999999999999147
 30
0.0
 11
11.699999999999989
 21
0.9999999999999147
 31
0.0
  0
LINE
  5
2CF
100
AcDbEntity
  8
0
  6
CONTINUOUS
 62
               2
100
AcDbLine
 10
14.699999999999989
 20
5.9999999999999147
 30
0.0
 11
14.699999999999989
 21
0.9999999999999147
 31
0.0
  0
LINE
  5
2D0
100
AcDbEntity
  8
0
  6
CONTINUOUS
 62
               2
100
AcDbLine
 10
14.699999999999989
 20
5.9999999999999147
 30
0.0
 11
11.699999999999989
 21
5.9999999999999147
 31
0.0
  0
LINE
  5
2D1
100
AcDbEntity
  8
0
  6
CONTINUOUS
 62
               7
100
AcDbLine
 10
11.37448637364713
 20
23.049999999999912
 30
0.0
 11
15.025513626352875
 21
23.049999999999912
 31
0.0
  0
LINE
  5
2D2
100
AcDbEntity
  8
0
  6
CONTINUOUS
 62
               7
100
AcDbLine
 10
11.37448637364713
 20
22.449999999999918
 30
0.0
 11
15.025513626352875
 21
22.449999999999918
 31
0.0
  0
CIRCLE
  5
2D3
100
AcDbEntity
  8
0
  6
CONTINUOUS
 62
               7
100
AcDbCircle
 10
13.199999999999989
 20
22.749999999999915
 30
0.0
 40
1.8500000000000001
  0
ARC
  5
2D4
100
AcDbEntity
  8
0
  6
CONTINUOUS
 62
               7
100
AcDbCircle
 10
13.199999999999989
 20
22.749999999999915
 30
0.0
 40
0.8
100
AcDbArc
 50
202.0243128370422
 51
337.97568716295791
  0
ARC
  5
2D5
100
AcDbEntity
  8
0
  6
CONTINUOUS
 62
               7
100
AcDbCircle
 10
13.199999999999989
 20
22.749999999999915
 30
0.0
 40
0.8
100
AcDbArc
 50
22.024312837042206
 51
157.97568716295788
  0
CIRCLE
  5
2D6
100
AcDbEntity
  8
0
  6
CONTINUOUS
 62
               7
100
AcDbCircle
 10
16.699999999999989
 20
24.499999999999915
 30
0.0
 40
1.5
  0
LINE
  5
2D7
100
AcDbEntity
  8
0
  6
CONTINUOUS
 62
               7
100
AcDbLine
 10
17.407106781186542
 20
25.207106781186468
 30
0.0
 11
15.992893218813435
 21
23.792893218813361
 31
0.0
  0
LINE
  5
2D8
100
AcDbEntity
  8
0
  6
CONTINUOUS
 62
               7
100
AcDbLine
 10
17.407106781186542
 20
23.792893218813361
 30
0.0
 11
15.992893218813435
 21
25.207106781186468
 31
0.0
  0
LINE
  5
2D9
100
AcDbEntity
  8
0
  6
CONTINUOUS
 62
               7
100
AcDbLine
 10
8.9928932188134354
 20
23.792893218813361
 30
0.0
 11
10.407106781186542
 21
25.207106781186468
 31
0.0
  0
LINE
  5
2DA
100
AcDbEntity
  8
0
  6
CONTINUOUS
 62
               7
100
AcDbLine
 10
8.9928932188134354
 20
25.207106781186468
 30
0.0
 11
10.407106781186542
 21
23.792893218813361
 31
0.0
  0
CIRCLE
  5
2DB
100
AcDbEntity
  8
0
  6
CONTINUOUS
 62
               7
100
AcDbCircle
 10
9.6999999999999886
 20
24.499999999999915
 30
0.0
 40
1.5
  0
LINE
  5
2DC
100
AcDbEntity
  8
0
  6
CONTINUOUS
 62
               7
100
AcDbLine
 10
8.1999999999999886
 20
32.999999999999915
 30
0.0
 11
18.199999999999989
 21
32.999999999999915
 31
0.0
  0
ARC
  5
2DD
100
AcDbEntity
  8
0
  6
CONTINUOUS
 62
               7
100
AcDbCircle
 10
16.599999999999966
 20
39.000000027499908
 30
0.0
 40
1.6999999999999993
100
AcDbArc
 50
249.33268350648655
 51
270.0
  0
ARC
  5
2DE
100
AcDbEntity
  8
0
  6
CONTINUOUS
 62
               7
100
AcDbCircle
 10
7.5999999999999659
 20
27.499999972499864
 30
0.0
 40
1.6999999999999993
100
AcDbArc
 50
69.332683506486546
 51
90.0
  0
LINE
  5
2DF
100
AcDbEntity
  8
0
  6
CONTINUOUS
 62
               7
100
AcDbLine
 10
17.307106781186519
 20
39.707106808686461
 30
0.0
 11
15.999999999999943
 21
38.400000027499885
 31
0.0
  0
LINE
  5
2E0
100
AcDbEntity
  8
0
  6
CONTINUOUS
 62
               7
100
AcDbLine
 10
17.307106781186519
 20
38.292893246313355
 30
0.0
 11
15.999999999999943
 21
39.600000027499931
 31
0.0
  0
ARC
  5
2E1
100
AcDbEntity
  8
0
  6
CONTINUOUS
 62
               7
100
AcDbCircle
 10
16.599999999999966
 20
39.000000027499908
 30
0.0
 40
1.5
100
AcDbArc
 50
246.4218215217972
 51
113.57817847820279
  0
LINE
  5
2E2
100
AcDbEntity
  8
0
  6
CONTINUOUS
 62
               7
100
AcDbLine
 10
8.1999999999999886
 20
28.099999972499887
 30
0.0
 11
6.8928932188134127
 21
26.792893191313311
 31
0.0
  0
LINE
  5
2E3
100
AcDbEntity
  8
0
  6
CONTINUOUS
 62
               7
100
AcDbLine
 10
8.1999999999999886
 20
26.899999972499842
 30
0.0
 11
6.8928932188134127
 21
28.207106753686418
 31
0.0
  0
ARC
  5
2E4
100
AcDbEntity
  8
0
  6
CONTINUOUS
 62
               7
100
AcDbCircle
 10
7.5999999999999659
 20
27.499999972499864
 30
0.0
 40
1.5
100
AcDbArc
 50
66.421821521797213
 51
293.5781784782028
  0
LINE
  5
2E5
100
AcDbEntity
  8
0
  6
CONTINUOUS
 62
               7
100
AcDbLine
 10
5.9999999999999432
 20
59.5
 30
0.0
 11
18.19999999999996
 21
59.5
 31
0.0
  0
ARC
  5
2E6
100
AcDbEntity
  8
0
  6
CONTINUOUS
 62
               7
100
AcDbCircle
 10
7.6000000330120088
 20
3.7421728535498602
 30
0.0
 40
2.7421728535500236
100
AcDbArc
 50
236.85190481115438
 51
282.63882966643098
  0
ARC
  5
2E7
100
AcDbEntity
  8
0
  6
CONTINUOUS
 62
               7
100
AcDbCircle
 10
7.599999966987923
 20
56.757827146452314
 30
0.0
 40
2.7421728535476921
100
AcDbArc
 50
56.851904811146724
 51
123.14809518885328
  0
LINE
  5
2E8
100
AcDbEntity
  8
0
  6
CONTINUOUS
 62
               7
100
AcDbLine
 10
9.1972803112549002
 20
58.893249674612349
 30
0.0
 11
9.1972803112549002
 21
58.800000000000011
 31
0.0
  0
LINE
  5
2E9
100
AcDbEntity
  8
0
  6
CONTINUOUS
 62
               4
100
AcDbLine
 10
6.0
 20
0.5
 30
0.0
 11
6.0
 21
1.0
 31
0.0
  0
LINE
  5
2EA
100
AcDbEntity
  8
0
  6
CONTINUOUS
 62
             200
100
AcDbLine
 10
0.0
 20
-1.6999999999999886
 30
0.0
 11
0.0
 21
3.3000000000000114
 31
0.0
  0
LINE
  5
2EB
100
AcDbEntity
  8
0
  6
CONTINUOUS
 62
             200
100
AcDbLine
 10
7.7000000000000171
 20
19.0
 30
0.0
 11
0.4512971541956006
 21
19.0
 31
0.0
  0
LINE
  5
2EC
100
AcDbEntity
  8
0
  6
CONTINUOUS
 62
             200
100
AcDbLine
 10
7.7000000000000171
 20
6.0
 30
0.0
 11
0.4512971541956006
 21
6.0
 31
0.0
  0
ARC
  5
2ED
100
AcDbEntity
  8
0
  6
CONTINUOUS
 62
               4
100
AcDbCircle
 10
5.5
 20
0.5
 30
0.0
 40
0.5
100
AcDbArc
 50
270.0
 51
0.0
  0
ARC
  5
2EE
100
AcDbEntity
  8
0
  6
CONTINUOUS
 62
               4
100
AcDbCircle
 10
4.0
 20
2.0
 30
0.0
 40
0.4
100
AcDbArc
 50
270.0
 51
0.0
  0
ARC
  5
2EF
100
AcDbEntity
  8
0
  6
CONTINUOUS
 62
               4
100
AcDbCircle
 10
-3.5
 20
0.5
 30
0.0
 40
0.5
100
AcDbArc
 50
180.0
 51
270.0
  0
ARC
  5
2F0
100
AcDbEntity
  8
0
  6
CONTINUOUS
 62
               4
100
AcDbCircle
 10
-3.5
 20
1.0999999999999943
 30
0.0
 40
0.5
100
AcDbArc
 50
90.0
 51
180.0
  0
ARC
  5
2F1
100
AcDbEntity
  8
0
  6
CONTINUOUS
 62
               4
100
AcDbCircle
 10
4.9000000000000057
 20
22.5
 30
0.0
 40
0.5
100
AcDbArc
 50
90.0
 51
180.0
  0
ARC
  5
2F2
100
AcDbEntity
  8
0
  6
CONTINUOUS
 62
               4
100
AcDbCircle
 10
5.5
 20
22.5
 30
0.0
 40
0.5
100
AcDbArc
 50
0.0
 51
90.0
  0
LINE
  5
2F3
100
AcDbEntity
  8
0
  6
CONTINUOUS
 62
               4
100
AcDbLine
 10
5.5
 20
23.0
 30
0.0
 11
4.9000000000000057
 21
23.0
 31
0.0
  0
LINE
  5
2F4
100
AcDbEntity
  8
0
  6
CONTINUOUS
 62
               4
100
AcDbLine
 10
-3.5
 20
1.5999999999999943
 30
0.0
 11
4.0
 21
1.5999999999999943
 31
0.0
  0
LINE
  5
2F5
100
AcDbEntity
  8
0
  6
CONTINUOUS
 62
               4
100
AcDbLine
 10
-3.5
 20
0.0
 30
0.0
 11
5.5
 21
0.0
 31
0.0
  0
LINE
  5
2F6
100
AcDbEntity
  8
0
  6
CONTINUOUS
 62
               4
100
AcDbLine
 10
4.4000000000000057
 20
22.5
 30
0.0
 11
4.4000000000000057
 21
2.0
 31
0.0
  0
LINE
  5
2F7
100
AcDbEntity
  8
0
  6
CONTINUOUS
 62
               4
100
AcDbLine
 10
-4.0
 20
1.0999999999999943
 30
0.0
 11
-4.0
 21
0.5
 31
0.0
  0
LINE
  5
2F8
100
AcDbEntity
  8
0
  6
CONTINUOUS
 62
               4
100
AcDbLine
 10
2.0500000000000114
 20
21.25
 30
0.0
 11
1.8000000000000114
 21
21.0
 31
0.0
  0
LINE
  5
2F9
100
AcDbEntity
  8
0
  6
CONTINUOUS
 62
               4
100
AcDbLine
 10
2.0500000000000114
 20
16.75
 30
0.0
 11
1.8000000000000114
 21
17.0
 31
0.0
  0
LINE
  5
2FA
100
AcDbEntity
  8
0
  6
CONTINUOUS
 62
               4
100
AcDbLine
 10
2.0500000000000114
 20
21.25
 30
0.0
 11
2.0500000000000114
 21
16.75
 31
0.0
  0
LINE
  5
2FB
100
AcDbEntity
  8
0
  6
CONTINUOUS
 62
               4
100
AcDbLine
 10
1.8000000000000114
 20
21.0
 30
0.0
 11
1.8000000000000114
 21
17.0
 31
0.0
  0
LINE
  5
2FC
100
AcDbEntity
  8
0
  6
CONTINUOUS
 62
               4
100
AcDbLine
 10
2.0500000000000114
 20
21.25
 30
0.0
 11
4.4000000000000057
 21
21.25
 31
0.0
  0
LINE
  5
2FD
100
AcDbEntity
  8
0
  6
CONTINUOUS
 62
               4
100
AcDbLine
 10
2.0500000000000114
 20
16.75
 30
0.0
 11
4.4000000000000057
 21
16.75
 31
0.0
  0
LINE
  5
2FE
100
AcDbEntity
  8
0
  6
CONTINUOUS
 62
               4
100
AcDbLine
 10
2.0500000000000114
 20
3.75
 30
0.0
 11
4.4000000000000057
 21
3.75
 31
0.0
  0
LINE
  5
2FF
100
AcDbEntity
  8
0
  6
CONTINUOUS
 62
               4
100
AcDbLine
 10
2.0500000000000114
 20
8.25
 30
0.0
 11
4.4000000000000057
 21
8.25
 31
0.0
  0
LINE
  5
300
100
AcDbEntity
  8
0
  6
CONTINUOUS
 62
               4
100
AcDbLine
 10
1.8000000000000114
 20
8.0
 30
0.0
 11
1.8000000000000114
 21
4.0
 31
0.0
  0
LINE
  5
301
100
AcDbEntity
  8
0
  6
CONTINUOUS
 62
               4
100
AcDbLine
 10
2.0500000000000114
 20
8.25
 30
0.0
 11
2.0500000000000114
 21
3.75
 31
0.0
  0
LINE
  5
302
100
AcDbEntity
  8
0
  6
CONTINUOUS
 62
               4
100
AcDbLine
 10
2.0500000000000114
 20
3.75
 30
0.0
 11
1.8000000000000114
 21
4.0
 31
0.0
  0
LINE
  5
303
100
AcDbEntity
  8
0
  6
CONTINUOUS
 62
               4
100
AcDbLine
 10
2.0500000000000114
 20
8.25
 30
0.0
 11
1.8000000000000114
 21
8.0
 31
0.0
  0
LINE
  5
304
100
AcDbEntity
  8
0
  6
CONTINUOUS
 62
               7
100
AcDbLine
 10
8.1999999999999886
 20
18.599999999999909
 30
0.0
 11
8.4999999999999432
 21
18.599999999999909
 31
0.0
  0
LINE
  5
305
100
AcDbEntity
  8
0
  6
CONTINUOUS
 62
               7
100
AcDbLine
 10
8.4999999999999432
 20
18.500000040416637
 30
0.0
 11
8.1999999999999886
 21
18.500000041666624
 31
0.0
  0
ARC
  5
306
100
AcDbEntity
  8
0
  6
CONTINUOUS
 62
               7
100
AcDbCircle
 10
17.900000000000034
 20
13.499999999999915
 30
0.0
 40
0.3
100
AcDbArc
 50
270.0
 51
0.0
  0
ARC
  5
307
100
AcDbEntity
  8
0
  6
CONTINUOUS
 62
               7
100
AcDbCircle
 10
8.5000000000000568
 20
13.499999999999915
 30
0.0
 40
0.3
100
AcDbArc
 50
180.0
 51
270.0
  0
LINE
  5
308
100
AcDbEntity
  8
0
  6
CONTINUOUS
 62
               7
100
AcDbLine
 10
18.199999996676183
 20
18.499999999999886
 30
0.0
 11
17.900000000000034
 21
18.500000001249902
 31
0.0
  0
LINE
  5
309
100
AcDbEntity
  8
0
  6
CONTINUOUS
 62
               7
100
AcDbLine
 10
17.900000000000034
 20
18.599999999999909
 30
0.0
 11
18.199999999999989
 21
18.599999999999909
 31
0.0
  0
LINE
  5
30A
100
AcDbEntity
  8
0
  6
CONTINUOUS
 62
               7
100
AcDbLine
 10
8.4999999999999432
 20
18.999999999999915
 30
0.0
 11
8.4999999999999432
 21
13.699999999999903
 31
0.0
  0
LINE
  5
30B
100
AcDbEntity
  8
0
  6
CONTINUOUS
 62
               7
100
AcDbLine
 10
17.900000000000034
 20
18.999999999999915
 30
0.0
 11
8.4999999999999432
 21
18.999999999999915
 31
0.0
  0
LINE
  5
30C
100
AcDbEntity
  8
0
  6
CONTINUOUS
 62
               7
100
AcDbLine
 10
17.900000000000034
 20
18.999999999999915
 30
0.0
 11
17.900000000000034
 21
13.699999999999903
 31
0.0
  0
LINE
  5
30D
100
AcDbEntity
  8
0
  6
CONTINUOUS
 62
               7
100
AcDbLine
 10
16.815999999999974
 20
17.087999999999937
 30
0.0
 11
16.689999999999998
 21
15.199999999999903
 31
0.0
  0
LINE
  5
30E
100
AcDbEntity
  8
0
  6
CONTINUOUS
 62
               7
100
AcDbLine
 10
16.900000000000034
 20
14.699999999999903
 30
0.0
 11
16.900000000000034
 21
13.699999999999903
 31
0.0
  0
LINE
  5
30F
100
AcDbEntity
  8
0
  6
CONTINUOUS
 62
               7
100
AcDbLine
 10
17.900000000000034
 20
13.699999999999903
 30
0.0
 11
16.900000000000034
 21
13.699999999999903
 31
0.0
  0
LINE
  5
310
100
AcDbEntity
  8
0
  6
CONTINUOUS
 62
               7
100
AcDbLine
 10
16.10000000000008
 20
14.199999999999903
 30
0.0
 11
15.699999999999989
 21
14.199999999999903
 31
0.0
  0
LINE
  5
311
100
AcDbEntity
  8
0
  6
CONTINUOUS
 62
               7
100
AcDbLine
 10
16.10000000000008
 20
14.199999999999903
 30
0.0
 11
16.10000000000008
 21
13.199999999999903
 31
0.0
  0
LINE
  5
312
100
AcDbEntity
  8
0
  6
CONTINUOUS
 62
               7
100
AcDbLine
 10
10.300000000000011
 20
14.199999999999903
 30
0.0
 11
10.300000000000011
 21
13.199999999999903
 31
0.0
  0
LINE
  5
313
100
AcDbEntity
  8
0
  6
CONTINUOUS
 62
               7
100
AcDbLine
 10
16.10000000000008
 20
13.699999999999903
 30
0.0
 11
10.300000000000011
 21
13.699999999999903
 31
0.0
  0
LINE
  5
314
100
AcDbEntity
  8
0
  6
CONTINUOUS
 62
               7
100
AcDbLine
 10
10.699999999999989
 20
12.199999999999903
 30
0.0
 11
10.699999999999989
 21
14.699999999999903
 31
0.0
  0
LINE
  5
315
100
AcDbEntity
  8
0
  6
CONTINUOUS
 62
               7
100
AcDbLine
 10
15.699999999999989
 20
12.199999999999903
 30
0.0
 11
15.699999999999989
 21
14.699999999999903
 31
0.0
  0
LINE
  5
316
100
AcDbEntity
  8
0
  6
CONTINUOUS
 62
               7
100
AcDbLine
 10
9.7099999999999795
 20
15.199999999999903
 30
0.0
 11
9.5859999999999559
 21
17.087999999999937
 31
0.0
  0
ARC
  5
317
100
AcDbEntity
  8
0
  6
CONTINUOUS
 62
               7
100
AcDbCircle
 10
9.785285147361094
 20
17.100334766640373
 30
0.0
 40
0.1996665130331531
100
AcDbArc
 50
89.794867321213019
 51
183.54180757537347
  0
LINE
  5
318
100
AcDbEntity
  8
0
  6
CONTINUOUS
 62
               7
100
AcDbLine
 10
10.109999999999957
 20
17.299999999999926
 30
0.0
 11
10.109999999999957
 21
17.799999999999926
 31
0.0
  0
LINE
  5
319
100
AcDbEntity
  8
0
  6
CONTINUOUS
 62
               7
100
AcDbLine
 10
11.20999999999998
 20
17.799999999999926
 30
0.0
 11
10.109999999999957
 21
17.799999999999926
 31
0.0
  0
LINE
  5
31A
100
AcDbEntity
  8
0
  6
CONTINUOUS
 62
               7
100
AcDbLine
 10
11.20999999999998
 20
17.299999999999926
 30
0.0
 11
11.20999999999998
 21
17.799999999999926
 31
0.0
  0
LINE
  5
31B
100
AcDbEntity
  8
0
  6
CONTINUOUS
 62
               7
100
AcDbLine
 10
11.536000000000001
 20
17.299999999999926
 30
0.0
 11
9.7860000000000014
 21
17.299999999999926
 31
0.0
  0
ARC
  5
31C
100
AcDbEntity
  8
0
  6
CONTINUOUS
 62
               7
100
AcDbCircle
 10
11.535655892025659
 20
17.099335747193976
 30
0.0
 40
0.2006645478515588
100
AcDbArc
 50
356.76157835491733
 51
89.901746748495952
  0
LINE
  5
31D
100
AcDbEntity
  8
0
  6
CONTINUOUS
 62
               7
100
AcDbLine
 10
11.736000000000047
 20
17.087999999999937
 30
0.0
 11
11.609999999999957
 21
15.199999999999903
 31
0.0
  0
LINE
  5
31E
100
AcDbEntity
  8
0
  6
CONTINUOUS
 62
               7
100
AcDbLine
 10
11.609999999999957
 20
15.199999999999903
 30
0.0
 11
9.7099999999999795
 21
15.199999999999903
 31
0.0
  0
LINE
  5
31F
100
AcDbEntity
  8
0
  6
CONTINUOUS
 62
               7
100
AcDbLine
 10
12.800000000000011
 20
16.599999999999881
 30
0.0
 11
13.599999999999966
 21
16.599999999999881
 31
0.0
  0
LINE
  5
320
100
AcDbEntity
  8
0
  6
CONTINUOUS
 62
               7
100
AcDbLine
 10
12.800000000000011
 20
15.799999999999926
 30
0.0
 11
12.800000000000011
 21
16.599999999999881
 31
0.0
  0
LINE
  5
321
100
AcDbEntity
  8
0
  6
CONTINUOUS
 62
               7
100
AcDbLine
 10
12.800000000000011
 20
15.799999999999926
 30
0.0
 11
13.599999999999966
 21
15.799999999999926
 31
0.0
  0
LINE
  5
322
100
AcDbEntity
  8
0
  6
CONTINUOUS
 62
               7
100
AcDbLine
 10
13.599999999999966
 20
15.799999999999926
 30
0.0
 11
13.599999999999966
 21
16.599999999999881
 31
0.0
  0
LINE
  5
323
100
AcDbEntity
  8
0
  6
CONTINUOUS
 62
               7
100
AcDbLine
 10
12.250000000000057
 20
15.199999999999903
 30
0.0
 11
12.126000000000033
 21
17.087999999999937
 31
0.0
  0
ARC
  5
324
100
AcDbEntity
  8
0
  6
CONTINUOUS
 62
               7
100
AcDbCircle
 10
12.325285147361171
 20
17.100334766640373
 30
0.0
 40
0.1996665130331531
100
AcDbArc
 50
89.794867321213019
 51
183.54180757537347
  0
LINE
  5
325
100
AcDbEntity
  8
0
  6
CONTINUOUS
 62
               7
100
AcDbLine
 10
12.650000000000034
 20
17.299999999999926
 30
0.0
 11
12.650000000000034
 21
17.799999999999926
 31
0.0
  0
LINE
  5
326
100
AcDbEntity
  8
0
  6
CONTINUOUS
 62
               7
100
AcDbLine
 10
13.750000000000057
 20
17.799999999999926
 30
0.0
 11
12.650000000000034
 21
17.799999999999926
 31
0.0
  0
LINE
  5
327
100
AcDbEntity
  8
0
  6
CONTINUOUS
 62
               7
100
AcDbLine
 10
13.750000000000057
 20
17.299999999999926
 30
0.0
 11
13.750000000000057
 21
17.799999999999926
 31
0.0
  0
LINE
  5
328
100
AcDbEntity
  8
0
  6
CONTINUOUS
 62
               7
100
AcDbLine
 10
14.075999999999965
 20
17.299999999999926
 30
0.0
 11
12.325999999999965
 21
17.299999999999926
 31
0.0
  0
ARC
  5
329
100
AcDbEntity
  8
0
  6
CONTINUOUS
 62
               7
100
AcDbCircle
 10
14.075655892025736
 20
17.099335747193976
 30
0.0
 40
0.2006645478515588
100
AcDbArc
 50
356.76157835491733
 51
89.901746748495952
  0
LINE
  5
32A
100
AcDbEntity
  8
0
  6
CONTINUOUS
 62
               7
100
AcDbLine
 10
14.27600000000001
 20
17.087999999999937
 30
0.0
 11
14.150000000000034
 21
15.199999999999903
 31
0.0
  0
LINE
  5
32B
100
AcDbEntity
  8
0
  6
CONTINUOUS
 62
               7
100
AcDbLine
 10
14.150000000000034
 20
15.199999999999903
 30
0.0
 11
12.250000000000057
 21
15.199999999999903
 31
0.0
  0
LINE
  5
32C
100
AcDbEntity
  8
0
  6
CONTINUOUS
 62
               7
100
AcDbLine
 10
14.79000000000002
 20
15.199999999999903
 30
0.0
 11
14.665999999999997
 21
17.087999999999937
 31
0.0
  0
LINE
  5
32D
100
AcDbEntity
  8
0
  6
CONTINUOUS
 62
               7
100
AcDbLine
 10
9.5000000000000568
 20
14.699999999999903
 30
0.0
 11
9.5000000000000568
 21
13.699999999999903
 31
0.0
  0
LINE
  5
32E
100
AcDbEntity
  8
0
  6
CONTINUOUS
 62
               7
100
AcDbLine
 10
14.449999999999989
 20
13.699999999999903
 30
0.0
 11
14.449999999999989
 21
14.699999999999903
 31
0.0
  0
LINE
  5
32F
100
AcDbEntity
  8
0
  6
CONTINUOUS
 62
               7
100
AcDbLine
 10
11.949999999999989
 20
13.699999999999903
 30
0.0
 11
11.949999999999989
 21
14.699999999999903
 31
0.0
  0
LINE
  5
330
100
AcDbEntity
  8
0
  6
CONTINUOUS
 62
               7
100
AcDbLine
 10
16.29000000000002
 20
17.799999999999926
 30
0.0
 11
15.189999999999998
 21
17.799999999999926
 31
0.0
  0
LINE
  5
331
100
AcDbEntity
  8
0
  6
CONTINUOUS
 62
               7
100
AcDbLine
 10
16.616000000000042
 20
17.299999999999926
 30
0.0
 11
14.866000000000042
 21
17.299999999999926
 31
0.0
  0
ARC
  5
332
100
AcDbEntity
  8
0
  6
CONTINUOUS
 62
               7
100
AcDbCircle
 10
14.865285147361135
 20
17.100334766640373
 30
0.0
 40
0.1996665130331531
100
AcDbArc
 50
89.794867321213019
 51
183.54180757537347
  0
LINE
  5
333
100
AcDbEntity
  8
0
  6
CONTINUOUS
 62
               7
100
AcDbLine
 10
15.189999999999998
 20
17.299999999999926
 30
0.0
 11
15.189999999999998
 21
17.799999999999926
 31
0.0
  0
LINE
  5
334
100
AcDbEntity
  8
0
  6
CONTINUOUS
 62
               7
100
AcDbLine
 10
16.29000000000002
 20
17.299999999999926
 30
0.0
 11
16.29000000000002
 21
17.799999999999926
 31
0.0
  0
LINE
  5
335
100
AcDbEntity
  8
0
  6
CONTINUOUS
 62
               7
100
AcDbLine
 10
15.700000000576608
 20
12.199999999999903
 30
0.0
 11
10.700000000576608
 21
12.199999999999903
 31
0.0
  0
LINE
  5
336
100
AcDbEntity
  8
0
  6
CONTINUOUS
 62
               7
100
AcDbLine
 10
15.699999999999989
 20
13.399999999999949
 30
0.0
 11
10.699999999999989
 21
13.399999999999949
 31
0.0
  0
CIRCLE
  5
337
100
AcDbEntity
  8
0
  6
CONTINUOUS
 62
               7
100
AcDbCircle
 10
15.739999999999952
 20
16.199999999999903
 30
0.0
 40
0.75
  0
CIRCLE
  5
338
100
AcDbEntity
  8
0
  6
CONTINUOUS
 62
               7
100
AcDbCircle
 10
10.660000000000025
 20
16.199999999999903
 30
0.0
 40
0.75
  0
LINE
  5
339
100
AcDbEntity
  8
0
  6
CONTINUOUS
 62
               7
100
AcDbLine
 10
10.699999999999989
 20
14.199999999999903
 30
0.0
 11
10.300000000000011
 21
14.199999999999903
 31
0.0
  0
LINE
  5
33A
100
AcDbEntity
  8
0
  6
CONTINUOUS
 62
               7
100
AcDbLine
 10
10.699999999999989
 20
13.199999999999903
 30
0.0
 11
8.5000000000000568
 21
13.199999999999903
 31
0.0
  0
LINE
  5
33B
100
AcDbEntity
  8
0
  6
CONTINUOUS
 62
               7
100
AcDbLine
 10
16.900000000000034
 20
14.699999999999903
 30
0.0
 11
9.5000000000000568
 21
14.699999999999903
 31
0.0
  0
ARC
  5
33C
100
AcDbEntity
  8
0
  6
CONTINUOUS
 62
               7
100
AcDbCircle
 10
16.6156558920257
 20
17.099335747193976
 30
0.0
 40
0.2006645478515588
100
AcDbArc
 50
356.76157835491733
 51
89.901746748495952
  0
LINE
  5
33D
100
AcDbEntity
  8
0
  6
CONTINUOUS
 62
               7
100
AcDbLine
 10
16.689999999999998
 20
15.199999999999903
 30
0.0
 11
14.79000000000002
 21
15.199999999999903
 31
0.0
  0
LINE
  5
33E
100
AcDbEntity
  8
0
  6
CONTINUOUS
 62
               7
100
AcDbLine
 10
8.5000000000000568
 20
13.699999999999903
 30
0.0
 11
9.5000000000000568
 21
13.699999999999903
 31
0.0
  0
LINE
  5
33F
100
AcDbEntity
  8
0
  6
CONTINUOUS
 62
               7
100
AcDbLine
 10
17.900000000000034
 20
13.199999999999903
 30
0.0
 11
15.699999999999989
 21
13.199999999999903
 31
0.0
  0
LINE
  5
340
100
AcDbEntity
  8
0
  6
CONTINUOUS
 62
               7
100
AcDbLine
 10
27.69999999999996
 20
65.5
 30
0.0
 11
27.69999999999996
 21
24.5
 31
0.0
  0
LINE
  5
341
100
AcDbEntity
  8
0
  6
CONTINUOUS
 62
               7
100
AcDbLine
 10
18.69999999999996
 20
65.5
 30
0.0
 11
18.69999999999996
 21
24.5
 31
0.0
  0
LINE
  5
342
100
AcDbEntity
  8
0
  6
CONTINUOUS
 62
               7
100
AcDbLine
 10
28.19999999999996
 20
1.0
 30
0.0
 11
28.19999999999996
 21
67.5
 31
0.0
  0
LINE
  5
343
100
AcDbEntity
  8
0
  6
CONTINUOUS
 62
               2
100
AcDbLine
 10
16.799999999999955
 20
79.098785179205521
 30
0.0
 11
24.799999999999955
 21
80.509401024873242
 31
0.0
  0
LINE
  5
344
100
AcDbEntity
  8
0
  6
CONTINUOUS
 62
               2
100
AcDbLine
 10
16.799999999999955
 20
81.098785179205521
 30
0.0
 11
24.799999999999955
 21
82.509401024873242
 31
0.0
  0
LINE
  5
345
100
AcDbEntity
  8
0
  6
CONTINUOUS
 62
               7
100
AcDbLine
 10
18.799999999999983
 20
68.0
 30
0.0
 11
18.799999999999983
 21
79.451439140622455
 31
0.0
  0
LINE
  5
346
100
AcDbEntity
  8
0
  6
CONTINUOUS
 62
               7
100
AcDbLine
 10
22.599999999999994
 20
68.0
 30
0.0
 11
22.599999999999994
 21
80.121481667314626
 31
0.0
  0
LINE
  5
347
100
AcDbEntity
  8
0
  6
CONTINUOUS
 62
               7
100
AcDbLine
 10
22.599999976758596
 20
92.699999981554186
 30
0.0
 11
18.799999999999983
 21
92.699999981554186
 31
0.0
  0
LINE
  5
348
100
AcDbEntity
  8
0
  6
CONTINUOUS
 62
               7
100
AcDbLine
 10
18.799999999999983
 20
81.451439140622455
 30
0.0
 11
18.799999999999983
 21
92.699999981554186
 31
0.0
  0
LINE
  5
349
100
AcDbEntity
  8
0
  6
CONTINUOUS
 62
               7
100
AcDbLine
 10
22.599999999999994
 20
82.121481667314626
 30
0.0
 11
22.599999999999994
 21
92.699999981554186
 31
0.0
  0
LINE
  5
34A
100
AcDbEntity
  8
0
  6
CONTINUOUS
 62
               7
100
AcDbLine
 10
19.099999999999994
 20
98.434000568913476
 30
0.0
 11
19.099999999999994
 21
92.699999981554186
 31
0.0
  0
LINE
  5
34B
100
AcDbEntity
  8
0
  6
CONTINUOUS
 62
               7
100
AcDbLine
 10
22.113017832343218
 20
92.699999868869781
 30
0.0
 11
22.842742739673923
 21
101.04079375697157
 31
0.0
  0
LINE
  5
34C
100
AcDbEntity
  8
0
  6
CONTINUOUS
 62
               7
100
AcDbLine
 10
22.842742739673923
 20
101.04079375697157
 30
0.0
 11
25.890615118767641
 21
118.32613696904083
 31
0.0
  0
LINE
  5
34D
100
AcDbEntity
  8
0
  6
CONTINUOUS
 62
               7
100
AcDbLine
 10
21.855083491082581
 20
101.19827029960193
 30
0.0
 11
24.936426226684802
 21
118.67343333603385
 31
0.0
  0
LINE
  5
34E
100
AcDbEntity
  8
0
  6
CONTINUOUS
 62
               7
100
AcDbLine
 10
19.099999976758596
 20
98.443186819553389
 30
0.0
 11
21.855083478097555
 21
101.19827032089235
 31
0.0
  0
LINE
  5
34F
100
AcDbEntity
  8
0
  6
CONTINUOUS
 62
               7
100
AcDbLine
 10
25.89061511815035
 20
118.3261369764805
 30
0.0
 11
24.936426234845754
 21
118.67343333363534
 31
0.0
  0
LINE
  5
350
100
AcDbEntity
  8
0
  6
CONTINUOUS
 62
               7
100
AcDbLine
 10
21.381607421125466
 20
100.72479426860811
 30
0.0
 11
21.381607421125466
 21
118.60122195239161
 31
0.0
  0
LINE
  5
351
100
AcDbEntity
  8
0
  6
CONTINUOUS
 62
               7
100
AcDbLine
 10
20.381607421125466
 20
99.724794268608107
 30
0.0
 11
20.381607421125466
 21
118.60122195239161
 31
0.0
  0
LINE
  5
352
100
AcDbEntity
  8
0
  6
CONTINUOUS
 62
               7
100
AcDbLine
 10
19.381607421125466
 20
98.724794268608107
 30
0.0
 11
19.381607421125466
 21
118.60122195239161
 31
0.0
  0
LINE
  5
353
100
AcDbEntity
  8
0
  6
CONTINUOUS
 62
               7
100
AcDbLine
 10
22.318471296044805
 20
118.60122195239161
 30
0.0
 11
21.381607421125466
 21
118.60122195239161
 31
0.0
  0
LINE
  5
354
100
AcDbEntity
  8
0
  6
CONTINUOUS
 62
               7
100
AcDbLine
 10
21.951616841063526
 20
111.60122195239161
 30
0.0
 11
18.706782440821172
 21
111.60122195239161
 31
0.0
  0
LINE
  5
355
100
AcDbEntity
  8
0
  6
CONTINUOUS
 62
               7
100
AcDbLine
 10
21.381607421125466
 20
118.60122195239161
 30
0.0
 11
19.381607421125466
 21
118.60122195239161
 31
0.0
  0
LINE
  5
356
100
AcDbEntity
  8
0
  6
CONTINUOUS
 62
               7
100
AcDbLine
 10
19.381607421125466
 20
118.60122195239161
 30
0.0
 11
18.339927985839864
 21
118.60122195239161
 31
0.0
  0
LINE
  5
357
100
AcDbEntity
  8
0
  6
CONTINUOUS
 62
               7
100
AcDbLine
 10
19.381607423950669
 20
98.724794209003463
 30
0.0
 11
18.339927985839864
 21
118.60122195239161
 31
0.0
  0
LINE
  5
358
100
AcDbEntity
  8
0
  6
CONTINUOUS
 62
               7
100
AcDbLine
 10
21.381607416500088
 20
100.72479420900346
 30
0.0
 11
22.318471296044805
 21
118.60122195239161
 31
0.0
  0
LINE
  5
359
100
AcDbEntity
  8
0
  6
CONTINUOUS
 62
               7
100
AcDbLine
 10
23.199999999999989
 20
68.0
 30
0.0
 11
23.199999999999989
 21
67.5
 31
0.0
  0
LINE
  5
35A
100
AcDbEntity
  8
0
  6
CONTINUOUS
 62
               7
100
AcDbLine
 10
23.199999999999989
 20
68.0
 30
0.0
 11
18.199999999999989
 21
68.0
 31
0.0
  0
LINE
  5
35B
100
AcDbEntity
  8
0
  6
CONTINUOUS
 62
               7
100
AcDbLine
 10
28.19999999999996
 20
67.5
 30
0.0
 11
18.199999999999989
 21
67.5
 31
0.0
  0
LINE
  5
35C
100
AcDbEntity
  8
0
  6
CONTINUOUS
 62
               7
100
AcDbLine
 10
18.69999999999996
 20
65.5
 30
0.0
 11
27.69999999999996
 21
65.5
 31
0.0
  0
LINE
  5
35D
100
AcDbEntity
  8
0
  6
CONTINUOUS
 62
               7
100
AcDbLine
 10
18.19999999999996
 20
22.0
 30
0.0
 11
28.19999999999996
 21
22.0
 31
0.0
  0
LINE
  5
35E
100
AcDbEntity
  8
0
  6
CONTINUOUS
 62
               7
100
AcDbLine
 10
18.69999999999996
 20
44.5
 30
0.0
 11
27.69999999999996
 21
44.5
 31
0.0
  0
LINE
  5
35F
100
AcDbEntity
  8
0
  6
CONTINUOUS
 62
               7
100
AcDbLine
 10
18.69999999999996
 20
27.5
 30
0.0
 11
27.69999999999996
 21
27.5
 31
0.0
  0
LINE
  5
360
100
AcDbEntity
  8
0
  6
CONTINUOUS
 62
               7
100
AcDbLine
 10
18.69999999999996
 20
24.5
 30
0.0
 11
27.69999999999996
 21
24.5
 31
0.0
  0
CIRCLE
  5
361
100
AcDbEntity
  8
0
  6
CONTINUOUS
 62
               7
100
AcDbCircle
 10
20.119384354593222
 20
30.001252610148185
 30
0.0
 40
0.5
  0
LINE
  5
362
100
AcDbEntity
  8
0
  6
CONTINUOUS
 62
               7
100
AcDbLine
 10
19.619384354593222
 20
31.501252610148185
 30
0.0
 11
20.619384354593222
 21
31.501252610148185
 31
0.0
  0
LINE
  5
363
100
AcDbEntity
  8
0
  6
CONTINUOUS
 62
               7
100
AcDbLine
 10
19.619384354593222
 20
30.501252610148185
 30
0.0
 11
20.619384354593222
 21
30.501252610148185
 31
0.0
  0
LINE
  5
364
100
AcDbEntity
  8
0
  6
CONTINUOUS
 62
               7
100
AcDbLine
 10
19.619384354593222
 20
29.501252610148185
 30
0.0
 11
20.619384354593222
 21
29.501252610148185
 31
0.0
  0
LINE
  5
365
100
AcDbEntity
  8
0
  6
CONTINUOUS
 62
               7
100
AcDbLine
 10
19.619384354593222
 20
31.501252610148185
 30
0.0
 11
19.619384354593222
 21
29.501252610148185
 31
0.0
  0
LINE
  5
366
100
AcDbEntity
  8
0
  6
CONTINUOUS
 62
               7
100
AcDbLine
 10
20.619384354593222
 20
31.501252610148185
 30
0.0
 11
20.619384354593222
 21
29.501252610148185
 31
0.0
  0
CIRCLE
  5
367
100
AcDbEntity
  8
0
  6
CONTINUOUS
 62
               7
100
AcDbCircle
 10
23.19999999999996
 20
60.25
 30
0.0
 40
1.5
  0
LINE
  5
368
100
AcDbEntity
  8
0
  6
CONTINUOUS
 62
               7
100
AcDbLine
 10
22.283491481877064
 20
61.437439318958354
 30
0.0
 11
23.770098356608997
 21
58.8625606810416
 31
0.0
  0
LINE
  5
369
100
AcDbEntity
  8
0
  6
CONTINUOUS
 62
               7
100
AcDbLine
 10
22.629901643390923
 20
61.6374393189584
 30
0.0
 11
24.116508518122743
 21
59.062560681041646
 31
0.0
  0
LINE
  5
36A
100
AcDbEntity
  8
0
  6
CONTINUOUS
 62
               7
100
AcDbLine
 10
20.757137961627535
 20
37.993601883729582
 30
0.0
 11
22.908284199142713
 21
37.614296885681313
 31
0.0
  0
LINE
  5
36B
100
AcDbEntity
  8
0
  6
CONTINUOUS
 62
               7
100
AcDbLine
 10
20.757137957129061
 20
34.8326180206613
 30
0.0
 11
22.862246360423597
 21
34.46143049228715
 31
0.0
  0
LINE
  5
36C
100
AcDbEntity
  8
0
  6
CONTINUOUS
 62
               7
100
AcDbLine
 10
20.815052161794142
 20
37.613266856295922
 30
0.0
 11
22.723780688578103
 21
37.276706874090394
 31
0.0
  0
LINE
  5
36D
100
AcDbEntity
  8
0
  6
CONTINUOUS
 62
               7
100
AcDbLine
 10
20.982432993572246
 20
35.163014912358847
 30
0.0
 11
22.804332368342898
 21
34.841765236174467
 31
0.0
  0
CIRCLE
  5
36E
100
AcDbEntity
  8
0
  6
CONTINUOUS
 62
               7
100
AcDbCircle
 10
23.19999999999996
 20
55.0
 30
0.0
 40
1.5
  0
LINE
  5
36F
100
AcDbEntity
  8
0
  6
CONTINUOUS
 62
               7
100
AcDbLine
 10
22.283491481877064
 20
56.187439318958354
 30
0.0
 11
23.770098356608997
 21
53.6125606810416
 31
0.0
  0
LINE
  5
370
100
AcDbEntity
  8
0
  6
CONTINUOUS
 62
               7
100
AcDbLine
 10
22.629901643390923
 20
56.3874393189584
 30
0.0
 11
24.116508518122743
 21
53.812560681041646
 31
0.0
  0
CIRCLE
  5
371
100
AcDbEntity
  8
0
  6
CONTINUOUS
 62
               7
100
AcDbCircle
 10
23.19999999999996
 20
49.75
 30
0.0
 40
1.5
  0
LINE
  5
372
100
AcDbEntity
  8
0
  6
CONTINUOUS
 62
               7
100
AcDbLine
 10
22.283491481877064
 20
50.937439318958354
 30
0.0
 11
23.770098356608997
 21
48.3625606810416
 31
0.0
  0
LINE
  5
373
100
AcDbEntity
  8
0
  6
CONTINUOUS
 62
               7
100
AcDbLine
 10
22.629901643390923
 20
51.1374393189584
 30
0.0
 11
24.116508518122743
 21
48.562560681041646
 31
0.0
  0
LINE
  5
374
100
AcDbEntity
  8
0
  6
CONTINUOUS
 62
               7
100
AcDbLine
 10
23.537753602535787
 20
34.37758570897455
 30
0.0
 11
25.677087957865496
 21
34.000363219872327
 31
0.0
  0
LINE
  5
375
100
AcDbEntity
  8
0
  6
CONTINUOUS
 62
               7
100
AcDbLine
 10
23.535805777587967
 20
37.538913400941226
 30
0.0
 11
25.740428567441114
 21
37.150178395747503
 31
0.0
  0
LINE
  5
376
100
AcDbEntity
  8
0
  6
CONTINUOUS
 62
               7
100
AcDbLine
 10
23.634512013884063
 20
37.151385658673121
 30
0.0
 11
25.555925592012102
 21
36.812588783591195
 31
0.0
  0
LINE
  5
377
100
AcDbEntity
  8
0
  6
CONTINUOUS
 62
               7
100
AcDbLine
 10
23.7630488561243
 20
34.707982753598969
 30
0.0
 11
25.578381705637128
 21
34.38789095084843
 31
0.0
  0
LINE
  5
378
100
AcDbEntity
  8
0
  6
CONTINUOUS
 62
               7
100
AcDbLine
 10
26.020425608171536
 20
34.368857321862038
 30
0.0
 11
26.020425608171536
 21
36.775716229886484
 31
0.0
  0
LINE
  5
379
100
AcDbEntity
  8
0
  6
CONTINUOUS
 62
               7
100
AcDbLine
 10
25.655925592012125
 20
34.603787692049139
 30
0.0
 11
25.655925592012125
 21
36.660532078535994
 31
0.0
  0
LINE
  5
37A
100
AcDbEntity
  8
0
  6
CONTINUOUS
 62
               7
100
AcDbLine
 10
20.783884370752702
 20
37.414964274272108
 30
0.0
 11
20.783884370752702
 21
35.229766068044398
 31
0.0
  0
LINE
  5
37B
100
AcDbEntity
  8
0
  6
CONTINUOUS
 62
               7
100
AcDbLine
 10
20.419384354593234
 20
35.166638621749144
 30
0.0
 11
20.419384354593234
 21
37.618364765571414
 31
0.0
  0
LINE
  5
37C
100
AcDbEntity
  8
0
  6
CONTINUOUS
 62
               7
100
AcDbLine
 10
20.717145136685104
 20
35.013013999434975
 30
0.0
 11
20.907710549980152
 21
35.146449338346201
 31
0.0
  0
LINE
  5
37D
100
AcDbEntity
  8
0
  6
CONTINUOUS
 62
               7
100
AcDbLine
 10
23.497760782091859
 20
34.557981687748224
 30
0.0
 11
23.688326413536316
 21
34.691417179409314
 31
0.0
  0
LINE
  5
37E
100
AcDbEntity
  8
0
  6
CONTINUOUS
 62
               7
100
AcDbLine
 10
25.698567948377018
 20
36.742447282964918
 30
0.0
 11
25.863067964536441
 21
36.857631434315351
 31
0.0
  0
LINE
  5
37F
100
AcDbEntity
  8
0
  6
CONTINUOUS
 62
               7
100
AcDbLine
 10
22.723780688578103
 20
37.276706874090394
 30
0.0
 11
22.948277030475708
 21
37.433900904987581
 31
0.0
  0
LINE
  5
380
100
AcDbEntity
  8
0
  6
CONTINUOUS
 62
               7
100
AcDbLine
 10
20.576741998228357
 20
35.08472341732022
 30
0.0
 11
20.783884370752673
 21
35.229766068044398
 31
0.0
  0
LINE
  5
381
100
AcDbEntity
  8
0
  6
CONTINUOUS
 62
               7
100
AcDbLine
 10
23.281915204428884
 20
34.576865741000347
 30
0.0
 11
23.39999999999992
 21
34.659549605007157
 31
0.0
  0
LINE
  5
382
100
AcDbEntity
  8
0
  6
CONTINUOUS
 62
               7
100
AcDbLine
 10
25.555925592012102
 20
36.812588783591195
 30
0.0
 11
25.780421370562294
 21
36.969782420028309
 31
0.0
  0
LINE
  5
383
100
AcDbEntity
  8
0
  6
CONTINUOUS
 62
               7
100
AcDbLine
 10
23.042642356364809
 20
37.329955463699775
 30
0.0
 11
23.118084795571036
 21
37.382780828332898
 31
0.0
  0
LINE
  5
384
100
AcDbEntity
  8
0
  6
CONTINUOUS
 62
               7
100
AcDbLine
 10
22.999999999999915
 20
34.836667577601588
 30
0.0
 11
22.999999999999915
 21
37.248040259270908
 31
0.0
  0
LINE
  5
385
100
AcDbEntity
  8
0
  6
CONTINUOUS
 62
               7
100
AcDbLine
 10
23.39999999999992
 20
37.154508870619622
 30
0.0
 11
23.39999999999992
 21
34.659549605007157
 31
0.0
  0
LINE
  5
386
100
AcDbEntity
  8
0
  6
CONTINUOUS
 62
               7
100
AcDbLine
 10
20.601299559022124
 20
37.675722409206514
 30
0.0
 11
20.783884370752702
 21
37.414964274272108
 31
0.0
  0
LINE
  5
387
100
AcDbEntity
  8
0
  6
CONTINUOUS
 62
               7
100
AcDbLine
 10
20.657857944896506
 20
37.837763463829674
 30
0.0
 11
20.815052161794142
 21
37.613266856295922
 31
0.0
  0
LINE
  5
388
100
AcDbEntity
  8
0
  6
CONTINUOUS
 62
               7
100
AcDbLine
 10
23.142642356364831
 20
34.601423301794171
 30
0.0
 11
23.018084795571042
 21
34.779309933966488
 31
0.0
  0
LINE
  5
389
100
AcDbEntity
  8
0
  6
CONTINUOUS
 62
               7
100
AcDbLine
 10
22.961526388043637
 20
34.617268910267057
 30
0.0
 11
22.80433236834287
 21
34.841765236174467
 31
0.0
  0
LINE
  5
38A
100
AcDbEntity
  8
0
  6
CONTINUOUS
 62
               7
100
AcDbLine
 10
25.776367985485479
 20
34.156201637852234
 30
0.0
 11
25.642932111113197
 21
34.346767815864894
 31
0.0
  0
LINE
  5
38B
100
AcDbEntity
  8
0
  6
CONTINUOUS
 62
               7
100
AcDbLine
 10
25.838510403742646
 20
34.311499678226937
 30
0.0
 11
25.674010387583252
 21
34.546430048414038
 31
0.0
  0
LINE
  5
38C
100
AcDbEntity
  8
0
  6
CONTINUOUS
 62
               7
100
AcDbLine
 10
23.257357643635032
 20
37.358223267539074
 30
0.0
 11
23.399999999999892
 21
37.154508870619622
 31
0.0
  0
LINE
  5
38D
100
AcDbEntity
  8
0
  6
CONTINUOUS
 62
               7
100
AcDbLine
 10
23.569961618282122
 20
37.1925087919156
 30
0.0
 11
23.436525732645208
 21
37.383074986015856
 31
0.0
  0
ARC
  5
38E
100
AcDbEntity
  8
0
  6
CONTINUOUS
 62
               7
100
AcDbCircle
 10
20.519384354593228
 20
35.166638621749144
 30
0.0
 40
0.1
100
AcDbArc
 50
180.0
 51
304.99999999999653
  0
ARC
  5
38F
100
AcDbEntity
  8
0
  6
CONTINUOUS
 62
               7
100
AcDbCircle
 10
20.519384354593228
 20
37.618364765571414
 30
0.0
 40
0.1
100
AcDbArc
 50
35.00000000000388
 51
180.0
  0
ARC
  5
390
100
AcDbEntity
  8
0
  6
CONTINUOUS
 62
               7
100
AcDbCircle
 10
20.739773149325373
 20
37.895121107464774
 30
0.0
 40
0.1
100
AcDbArc
 50
80.000003179257689
 51
215.00000000000389
  0
ARC
  5
391
100
AcDbEntity
  8
0
  6
CONTINUOUS
 62
               7
100
AcDbCircle
 10
22.890919386840579
 20
37.515816109416562
 30
0.0
 40
0.1
100
AcDbArc
 50
304.99999999999119
 51
80.000003179260077
  0
ARC
  5
392
100
AcDbEntity
  8
0
  6
CONTINUOUS
 62
               7
100
AcDbCircle
 10
23.175442439206137
 20
37.300865623903974
 30
0.0
 40
0.1
100
AcDbArc
 50
34.999999999999247
 51
124.99999999999655
  0
ARC
  5
393
100
AcDbEntity
  8
0
  6
CONTINUOUS
 62
               7
100
AcDbCircle
 10
23.099999999999909
 20
37.248040259270908
 30
0.0
 40
0.1
100
AcDbArc
 50
125.00000000000189
 51
180.0
  0
ARC
  5
394
100
AcDbEntity
  8
0
  6
CONTINUOUS
 62
               7
100
AcDbCircle
 10
23.224557560793755
 20
34.658780945429271
 30
0.0
 40
0.1
100
AcDbArc
 50
214.99999999999457
 51
304.99999999999653
  0
ARC
  5
395
100
AcDbEntity
  8
0
  6
CONTINUOUS
 62
               7
100
AcDbCircle
 10
23.099999999999909
 20
34.836667577601588
 30
0.0
 40
0.1
100
AcDbArc
 50
180.0
 51
215.00000000000858
  0
ARC
  5
396
100
AcDbEntity
  8
0
  6
CONTINUOUS
 62
               7
100
AcDbCircle
 10
22.879611183614742
 20
34.559911266631957
 30
0.0
 40
0.1
100
AcDbArc
 50
259.99999684407106
 51
35.000000000003929
  0
ARC
  5
397
100
AcDbEntity
  8
0
  6
CONTINUOUS
 62
               7
100
AcDbCircle
 10
20.774502780320205
 20
34.931098795006051
 30
0.0
 40
0.1
100
AcDbArc
 50
124.99999999999655
 51
259.99999684407339
  0
ARC
  5
398
100
AcDbEntity
  8
0
  6
CONTINUOUS
 62
               7
100
AcDbCircle
 10
20.965068193615224
 20
35.064534133917334
 30
0.0
 40
0.1
100
AcDbArc
 50
80.000010361602506
 51
124.99999999999523
  0
ARC
  5
399
100
AcDbEntity
  8
0
  6
CONTINUOUS
 62
               7
100
AcDbCircle
 10
23.745684057171445
 20
34.60950197498039
 30
0.0
 40
0.1
100
AcDbArc
 50
80.000010945824187
 51
125.00000000000321
  0
ARC
  5
39A
100
AcDbEntity
  8
0
  6
CONTINUOUS
 62
               7
100
AcDbCircle
 10
23.555118425726931
 20
34.4760664833193
 30
0.0
 40
0.1
100
AcDbArc
 50
124.99999999998988
 51
259.99999684407339
  0
ARC
  5
39B
100
AcDbEntity
  8
0
  6
CONTINUOUS
 62
               7
100
AcDbCircle
 10
25.69445278105664
 20
34.098843994217134
 30
0.0
 40
0.1
100
AcDbArc
 50
259.99999684407106
 51
35.000000000013294
  0
ARC
  5
39C
100
AcDbEntity
  8
0
  6
CONTINUOUS
 62
               7
100
AcDbCircle
 10
23.518440937074132
 20
37.440432629650957
 30
0.0
 40
0.1
100
AcDbArc
 50
79.999986765780577
 51
214.99999999998988
  0
ARC
  5
39D
100
AcDbEntity
  8
0
  6
CONTINUOUS
 62
               7
100
AcDbCircle
 10
25.723063726927251
 20
37.05169762445712
 30
0.0
 40
0.1
100
AcDbArc
 50
305.00000000000722
 51
79.999986765783831
  0
ARC
  5
39E
100
AcDbEntity
  8
0
  6
CONTINUOUS
 62
               7
100
AcDbCircle
 10
23.651876822711046
 20
37.2498664355507
 30
0.0
 40
0.1
100
AcDbArc
 50
214.99999999999457
 51
260.00000520109757
  0
ARC
  5
39F
100
AcDbEntity
  8
0
  6
CONTINUOUS
 62
               7
100
AcDbCircle
 10
25.755925592012119
 20
34.603787692049139
 30
0.0
 40
0.1
100
AcDbArc
 50
180.0
 51
215.00000000000389
  0
ARC
  5
3A0
100
AcDbEntity
  8
0
  6
CONTINUOUS
 62
               7
100
AcDbCircle
 10
25.561016906684273
 20
34.289410172229793
 30
0.0
 40
0.1
100
AcDbArc
 50
34.999999999994564
 51
80.000010945829885
  0
ARC
  5
3A1
100
AcDbEntity
  8
0
  6
CONTINUOUS
 62
               7
100
AcDbCircle
 10
25.755925592012119
 20
36.660532078535994
 30
0.0
 40
0.1
100
AcDbArc
 50
124.99999999999655
 51
180.0
  0
ARC
  5
3A2
100
AcDbEntity
  8
0
  6
CONTINUOUS
 62
               7
100
AcDbCircle
 10
25.920425608171513
 20
36.775716229886484
 30
0.0
 40
0.1
100
AcDbArc
 50
0.0
 51
125.00000000000189
  0
ARC
  5
3A3
100
AcDbEntity
  8
0
  6
CONTINUOUS
 62
               7
100
AcDbCircle
 10
25.920425608171513
 20
34.368857321862038
 30
0.0
 40
0.1
100
AcDbArc
 50
215.00000000000389
 51
0.0
  0
ARC
  5
3A4
100
AcDbEntity
  8
0
  6
CONTINUOUS
 62
               7
100
AcDbCircle
 10
25.954897832699771
 20
39.490557949176036
 30
0.0
 40
0.1
100
AcDbArc
 50
215.00000000000389
 51
0.0
  0
ARC
  5
3A5
100
AcDbEntity
  8
0
  6
CONTINUOUS
 62
               7
100
AcDbCircle
 10
25.954897832699771
 20
41.897416857200483
 30
0.0
 40
0.1
100
AcDbArc
 50
0.0
 51
125.00000000000189
  0
ARC
  5
3A6
100
AcDbEntity
  8
0
  6
CONTINUOUS
 62
               7
100
AcDbCircle
 10
25.790397816540377
 20
41.782232705849992
 30
0.0
 40
0.1
100
AcDbArc
 50
124.99999999999655
 51
180.0
  0
ARC
  5
3A7
100
AcDbEntity
  8
0
  6
CONTINUOUS
 62
               7
100
AcDbCircle
 10
25.595489131212531
 20
39.411110799543792
 30
0.0
 40
0.1
100
AcDbArc
 50
34.999999999994564
 51
80.000010945829885
  0
ARC
  5
3A8
100
AcDbEntity
  8
0
  6
CONTINUOUS
 62
               7
100
AcDbCircle
 10
25.790397816540377
 20
39.725488319363137
 30
0.0
 40
0.1
100
AcDbArc
 50
180.0
 51
215.00000000000389
  0
ARC
  5
3A9
100
AcDbEntity
  8
0
  6
CONTINUOUS
 62
               7
100
AcDbCircle
 10
23.686349047239304
 20
42.371567062864699
 30
0.0
 40
0.1
100
AcDbArc
 50
214.99999999999457
 51
260.00000520109757
  0
ARC
  5
3AA
100
AcDbEntity
  8
0
  6
CONTINUOUS
 62
               7
100
AcDbCircle
 10
25.757535951455509
 20
42.173398251771118
 30
0.0
 40
0.1
100
AcDbArc
 50
305.00000000000722
 51
79.999986765783831
  0
ARC
  5
3AB
100
AcDbEntity
  8
0
  6
CONTINUOUS
 62
               7
100
AcDbCircle
 10
23.55291316160239
 20
42.562133256964955
 30
0.0
 40
0.1
100
AcDbArc
 50
79.999986765780577
 51
214.99999999998988
  0
ARC
  5
3AC
100
AcDbEntity
  8
0
  6
CONTINUOUS
 62
               7
100
AcDbCircle
 10
25.728925005584898
 20
39.220544621531133
 30
0.0
 40
0.1
100
AcDbArc
 50
259.99999684407106
 51
35.000000000013294
  0
ARC
  5
3AD
100
AcDbEntity
  8
0
  6
CONTINUOUS
 62
               7
100
AcDbCircle
 10
23.58959065025519
 20
39.597767110633299
 30
0.0
 40
0.1
100
AcDbArc
 50
124.99999999998988
 51
259.99999684407339
  0
ARC
  5
3AE
100
AcDbEntity
  8
0
  6
CONTINUOUS
 62
               7
100
AcDbCircle
 10
23.780156281699703
 20
39.731202602294388
 30
0.0
 40
0.1
100
AcDbArc
 50
80.000010945824187
 51
125.00000000000321
  0
ARC
  5
3AF
100
AcDbEntity
  8
0
  6
CONTINUOUS
 62
               7
100
AcDbCircle
 10
20.999540418143482
 20
40.186234761231333
 30
0.0
 40
0.1
100
AcDbArc
 50
80.000010361602506
 51
124.99999999999523
  0
ARC
  5
3B0
100
AcDbEntity
  8
0
  6
CONTINUOUS
 62
               7
100
AcDbCircle
 10
20.808975004848463
 20
40.052799422320049
 30
0.0
 40
0.1
100
AcDbArc
 50
124.99999999999655
 51
259.99999684407339
  0
ARC
  5
3B1
100
AcDbEntity
  8
0
  6
CONTINUOUS
 62
               7
100
AcDbCircle
 10
22.914083408143
 20
39.681611893945956
 30
0.0
 40
0.1
100
AcDbArc
 50
259.99999684407106
 51
35.000000000003929
  0
ARC
  5
3B2
100
AcDbEntity
  8
0
  6
CONTINUOUS
 62
               7
100
AcDbCircle
 10
23.134472224528167
 20
39.958368204915587
 30
0.0
 40
0.1
100
AcDbArc
 50
180.0
 51
215.00000000000858
  0
ARC
  5
3B3
100
AcDbEntity
  8
0
  6
CONTINUOUS
 62
               7
100
AcDbCircle
 10
23.259029785322014
 20
39.78048157274327
 30
0.0
 40
0.1
100
AcDbArc
 50
214.99999999999457
 51
304.99999999999653
  0
ARC
  5
3B4
100
AcDbEntity
  8
0
  6
CONTINUOUS
 62
               7
100
AcDbCircle
 10
23.134472224528167
 20
42.369740886584907
 30
0.0
 40
0.1
100
AcDbArc
 50
125.00000000000189
 51
180.0
  0
ARC
  5
3B5
100
AcDbEntity
  8
0
  6
CONTINUOUS
 62
               7
100
AcDbCircle
 10
23.209914663734395
 20
42.422566251217972
 30
0.0
 40
0.1
100
AcDbArc
 50
34.999999999999247
 51
124.99999999999655
  0
ARC
  5
3B6
100
AcDbEntity
  8
0
  6
CONTINUOUS
 62
               7
100
AcDbCircle
 10
22.925391611368838
 20
42.637516736730561
 30
0.0
 40
0.1
100
AcDbArc
 50
304.99999999999119
 51
80.000003179260077
  0
ARC
  5
3B7
100
AcDbEntity
  8
0
  6
CONTINUOUS
 62
               7
100
AcDbCircle
 10
20.774245373853631
 20
43.016821734778773
 30
0.0
 40
0.1
100
AcDbArc
 50
80.000003179257689
 51
215.00000000000389
  0
ARC
  5
3B8
100
AcDbEntity
  8
0
  6
CONTINUOUS
 62
               7
100
AcDbCircle
 10
20.553856579121486
 20
42.740065392885413
 30
0.0
 40
0.1
100
AcDbArc
 50
35.00000000000388
 51
180.0
  0
ARC
  5
3B9
100
AcDbEntity
  8
0
  6
CONTINUOUS
 62
               7
100
AcDbCircle
 10
20.553856579121486
 20
40.288339249063142
 30
0.0
 40
0.1
100
AcDbArc
 50
180.0
 51
304.99999999999653
  0
LINE
  5
3BA
100
AcDbEntity
  8
0
  6
CONTINUOUS
 62
               7
100
AcDbLine
 10
23.60443384281038
 20
42.314209419229599
 30
0.0
 11
23.470997957173466
 21
42.504775613329855
 31
0.0
  0
LINE
  5
3BB
100
AcDbEntity
  8
0
  6
CONTINUOUS
 62
               7
100
AcDbLine
 10
23.29182986816329
 20
42.479923894853073
 30
0.0
 11
23.43447222452815
 21
42.276209497933621
 31
0.0
  0
LINE
  5
3BC
100
AcDbEntity
  8
0
  6
CONTINUOUS
 62
               7
100
AcDbLine
 10
25.872982628270904
 20
39.433200305540936
 30
0.0
 11
25.70848261211151
 21
39.668130675728037
 31
0.0
  0
LINE
  5
3BD
100
AcDbEntity
  8
0
  6
CONTINUOUS
 62
               7
100
AcDbLine
 10
25.810840210013737
 20
39.277902265166233
 30
0.0
 11
25.677404335641455
 21
39.468468443178892
 31
0.0
  0
LINE
  5
3BE
100
AcDbEntity
  8
0
  6
CONTINUOUS
 62
               7
100
AcDbLine
 10
22.995998612571896
 20
39.738969537581056
 30
0.0
 11
22.838804592871128
 21
39.963465863488466
 31
0.0
  0
LINE
  5
3BF
100
AcDbEntity
  8
0
  6
CONTINUOUS
 62
               7
100
AcDbLine
 10
23.17711458089309
 20
39.723123929108169
 30
0.0
 11
23.0525570200993
 21
39.901010561280486
 31
0.0
  0
LINE
  5
3C0
100
AcDbEntity
  8
0
  6
CONTINUOUS
 62
               7
100
AcDbLine
 10
20.692330169424764
 20
42.959464091143673
 30
0.0
 11
20.8495243863224
 21
42.734967483609921
 31
0.0
  0
LINE
  5
3C1
100
AcDbEntity
  8
0
  6
CONTINUOUS
 62
               7
100
AcDbLine
 10
20.635771783550382
 20
42.797423036520513
 30
0.0
 11
20.81835659528096
 21
42.536664901586107
 31
0.0
  0
LINE
  5
3C2
100
AcDbEntity
  8
0
  6
CONTINUOUS
 62
               7
100
AcDbLine
 10
23.434472224528179
 20
42.276209497933621
 30
0.0
 11
23.434472224528179
 21
39.781250232321156
 31
0.0
  0
LINE
  5
3C3
100
AcDbEntity
  8
0
  6
CONTINUOUS
 62
               7
100
AcDbLine
 10
23.034472224528173
 20
39.958368204915587
 30
0.0
 11
23.034472224528173
 21
42.369740886584907
 31
0.0
  0
LINE
  5
3C4
100
AcDbEntity
  8
0
  6
CONTINUOUS
 62
               7
100
AcDbLine
 10
23.077114580893067
 20
42.451656091013774
 30
0.0
 11
23.152557020099295
 21
42.504481455646896
 31
0.0
  0
LINE
  5
3C5
100
AcDbEntity
  8
0
  6
CONTINUOUS
 62
               7
100
AcDbLine
 10
25.59039781654036
 20
41.934289410905194
 30
0.0
 11
25.814893595090552
 21
42.091483047342308
 31
0.0
  0
LINE
  5
3C6
100
AcDbEntity
  8
0
  6
CONTINUOUS
 62
               7
100
AcDbLine
 10
23.316387428957142
 20
39.698566368314346
 30
0.0
 11
23.434472224528179
 21
39.781250232321156
 31
0.0
  0
LINE
  5
3C7
100
AcDbEntity
  8
0
  6
CONTINUOUS
 62
               7
100
AcDbLine
 10
20.611214222756615
 20
40.206424044634218
 30
0.0
 11
20.818356595280932
 21
40.351466695358397
 31
0.0
  0
LINE
  5
3C8
100
AcDbEntity
  8
0
  6
CONTINUOUS
 62
               7
100
AcDbLine
 10
22.758252913106361
 20
42.398407501404392
 30
0.0
 11
22.982749255003966
 21
42.55560153230158
 31
0.0
  0
LINE
  5
3C9
100
AcDbEntity
  8
0
  6
CONTINUOUS
 62
               7
100
AcDbLine
 10
25.733040172905277
 20
41.864147910278916
 30
0.0
 11
25.897540189064699
 21
41.97933206162935
 31
0.0
  0
LINE
  5
3CA
100
AcDbEntity
  8
0
  6
CONTINUOUS
 62
               7
100
AcDbLine
 10
23.532233006620118
 20
39.679682315062223
 30
0.0
 11
23.722798638064575
 21
39.813117806723312
 31
0.0
  0
LINE
  5
3CB
100
AcDbEntity
  8
0
  6
CONTINUOUS
 62
               7
100
AcDbLine
 10
20.751617361213363
 20
40.134714626748973
 30
0.0
 11
20.94218277450841
 21
40.2681499656602
 31
0.0
  0
LINE
  5
3CC
100
AcDbEntity
  8
0
  6
CONTINUOUS
 62
               7
100
AcDbLine
 10
20.453856579121492
 20
40.288339249063142
 30
0.0
 11
20.453856579121492
 21
42.740065392885413
 31
0.0
  0
LINE
  5
3CD
100
AcDbEntity
  8
0
  6
CONTINUOUS
 62
               7
100
AcDbLine
 10
20.81835659528096
 20
42.536664901586107
 30
0.0
 11
20.81835659528096
 21
40.351466695358397
 31
0.0
  0
LINE
  5
3CE
100
AcDbEntity
  8
0
  6
CONTINUOUS
 62
               7
100
AcDbLine
 10
25.690397816540383
 20
39.725488319363137
 30
0.0
 11
25.690397816540383
 21
41.782232705849992
 31
0.0
  0
LINE
  5
3CF
100
AcDbEntity
  8
0
  6
CONTINUOUS
 62
               7
100
AcDbLine
 10
26.054897832699794
 20
39.490557949176036
 30
0.0
 11
26.054897832699794
 21
41.897416857200483
 31
0.0
  0
LINE
  5
3D0
100
AcDbEntity
  8
0
  6
CONTINUOUS
 62
               7
100
AcDbLine
 10
23.797521080652558
 20
39.829683380912968
 30
0.0
 11
25.612853930165386
 21
39.509591578162429
 31
0.0
  0
LINE
  5
3D1
100
AcDbEntity
  8
0
  6
CONTINUOUS
 62
               7
100
AcDbLine
 10
23.668984238412321
 20
42.273086285987119
 30
0.0
 11
25.59039781654036
 21
41.934289410905194
 31
0.0
  0
LINE
  5
3D2
100
AcDbEntity
  8
0
  6
CONTINUOUS
 62
               7
100
AcDbLine
 10
23.570278002116225
 20
42.660614028255225
 30
0.0
 11
25.774900791969372
 21
42.271879023061501
 31
0.0
  0
LINE
  5
3D3
100
AcDbEntity
  8
0
  6
CONTINUOUS
 62
               7
100
AcDbLine
 10
23.572225827064045
 20
39.499286336288549
 30
0.0
 11
25.711560182393754
 21
39.122063847186325
 31
0.0
  0
LINE
  5
3D4
100
AcDbEntity
  8
0
  6
CONTINUOUS
 62
               7
100
AcDbLine
 10
21.016905218100504
 20
40.284715539672845
 30
0.0
 11
22.838804592871156
 21
39.963465863488466
 31
0.0
  0
LINE
  5
3D5
100
AcDbEntity
  8
0
  6
CONTINUOUS
 62
               7
100
AcDbLine
 10
20.8495243863224
 20
42.734967483609921
 30
0.0
 11
22.758252913106361
 21
42.398407501404392
 31
0.0
  0
LINE
  5
3D6
100
AcDbEntity
  8
0
  6
CONTINUOUS
 62
               7
100
AcDbLine
 10
20.791610181657319
 20
39.954318647975299
 30
0.0
 11
22.896718584951856
 21
39.583131119601148
 31
0.0
  0
LINE
  5
3D7
100
AcDbEntity
  8
0
  6
CONTINUOUS
 62
               7
100
AcDbLine
 10
20.791610186155793
 20
43.115302511043581
 30
0.0
 11
22.942756423670971
 21
42.735997512995311
 31
0.0
  0
ARC
  5
3D8
100
AcDbEntity
  8
0
  6
CONTINUOUS
 62
               7
100
AcDbCircle
 10
23.110463337463784
 20
29.405606494079052
 30
0.0
 40
0.1
100
AcDbArc
 50
180.0
 51
215.00000000000858
  0
ARC
  5
3D9
100
AcDbEntity
  8
0
  6
CONTINUOUS
 62
               7
100
AcDbCircle
 10
23.235020898257631
 20
29.227719861906735
 30
0.0
 40
0.1
100
AcDbArc
 50
214.99999999999457
 51
304.99999999999653
  0
ARC
  5
3DA
100
AcDbEntity
  8
0
  6
CONTINUOUS
 62
               7
100
AcDbCircle
 10
23.110463337463784
 20
31.816979175748372
 30
0.0
 40
0.1
100
AcDbArc
 50
125.00000000000189
 51
180.0
  0
ARC
  5
3DB
100
AcDbEntity
  8
0
  6
CONTINUOUS
 62
               7
100
AcDbCircle
 10
23.185905776670012
 20
31.869804540381438
 30
0.0
 40
0.1
100
AcDbArc
 50
34.999999999999247
 51
124.99999999999655
  0
LINE
  5
3DC
100
AcDbEntity
  8
0
  6
CONTINUOUS
 62
               7
100
AcDbLine
 10
23.267820981098907
 20
31.927162184016538
 30
0.0
 11
23.410463337463767
 21
31.723447787097086
 31
0.0
  0
LINE
  5
3DD
100
AcDbEntity
  8
0
  6
CONTINUOUS
 62
               7
100
AcDbLine
 10
23.153105693828707
 20
29.170362218271634
 30
0.0
 11
23.028548133034917
 21
29.348248850443952
 31
0.0
  0
LINE
  5
3DE
100
AcDbEntity
  8
0
  6
CONTINUOUS
 62
               7
100
AcDbLine
 10
23.410463337463796
 20
31.723447787097086
 30
0.0
 11
23.410463337463796
 21
29.228488521484621
 31
0.0
  0
LINE
  5
3DF
100
AcDbEntity
  8
0
  6
CONTINUOUS
 62
               7
100
AcDbLine
 10
23.01046333746379
 20
29.405606494079052
 30
0.0
 11
23.01046333746379
 21
31.816979175748372
 31
0.0
  0
LINE
  5
3E0
100
AcDbEntity
  8
0
  6
CONTINUOUS
 62
               7
100
AcDbLine
 10
23.053105693828684
 20
31.898894380177239
 30
0.0
 11
23.128548133034911
 21
31.951719744810362
 31
0.0
  0
LINE
  5
3E1
100
AcDbEntity
  8
0
  6
CONTINUOUS
 62
               7
100
AcDbLine
 10
23.292378541892759
 20
29.145804657477811
 30
0.0
 11
23.410463337463796
 21
29.228488521484621
 31
0.0
  0
LINE
  5
3E2
100
AcDbEntity
  8
0
  6
CONTINUOUS
 62
               7
100
AcDbLine
 10
18.19999999999996
 20
15.0
 30
0.0
 11
28.19999999999996
 21
15.0
 31
0.0
  0
LINE
  5
3E3
100
AcDbEntity
  8
0
  6
CONTINUOUS
 62
               2
100
AcDbLine
 10
14.099999999999966
 20
64.219220935761115
 30
0.0
 11
14.099999999999966
 21
58.0
 31
0.0
  0
ENDBLK
  5
3E4
100
AcDbEntity
  8
0
100
AcDbBlockEnd
  0
BLOCK
  5
3E5
100
AcDbEntity
  8
0
100
AcDbBlockBegin
  2
MV180-05-DA-F-6
 70
               0
 10
0.0
 20
0.0
 30
0.0
  3
MV180-05-DA-F-6
  1

  0
LINE
  5
3E6
100
AcDbEntity
  8
0
  6
CONTINUOUS
 62
               7
100
AcDbLine
 10
-19.10023481972982
 20
67.5
 30
0.0
 11
-18.200000000000045
 21
67.5
 31
0.0
  0
LINE
  5
3E7
100
AcDbEntity
  8
0
  6
CONTINUOUS
 62
               7
100
AcDbLine
 10
-28.200000000000017
 20
67.5
 30
0.0
 11
-27.299765180270157
 21
67.5
 31
0.0
  0
LINE
  5
3E8
100
AcDbEntity
  8
0
  6
CONTINUOUS
 62
               7
100
AcDbLine
 10
-22.599999976758653
 20
92.699999981554186
 30
0.0
 11
-18.80000000000004
 21
92.699999981554186
 31
0.0
  0
LINE
  5
3E9
100
AcDbEntity
  8
0
  6
CONTINUOUS
 62
               7
100
AcDbLine
 10
-18.80000000000004
 20
82.121481667314626
 30
0.0
 11
-18.80000000000004
 21
92.699999981554186
 31
0.0
  0
LINE
  5
3EA
100
AcDbEntity
  8
0
  6
CONTINUOUS
 62
               7
100
AcDbLine
 10
-22.600000000000051
 20
81.451439140622455
 30
0.0
 11
-22.600000000000051
 21
92.699999981554186
 31
0.0
  0
LINE
  5
3EB
100
AcDbEntity
  8
0
  6
CONTINUOUS
 62
               7
100
AcDbLine
 10
-19.100000000000051
 20
98.434000568913476
 30
0.0
 11
-19.100000000000051
 21
92.699999981554186
 31
0.0
  0
LINE
  5
3EC
100
AcDbEntity
  8
0
  6
CONTINUOUS
 62
               7
100
AcDbLine
 10
-22.113017832343274
 20
92.699999868869781
 30
0.0
 11
-22.84274273967398
 21
101.04079375697157
 31
0.0
  0
LINE
  5
3ED
100
AcDbEntity
  8
0
  6
CONTINUOUS
 62
               7
100
AcDbLine
 10
-22.84274273967398
 20
101.04079375697157
 30
0.0
 11
-25.890615118767698
 21
118.32613696904083
 31
0.0
  0
LINE
  5
3EE
100
AcDbEntity
  8
0
  6
CONTINUOUS
 62
               7
100
AcDbLine
 10
-21.855083491082638
 20
101.19827029960193
 30
0.0
 11
-24.936426226684858
 21
118.67343333603385
 31
0.0
  0
LINE
  5
3EF
100
AcDbEntity
  8
0
  6
CONTINUOUS
 62
               7
100
AcDbLine
 10
-19.099999976758653
 20
98.443186819553389
 30
0.0
 11
-21.855083478097612
 21
101.19827032089235
 31
0.0
  0
LINE
  5
3F0
100
AcDbEntity
  8
0
  6
CONTINUOUS
 62
               7
100
AcDbLine
 10
-25.890615118150407
 20
118.3261369764805
 30
0.0
 11
-24.936426234845811
 21
118.67343333363534
 31
0.0
  0
LINE
  5
3F1
100
AcDbEntity
  8
0
  6
CONTINUOUS
 62
               7
100
AcDbLine
 10
-21.381607421125523
 20
100.72479426860811
 30
0.0
 11
-21.381607421125523
 21
118.60122195239161
 31
0.0
  0
LINE
  5
3F2
100
AcDbEntity
  8
0
  6
CONTINUOUS
 62
               7
100
AcDbLine
 10
-20.381607421125523
 20
99.724794268608107
 30
0.0
 11
-20.381607421125523
 21
118.60122195239161
 31
0.0
  0
LINE
  5
3F3
100
AcDbEntity
  8
0
  6
CONTINUOUS
 62
               7
100
AcDbLine
 10
-19.381607421125523
 20
98.724794268608107
 30
0.0
 11
-19.381607421125523
 21
118.60122195239161
 31
0.0
  0
LINE
  5
3F4
100
AcDbEntity
  8
0
  6
CONTINUOUS
 62
               7
100
AcDbLine
 10
-22.318471296044862
 20
118.60122195239161
 30
0.0
 11
-21.381607421125523
 21
118.60122195239161
 31
0.0
  0
LINE
  5
3F5
100
AcDbEntity
  8
0
  6
CONTINUOUS
 62
               7
100
AcDbLine
 10
-21.951616841063583
 20
111.60122195239161
 30
0.0
 11
-18.706782440821229
 21
111.60122195239161
 31
0.0
  0
LINE
  5
3F6
100
AcDbEntity
  8
0
  6
CONTINUOUS
 62
               7
100
AcDbLine
 10
-21.381607421125523
 20
118.60122195239161
 30
0.0
 11
-19.381607421125523
 21
118.60122195239161
 31
0.0
  0
LINE
  5
3F7
100
AcDbEntity
  8
0
  6
CONTINUOUS
 62
               7
100
AcDbLine
 10
-19.381607421125523
 20
118.60122195239161
 30
0.0
 11
-18.339927985839921
 21
118.60122195239161
 31
0.0
  0
LINE
  5
3F8
100
AcDbEntity
  8
0
  6
CONTINUOUS
 62
               7
100
AcDbLine
 10
-19.381607423950726
 20
98.724794209003463
 30
0.0
 11
-18.339927985839921
 21
118.60122195239161
 31
0.0
  0
LINE
  5
3F9
100
AcDbEntity
  8
0
  6
CONTINUOUS
 62
               7
100
AcDbLine
 10
-21.381607416500145
 20
100.72479420900346
 30
0.0
 11
-22.318471296044862
 21
118.60122195239161
 31
0.0
  0
LINE
  5
3FA
100
AcDbEntity
  8
0
  6
CONTINUOUS
 62
               2
100
AcDbLine
 10
-24.60000000000008
 20
79.098785179205521
 30
0.0
 11
-16.60000000000008
 21
80.509401024873242
 31
0.0
  0
LINE
  5
3FB
100
AcDbEntity
  8
0
  6
CONTINUOUS
 62
               2
100
AcDbLine
 10
-24.60000000000008
 20
81.098785179205521
 30
0.0
 11
-16.60000000000008
 21
82.509401024873242
 31
0.0
  0
LINE
  5
3FC
100
AcDbEntity
  8
0
  6
CONTINUOUS
 62
               7
100
AcDbLine
 10
-18.80000000000004
 20
68.0
 30
0.0
 11
-18.80000000000004
 21
80.121481667314626
 31
0.0
  0
LINE
  5
3FD
100
AcDbEntity
  8
0
  6
CONTINUOUS
 62
               7
100
AcDbLine
 10
-22.600000000000051
 20
68.0
 30
0.0
 11
-22.600000000000051
 21
79.451439140622455
 31
0.0
  0
ARC
  5
3FE
100
AcDbEntity
  8
0
  6
CONTINUOUS
 62
               4
100
AcDbCircle
 10
-5.5
 20
0.5
 30
0.0
 40
0.5
100
AcDbArc
 50
180.0
 51
270.0
  0
ARC
  5
3FF
100
AcDbEntity
  8
0
  6
CONTINUOUS
 62
               4
100
AcDbCircle
 10
-4.0
 20
2.0
 30
0.0
 40
0.4
100
AcDbArc
 50
180.0
 51
270.0
  0
ARC
  5
400
100
AcDbEntity
  8
0
  6
CONTINUOUS
 62
               4
100
AcDbCircle
 10
3.5
 20
0.5
 30
0.0
 40
0.5
100
AcDbArc
 50
270.0
 51
0.0
  0
ARC
  5
401
100
AcDbEntity
  8
0
  6
CONTINUOUS
 62
               4
100
AcDbCircle
 10
3.5
 20
1.1000000000000227
 30
0.0
 40
0.5
100
AcDbArc
 50
0.0
 51
90.0
  0
ARC
  5
402
100
AcDbEntity
  8
0
  6
CONTINUOUS
 62
               4
100
AcDbCircle
 10
-4.9000000000000057
 20
22.5
 30
0.0
 40
0.5
100
AcDbArc
 50
0.0
 51
90.0
  0
ARC
  5
403
100
AcDbEntity
  8
0
  6
CONTINUOUS
 62
               4
100
AcDbCircle
 10
-5.5
 20
22.5
 30
0.0
 40
0.5
100
AcDbArc
 50
90.0
 51
180.0
  0
LINE
  5
404
100
AcDbEntity
  8
0
  6
CONTINUOUS
 62
               4
100
AcDbLine
 10
-5.5
 20
23.0
 30
0.0
 11
-4.9000000000000057
 21
23.0
 31
0.0
  0
LINE
  5
405
100
AcDbEntity
  8
0
  6
CONTINUOUS
 62
               4
100
AcDbLine
 10
3.5
 20
1.6000000000000227
 30
0.0
 11
-5.9595917942265544
 21
1.6000000000000227
 31
0.0
  0
LINE
  5
406
100
AcDbEntity
  8
0
  6
CONTINUOUS
 62
               4
100
AcDbLine
 10
3.5
 20
0.0
 30
0.0
 11
-5.5
 21
0.0
 31
0.0
  0
LINE
  5
407
100
AcDbEntity
  8
0
  6
CONTINUOUS
 62
               4
100
AcDbLine
 10
-4.4000000000000057
 20
22.5
 30
0.0
 11
-4.4000000000000057
 21
2.0
 31
0.0
  0
LINE
  5
408
100
AcDbEntity
  8
0
  6
CONTINUOUS
 62
               4
100
AcDbLine
 10
-6.0
 20
1.0
 30
0.0
 11
-6.0
 21
0.5
 31
0.0
  0
LINE
  5
409
100
AcDbEntity
  8
0
  6
CONTINUOUS
 62
               4
100
AcDbLine
 10
4.0
 20
1.1000000000000227
 30
0.0
 11
4.0
 21
0.5
 31
0.0
  0
LINE
  5
40A
100
AcDbEntity
  8
0
  6
CONTINUOUS
 62
               4
100
AcDbLine
 10
-2.0500000000000114
 20
21.25
 30
0.0
 11
-1.8000000000000114
 21
21.0
 31
0.0
  0
LINE
  5
40B
100
AcDbEntity
  8
0
  6
CONTINUOUS
 62
               4
100
AcDbLine
 10
-2.0500000000000114
 20
16.75
 30
0.0
 11
-1.8000000000000114
 21
17.0
 31
0.0
  0
LINE
  5
40C
100
AcDbEntity
  8
0
  6
CONTINUOUS
 62
               4
100
AcDbLine
 10
-2.0500000000000114
 20
21.25
 30
0.0
 11
-2.0500000000000114
 21
16.75
 31
0.0
  0
LINE
  5
40D
100
AcDbEntity
  8
0
  6
CONTINUOUS
 62
               4
100
AcDbLine
 10
-1.8000000000000114
 20
21.0
 30
0.0
 11
-1.8000000000000114
 21
17.0
 31
0.0
  0
LINE
  5
40E
100
AcDbEntity
  8
0
  6
CONTINUOUS
 62
               4
100
AcDbLine
 10
-2.0500000000000114
 20
21.25
 30
0.0
 11
-4.4000000000000057
 21
21.25
 31
0.0
  0
LINE
  5
40F
100
AcDbEntity
  8
0
  6
CONTINUOUS
 62
               4
100
AcDbLine
 10
-2.0500000000000114
 20
16.75
 30
0.0
 11
-4.4000000000000057
 21
16.75
 31
0.0
  0
LINE
  5
410
100
AcDbEntity
  8
0
  6
CONTINUOUS
 62
               4
100
AcDbLine
 10
-2.0500000000000114
 20
3.75
 30
0.0
 11
-4.4000000000000057
 21
3.75
 31
0.0
  0
LINE
  5
411
100
AcDbEntity
  8
0
  6
CONTINUOUS
 62
               4
100
AcDbLine
 10
-2.0500000000000114
 20
8.25
 30
0.0
 11
-4.4000000000000057
 21
8.25
 31
0.0
  0
LINE
  5
412
100
AcDbEntity
  8
0
  6
CONTINUOUS
 62
               4
100
AcDbLine
 10
-1.8000000000000114
 20
8.0
 30
0.0
 11
-1.8000000000000114
 21
4.0
 31
0.0
  0
LINE
  5
413
100
AcDbEntity
  8
0
  6
CONTINUOUS
 62
               4
100
AcDbLine
 10
-2.0500000000000114
 20
8.25
 30
0.0
 11
-2.0500000000000114
 21
3.75
 31
0.0
  0
LINE
  5
414
100
AcDbEntity
  8
0
  6
CONTINUOUS
 62
               4
100
AcDbLine
 10
-2.0500000000000114
 20
3.75
 30
0.0
 11
-1.8000000000000114
 21
4.0
 31
0.0
  0
LINE
  5
415
100
AcDbEntity
  8
0
  6
CONTINUOUS
 62
               4
100
AcDbLine
 10
-2.0500000000000114
 20
8.25
 30
0.0
 11
-1.8000000000000114
 21
8.0
 31
0.0
  0
LINE
  5
416
100
AcDbEntity
  8
0
  6
CONTINUOUS
 62
             200
100
AcDbLine
 10
-7.7000000000000171
 20
6.0
 30
0.0
 11
-0.4512971541956006
 21
6.0
 31
0.0
  0
LINE
  5
417
100
AcDbEntity
  8
0
  6
CONTINUOUS
 62
             200
100
AcDbLine
 10
-7.7000000000000171
 20
19.0
 30
0.0
 11
-0.4512971541956006
 21
19.0
 31
0.0
  0
LINE
  5
418
100
AcDbEntity
  8
0
  6
CONTINUOUS
 62
             200
100
AcDbLine
 10
0.0
 20
-1.6999999999999886
 30
0.0
 11
0.0
 21
3.3000000000000114
 31
0.0
  0
LINE
  5
419
100
AcDbEntity
  8
0
  6
CONTINUOUS
 62
               7
100
AcDbLine
 10
-27.613064529693446
 20
67.000000079349448
 30
0.0
 11
-27.614213562373095
 21
67.000000079349448
 31
0.0
  0
LINE
  5
41A
100
AcDbEntity
  8
0
  6
CONTINUOUS
 62
               7
100
AcDbLine
 10
-27.613064529693446
 20
67.000000079349448
 30
0.0
 11
-27.590131909555254
 21
67.000000079349448
 31
0.0
  0
LINE
  5
41B
100
AcDbEntity
  8
0
  6
CONTINUOUS
 62
               7
100
AcDbLine
 10
-27.613064529693474
 20
67.000000079349391
 30
0.0
 11
-27.635594251934492
 21
66.932743800671986
 31
0.0
  0
ARC
  5
41C
100
AcDbEntity
  8
0
  6
CONTINUOUS
 62
               7
100
AcDbCircle
 10
-26.170606114431507
 20
66.493899955554923
 30
0.0
 40
1.5070470524593949
100
AcDbArc
 50
87.968786385478168
 51
179.7680813603142
  0
ARC
  5
41D
100
AcDbEntity
  8
0
  6
CONTINUOUS
 62
               7
100
AcDbCircle
 10
-26.199999999999989
 20
66.500000079349434
 30
0.0
 40
1.5
100
AcDbArc
 50
163.24116022025532
 51
179.99999999999918
  0
ARC
  5
41E
100
AcDbEntity
  8
0
  6
CONTINUOUS
 62
               7
100
AcDbCircle
 10
-20.22939388556847
 20
66.493899955554923
 30
0.0
 40
1.5070470524593949
100
AcDbArc
 50
0.2319186396856632
 51
92.031213614521704
  0
LINE
  5
41F
100
AcDbEntity
  8
0
  6
CONTINUOUS
 62
               7
100
AcDbLine
 10
-27.699999999999989
 20
66.500000079349462
 30
0.0
 11
-18.699999999999989
 21
66.500000079349462
 31
0.0
  0
LINE
  5
420
100
AcDbEntity
  8
0
  6
CONTINUOUS
 62
               7
100
AcDbLine
 10
-10.850000000000023
 20
59.51922093576114
 30
0.0
 11
-10.850000000000023
 21
62.219220935761129
 31
0.0
  0
LINE
  5
421
100
AcDbEntity
  8
0
  6
CONTINUOUS
 62
               7
100
AcDbLine
 10
-17.350000000000023
 20
59.51922093576114
 30
0.0
 11
-17.350000000000023
 21
62.219220935761129
 31
0.0
  0
LINE
  5
422
100
AcDbEntity
  8
0
  6
CONTINUOUS
 62
               7
100
AcDbLine
 10
-17.350000000000023
 20
62.219220935761129
 30
0.0
 11
-10.850000000000023
 21
62.219220935761129
 31
0.0
  0
LINE
  5
423
100
AcDbEntity
  8
0
  6
CONTINUOUS
 62
               7
100
AcDbLine
 10
-17.350000000000023
 20
62.219220935761129
 30
0.0
 11
-16.850000000000023
 21
62.719220935761129
 31
0.0
  0
LINE
  5
424
100
AcDbEntity
  8
0
  6
CONTINUOUS
 62
               7
100
AcDbLine
 10
-10.850000000000023
 20
62.219220935761129
 30
0.0
 11
-11.350000000000023
 21
62.719220935761129
 31
0.0
  0
LINE
  5
425
100
AcDbEntity
  8
0
  6
CONTINUOUS
 62
               7
100
AcDbLine
 10
-11.350000000000023
 20
62.719220935761129
 30
0.0
 11
-16.850000000000023
 21
62.719220935761129
 31
0.0
  0
LINE
  5
426
100
AcDbEntity
  8
0
  6
CONTINUOUS
 62
               7
100
AcDbLine
 10
-28.200000000000045
 20
15.0
 30
0.0
 11
-18.200000000000045
 21
15.0
 31
0.0
  0
LINE
  5
427
100
AcDbEntity
  8
0
  6
CONTINUOUS
 62
               7
100
AcDbLine
 10
-6.0000000000000284
 20
59.5
 30
0.0
 11
-6.0000000000000284
 21
1.0
 31
0.0
  0
LINE
  5
428
100
AcDbEntity
  8
0
  6
CONTINUOUS
 62
               7
100
AcDbLine
 10
-18.199999999999989
 20
68.000000079349434
 30
0.0
 11
-18.200000000000074
 21
1.0
 31
0.0
  0
CIRCLE
  5
429
100
AcDbEntity
  8
0
  6
CONTINUOUS
 62
               7
100
AcDbCircle
 10
-10.100000000000051
 20
11.850000017499951
 30
0.0
 40
2.1000000000000001
  0
CIRCLE
  5
42A
100
AcDbEntity
  8
0
  6
CONTINUOUS
 62
               2
100
AcDbCircle
 10
-10.100000000000051
 20
11.850000017499951
 30
0.0
 40
2.5
  0
CIRCLE
  5
42B
100
AcDbEntity
  8
0
  6
CONTINUOUS
 62
               7
100
AcDbCircle
 10
-10.100000000000051
 20
33.25
 30
0.0
 40
2.1000000000000001
  0
CIRCLE
  5
42C
100
AcDbEntity
  8
0
  6
CONTINUOUS
 62
               2
100
AcDbCircle
 10
-10.100000000000051
 20
33.25
 30
0.0
 40
2.5
  0
CIRCLE
  5
42D
100
AcDbEntity
  8
0
  6
CONTINUOUS
 62
               7
100
AcDbCircle
 10
-10.100000000000051
 20
48.149999982500049
 30
0.0
 40
2.1000000000000001
  0
CIRCLE
  5
42E
100
AcDbEntity
  8
0
  6
CONTINUOUS
 62
               2
100
AcDbCircle
 10
-10.100000000000051
 20
48.149999982500049
 30
0.0
 40
2.5
  0
LINE
  5
42F
100
AcDbEntity
  8
0
  6
CONTINUOUS
 62
               7
100
AcDbLine
 10
-6.0000000000000284
 20
59.5
 30
0.0
 11
-18.200000000000017
 21
59.5
 31
0.0
  0
LINE
  5
430
100
AcDbEntity
  8
0
  6
CONTINUOUS
 62
               7
100
AcDbLine
 10
-6.0000000000000284
 20
1.0
 30
0.0
 11
-28.200000000000045
 21
1.0
 31
0.0
  0
LINE
  5
431
100
AcDbEntity
  8
0
  6
CONTINUOUS
 62
               7
100
AcDbLine
 10
-28.200000000000045
 20
1.0
 30
0.0
 11
-28.200000000000045
 21
67.5
 31
0.0
  0
LINE
  5
432
100
AcDbEntity
  8
0
  6
CONTINUOUS
 62
               7
100
AcDbLine
 10
-28.099999999999994
 20
60.000000079349405
 30
0.0
 11
-18.299999999999983
 21
60.000000079349405
 31
0.0
  0
LINE
  5
433
100
AcDbEntity
  8
0
  6
CONTINUOUS
 62
               7
100
AcDbLine
 10
-26.117190429163088
 20
68.000000079349434
 30
0.0
 11
-18.199999999999989
 21
68.000000079349434
 31
0.0
  0
LINE
  5
434
100
AcDbEntity
  8
0
  6
CONTINUOUS
 62
               7
100
AcDbLine
 10
-27.699999999999989
 20
60.300000079349445
 30
0.0
 11
-27.399999999999977
 21
60.000000079349405
 31
0.0
  0
LINE
  5
435
100
AcDbEntity
  8
0
  6
CONTINUOUS
 62
               7
100
AcDbLine
 10
-19.0
 20
60.000000079349405
 30
0.0
 11
-18.699999999999989
 21
60.300000079349445
 31
0.0
  0
LINE
  5
436
100
AcDbEntity
  8
0
  6
CONTINUOUS
 62
               7
100
AcDbLine
 10
-22.418583200498801
 20
60.300000079349445
 30
0.0
 11
-21.660909355034477
 21
60.300000079349445
 31
0.0
  0
LINE
  5
437
100
AcDbEntity
  8
0
  6
CONTINUOUS
 62
               7
100
AcDbLine
 10
-21.660909355034477
 20
60.300000079349445
 30
0.0
 11
-20.949999999999989
 21
60.300000079349445
 31
0.0
  0
LINE
  5
438
100
AcDbEntity
  8
0
  6
CONTINUOUS
 62
               7
100
AcDbLine
 10
-20.949999999999989
 20
60.300000079349445
 30
0.0
 11
-20.307455756410548
 21
60.300000079349445
 31
0.0
  0
LINE
  5
439
100
AcDbEntity
  8
0
  6
CONTINUOUS
 62
               7
100
AcDbLine
 10
-20.307455756410548
 20
60.300000079349445
 30
0.0
 11
-19.752800005964588
 21
60.300000079349445
 31
0.0
  0
LINE
  5
43A
100
AcDbEntity
  8
0
  6
CONTINUOUS
 62
               7
100
AcDbLine
 10
-19.752800005964588
 20
60.300000079349445
 30
0.0
 11
-19.302885682970015
 21
60.300000079349445
 31
0.0
  0
LINE
  5
43B
100
AcDbEntity
  8
0
  6
CONTINUOUS
 62
               7
100
AcDbLine
 10
-19.302885682970015
 20
60.300000079349445
 30
0.0
 11
-18.9713832064634
 21
60.300000079349445
 31
0.0
  0
LINE
  5
43C
100
AcDbEntity
  8
0
  6
CONTINUOUS
 62
               7
100
AcDbLine
 10
-18.9713832064634
 20
60.300000079349445
 30
0.0
 11
-18.768365111445064
 21
60.300000079349445
 31
0.0
  0
LINE
  5
43D
100
AcDbEntity
  8
0
  6
CONTINUOUS
 62
               7
100
AcDbLine
 10
-18.768365111445064
 20
60.300000079349445
 30
0.0
 11
-18.699999999999989
 21
60.300000079349445
 31
0.0
  0
LINE
  5
43E
100
AcDbEntity
  8
0
  6
CONTINUOUS
 62
               7
100
AcDbLine
 10
-27.699999999999989
 20
60.300000079349445
 30
0.0
 11
-27.631634888554913
 21
60.300000079349445
 31
0.0
  0
LINE
  5
43F
100
AcDbEntity
  8
0
  6
CONTINUOUS
 62
               7
100
AcDbLine
 10
-27.631634888554913
 20
60.300000079349445
 30
0.0
 11
-27.428616793536577
 21
60.300000079349445
 31
0.0
  0
LINE
  5
440
100
AcDbEntity
  8
0
  6
CONTINUOUS
 62
               7
100
AcDbLine
 10
-27.428616793536577
 20
60.300000079349445
 30
0.0
 11
-27.097114317029963
 21
60.300000079349445
 31
0.0
  0
LINE
  5
441
100
AcDbEntity
  8
0
  6
CONTINUOUS
 62
               7
100
AcDbLine
 10
-27.097114317029963
 20
60.300000079349445
 30
0.0
 11
-26.64719999403539
 21
60.300000079349445
 31
0.0
  0
LINE
  5
442
100
AcDbEntity
  8
0
  6
CONTINUOUS
 62
               7
100
AcDbLine
 10
-26.64719999403539
 20
60.300000079349445
 30
0.0
 11
-26.092544243589401
 21
60.300000079349445
 31
0.0
  0
LINE
  5
443
100
AcDbEntity
  8
0
  6
CONTINUOUS
 62
               7
100
AcDbLine
 10
-26.092544243589401
 20
60.300000079349445
 30
0.0
 11
-25.449999999999989
 21
60.300000079349445
 31
0.0
  0
LINE
  5
444
100
AcDbEntity
  8
0
  6
CONTINUOUS
 62
               7
100
AcDbLine
 10
-25.449999999999989
 20
60.300000079349445
 30
0.0
 11
-24.739090644965472
 21
60.300000079349445
 31
0.0
  0
LINE
  5
445
100
AcDbEntity
  8
0
  6
CONTINUOUS
 62
               7
100
AcDbLine
 10
-24.739090644965472
 20
60.300000079349445
 30
0.0
 11
-23.981416799501176
 21
60.300000079349445
 31
0.0
  0
LINE
  5
446
100
AcDbEntity
  8
0
  6
CONTINUOUS
 62
               7
100
AcDbLine
 10
-23.981416799501176
 20
60.30000007934936
 30
0.0
 11
-23.199999999999989
 21
60.30000007934936
 31
0.0
  0
LINE
  5
447
100
AcDbEntity
  8
0
  6
CONTINUOUS
 62
               7
100
AcDbLine
 10
-23.199999999999989
 20
60.300000079349445
 30
0.0
 11
-22.418583200498801
 21
60.300000079349445
 31
0.0
  0
LINE
  5
448
100
AcDbEntity
  8
0
  6
CONTINUOUS
 62
               7
100
AcDbLine
 10
-27.699999999999989
 20
60.30000007934936
 30
0.0
 11
-27.699999999999989
 21
66.500000079349462
 31
0.0
  0
LINE
  5
449
100
AcDbEntity
  8
0
  6
CONTINUOUS
 62
               7
100
AcDbLine
 10
-18.786935470306531
 20
67.000000079349377
 30
0.0
 11
-18.764405748065485
 21
66.932743800671972
 31
0.0
  0
LINE
  5
44A
100
AcDbEntity
  8
0
  6
CONTINUOUS
 62
               7
100
AcDbLine
 10
-18.699999999999989
 20
60.30000007934936
 30
0.0
 11
-18.699999999999989
 21
66.500000079349462
 31
0.0
  0
LINE
  5
44B
100
AcDbEntity
  8
0
  6
CONTINUOUS
 62
               7
100
AcDbLine
 10
-18.78693547030656
 20
67.000000079349434
 30
0.0
 11
-18.809868090444724
 21
67.000000079349434
 31
0.0
  0
LINE
  5
44C
100
AcDbEntity
  8
0
  6
CONTINUOUS
 62
               7
100
AcDbLine
 10
-18.78693547030656
 20
67.000000079349434
 30
0.0
 11
-18.785786437626882
 21
67.000000079349434
 31
0.0
  0
ARC
  5
44D
100
AcDbEntity
  8
0
  6
CONTINUOUS
 62
               7
100
AcDbCircle
 10
-18.299999999999983
 20
59.900000079349411
 30
0.0
 40
0.1
100
AcDbArc
 50
0.0000000000081422
 51
90.0
  0
ARC
  5
44E
100
AcDbEntity
  8
0
  6
CONTINUOUS
 62
               7
100
AcDbCircle
 10
-28.099999999999994
 20
59.900000079349411
 30
0.0
 40
0.1
100
AcDbArc
 50
90.0
 51
180.0
  0
ARC
  5
44F
100
AcDbEntity
  8
0
  6
CONTINUOUS
 62
               7
100
AcDbCircle
 10
-20.199999999999989
 20
66.500000079349434
 30
0.0
 40
1.5
100
AcDbArc
 50
0.000000000001107
 51
16.758839779744566
  0
LINE
  5
450
100
AcDbEntity
  8
0
  6
CONTINUOUS
 62
               2
100
AcDbLine
 10
-10.100000000000023
 20
7.8500000174999798
 30
0.0
 11
-10.100000000000023
 21
15.85000001749998
 31
0.0
  0
LINE
  5
451
100
AcDbEntity
  8
0
  6
CONTINUOUS
 62
               2
100
AcDbLine
 10
-14.100000000000023
 20
11.85000001749998
 30
0.0
 11
-6.1000000000000227
 21
11.85000001749998
 31
0.0
  0
LINE
  5
452
100
AcDbEntity
  8
0
  6
CONTINUOUS
 62
               2
100
AcDbLine
 10
-10.100000000000023
 20
29.25
 30
0.0
 11
-10.100000000000023
 21
37.25
 31
0.0
  0
LINE
  5
453
100
AcDbEntity
  8
0
  6
CONTINUOUS
 62
               2
100
AcDbLine
 10
-14.100000000000023
 20
33.25
 30
0.0
 11
-6.1000000000000227
 21
33.25
 31
0.0
  0
LINE
  5
454
100
AcDbEntity
  8
0
  6
CONTINUOUS
 62
               2
100
AcDbLine
 10
-10.100000000000023
 20
44.149999982500049
 30
0.0
 11
-10.100000000000023
 21
52.149999982500049
 31
0.0
  0
LINE
  5
455
100
AcDbEntity
  8
0
  6
CONTINUOUS
 62
               2
100
AcDbLine
 10
-14.100000000000023
 20
48.149999982500049
 30
0.0
 11
-6.1000000000000227
 21
48.149999982500049
 31
0.0
  0
LINE
  5
456
100
AcDbEntity
  8
0
  6
CONTINUOUS
 62
               2
100
AcDbLine
 10
-23.200000000000045
 20
3.5
 30
0.0
 11
-23.200000000000045
 21
11.5
 31
0.0
  0
LINE
  5
457
100
AcDbEntity
  8
0
  6
CONTINUOUS
 62
               2
100
AcDbLine
 10
-27.200000000000045
 20
7.5
 30
0.0
 11
-19.200000000000045
 21
7.5
 31
0.0
  0
LINE
  5
458
100
AcDbEntity
  8
0
  6
CONTINUOUS
 62
               7
100
AcDbLine
 10
-18.200000000000017
 20
1.0998875936367654
 30
0.0
 11
-18.200112168482178
 21
1.0998878315179468
 31
0.0
  0
CIRCLE
  5
459
100
AcDbEntity
  8
0
  6
CONTINUOUS
 62
               7
100
AcDbCircle
 10
-23.200000000000045
 20
7.5
 30
0.0
 40
2.1000000000000001
  0
CIRCLE
  5
45A
100
AcDbEntity
  8
0
  6
CONTINUOUS
 62
               2
100
AcDbCircle
 10
-23.200000000000045
 20
7.5
 30
0.0
 40
2.5
  0
LINE
  5
45B
100
AcDbEntity
  8
0
  6
CONTINUOUS
 62
               2
100
AcDbLine
 10
-14.100000000000023
 20
64.219220935761129
 30
0.0
 11
-14.100000000000023
 21
58.0
 31
0.0
  0
ENDBLK
  5
45C
100
AcDbEntity
  8
0
100
AcDbBlockEnd
  0
BLOCK
  5
45D
100
AcDbEntity
  8
0
100
AcDbBlockBegin
  2
MV180-05-DA-F-7
 70
               0
 10
0.0
 20
0.0
 30
0.0
  3
MV180-05-DA-F-7
  1

  0
LINE
  5
45E
100
AcDbEntity
  8
0
  6
CONTINUOUS
 62
               7
100
AcDbLine
 10
-59.900000035276662
 20
12.380391266960089
 30
0.0
 11
-59.500000000000114
 21
12.380391266960089
 31
0.0
  0
LINE
  5
45F
100
AcDbEntity
  8
0
  6
CONTINUOUS
 62
               7
100
AcDbLine
 10
-59.900000035276662
 20
16.380391266960089
 30
0.0
 11
-59.499999994576932
 21
16.380391266960089
 31
0.0
  0
ARC
  5
460
100
AcDbEntity
  8
0
  6
CONTINUOUS
 62
               7
100
AcDbCircle
 10
-59.900711472940372
 20
16.181102704623839
 30
0.0
 40
0.1992898322082596
100
AcDbArc
 50
89.795461405895622
 51
180.20453859410443
  0
LINE
  5
461
100
AcDbEntity
  8
0
  6
CONTINUOUS
 62
               7
100
AcDbLine
 10
-60.100000035276651
 20
16.180391266960072
 30
0.0
 11
-60.100000035276651
 21
12.580391266960078
 31
0.0
  0
ARC
  5
462
100
AcDbEntity
  8
0
  6
CONTINUOUS
 62
               7
100
AcDbCircle
 10
-59.900711472940372
 20
12.57967982929631
 30
0.0
 40
0.1992898322082596
100
AcDbArc
 50
179.79546140589542
 51
270.20453859410446
  0
LINE
  5
463
100
AcDbEntity
  8
0
  6
CONTINUOUS
 62
               7
100
AcDbLine
 10
-60.100000035276651
 20
15.030391266960066
 30
0.0
 11
-63.600000035276651
 21
15.030391266960066
 31
0.0
  0
LINE
  5
464
100
AcDbEntity
  8
0
  6
CONTINUOUS
 62
               7
100
AcDbLine
 10
-60.100000035276651
 20
13.730391266960083
 30
0.0
 11
-63.829225110197655
 21
13.730391266960083
 31
0.0
  0
LINE
  5
465
100
AcDbEntity
  8
0
  6
CONTINUOUS
 62
               7
100
AcDbLine
 10
-68.300000035276724
 20
13.730391266960083
 30
0.0
 11
-68.300000035276724
 21
15.030391266960066
 31
0.0
  0
LINE
  5
466
100
AcDbEntity
  8
0
  6
CONTINUOUS
 62
               7
100
AcDbLine
 10
-68.300000035276724
 20
14.130391266960061
 30
0.0
 11
-72.300000035276724
 21
14.130391266960061
 31
0.0
  0
LINE
  5
467
100
AcDbEntity
  8
0
  6
CONTINUOUS
 62
               7
100
AcDbLine
 10
-68.300000035276724
 20
14.630391266960061
 30
0.0
 11
-72.300000035276724
 21
14.630391266960061
 31
0.0
  0
LINE
  5
468
100
AcDbEntity
  8
0
  6
CONTINUOUS
 62
               7
100
AcDbLine
 10
-64.100000035276651
 20
15.030391266960066
 30
0.0
 11
-68.300000035276724
 21
15.030391266960066
 31
0.0
  0
LINE
  5
469
100
AcDbEntity
  8
0
  6
CONTINUOUS
 62
               7
100
AcDbLine
 10
-64.329225110197655
 20
13.730391266960083
 30
0.0
 11
-68.300000035276724
 21
13.730391266960083
 31
0.0
  0
LINE
  5
46A
100
AcDbEntity
  8
0
  6
CONTINUOUS
 62
               7
100
AcDbLine
 10
-72.300000035276724
 20
14.630391266960061
 30
0.0
 11
-72.300000035276724
 21
14.130391266960061
 31
0.0
  0
LINE
  5
46B
100
AcDbEntity
  8
0
  6
CONTINUOUS
 62
               2
100
AcDbLine
 10
-64.028474598398219
 20
12.600391266960088
 30
0.0
 11
-63.423673054568212
 21
16.030391266960095
 31
0.0
  0
LINE
  5
46C
100
AcDbEntity
  8
0
  6
CONTINUOUS
 62
               2
100
AcDbLine
 10
-64.528474598398219
 20
12.600391266960088
 30
0.0
 11
-63.923673054568212
 21
16.030391266960095
 31
0.0
  0
LINE
  5
46D
100
AcDbEntity
  8
0
  6
CONTINUOUS
 62
               7
100
AcDbLine
 10
-59.399999976551953
 20
21.499999999649958
 30
0.0
 11
-59.423606570349989
 21
21.499999999649987
 31
0.0
  0
LINE
  5
46E
100
AcDbEntity
  8
0
  6
CONTINUOUS
 62
               7
100
AcDbLine
 10
-59.423606570349989
 20
21.499999999649987
 30
0.0
 11
-59.423606622383318
 21
21.476393353818594
 31
0.0
  0
LINE
  5
46F
100
AcDbEntity
  8
0
  6
CONTINUOUS
 62
               7
100
AcDbLine
 10
-59.399999976551953
 20
21.499999999649958
 30
0.0
 11
-59.499999976551976
 21
21.599999999649896
 31
0.0
  0
LINE
  5
470
100
AcDbEntity
  8
0
  6
CONTINUOUS
 62
               7
100
AcDbLine
 10
-59.399999976551953
 20
21.499999999649987
 30
0.0
 11
-59.199999976551965
 21
21.499999999649987
 31
0.0
  0
LINE
  5
471
100
AcDbEntity
  8
0
  6
CONTINUOUS
 62
               7
100
AcDbLine
 10
-59.399999976551953
 20
21.499999999649958
 30
0.0
 11
-59.499999976551976
 21
21.399999999649964
 31
0.0
  0
LINE
  5
472
100
AcDbEntity
  8
0
  6
CONTINUOUS
 62
               7
100
AcDbLine
 10
-59.199999976551965
 20
21.499999999649987
 30
0.0
 11
-34.499999604001914
 21
21.499999999649987
 31
0.0
  0
CIRCLE
  5
473
100
AcDbEntity
  8
0
  6
CONTINUOUS
 62
               7
100
AcDbCircle
 10
-52.999999790276945
 20
19.499999203049924
 30
0.0
 40
1.6499999999999986
  0
CIRCLE
  5
474
100
AcDbEntity
  8
0
  6
CONTINUOUS
 62
               7
100
AcDbCircle
 10
-40.999999790251991
 20
19.499999203049924
 30
0.0
 40
1.6499999999999986
  0
LINE
  5
475
100
AcDbEntity
  8
0
  6
CONTINUOUS
 62
               7
100
AcDbLine
 10
-59.499999976551976
 20
67.499999999649916
 30
0.0
 11
-34.499999604001914
 21
67.499999999649916
 31
0.0
  0
LINE
  5
476
100
AcDbEntity
  8
0
  6
CONTINUOUS
 62
               7
100
AcDbLine
 10
-43.399999803161677
 20
67.550884061065744
 30
0.0
 11
-43.399999803161677
 21
78.502323201688213
 31
0.0
  0
LINE
  5
477
100
AcDbEntity
  8
0
  6
CONTINUOUS
 62
               7
100
AcDbLine
 10
-39.599999803161722
 20
67.550884061065744
 30
0.0
 11
-39.599999803161722
 21
79.17236572838037
 31
0.0
  0
LINE
  5
478
100
AcDbEntity
  8
0
  6
CONTINUOUS
 62
               7
100
AcDbLine
 10
-36.30938468501131
 20
117.37702103754623
 30
0.0
 11
-37.263573568315906
 21
117.72431739470107
 31
0.0
  0
LINE
  5
479
100
AcDbEntity
  8
0
  6
CONTINUOUS
 62
               7
100
AcDbLine
 10
-39.881528507116855
 20
117.65210601345734
 30
0.0
 11
-40.818392382036222
 21
117.65210601345734
 31
0.0
  0
LINE
  5
47A
100
AcDbEntity
  8
0
  6
CONTINUOUS
 62
               7
100
AcDbLine
 10
-40.818392382036222
 20
117.65210601345734
 30
0.0
 11
-42.818392382036222
 21
117.65210601345734
 31
0.0
  0
LINE
  5
47B
100
AcDbEntity
  8
0
  6
CONTINUOUS
 62
               7
100
AcDbLine
 10
-42.818392382036222
 20
117.65210601345734
 30
0.0
 11
-43.860071817321796
 21
117.65210601345734
 31
0.0
  0
LINE
  5
47C
100
AcDbEntity
  8
0
  6
CONTINUOUS
 62
               7
100
AcDbLine
 10
-39.599999826403064
 20
91.75088404261993
 30
0.0
 11
-43.399999803161677
 21
91.75088404261993
 31
0.0
  0
LINE
  5
47D
100
AcDbEntity
  8
0
  6
CONTINUOUS
 62
               7
100
AcDbLine
 10
-43.399999803161677
 20
80.502323201688213
 30
0.0
 11
-43.399999803161677
 21
91.75088404261993
 31
0.0
  0
LINE
  5
47E
100
AcDbEntity
  8
0
  6
CONTINUOUS
 62
               7
100
AcDbLine
 10
-39.599999803161722
 20
81.17236572838037
 30
0.0
 11
-39.599999803161722
 21
91.75088404261993
 31
0.0
  0
LINE
  5
47F
100
AcDbEntity
  8
0
  6
CONTINUOUS
 62
               7
100
AcDbLine
 10
-43.099999803161722
 20
97.484884629979206
 30
0.0
 11
-43.099999803161722
 21
91.75088404261993
 31
0.0
  0
LINE
  5
480
100
AcDbEntity
  8
0
  6
CONTINUOUS
 62
               7
100
AcDbLine
 10
-40.086981970818442
 20
91.750883929935526
 30
0.0
 11
-39.357257063487694
 21
100.09167781803794
 31
0.0
  0
LINE
  5
481
100
AcDbEntity
  8
0
  6
CONTINUOUS
 62
               7
100
AcDbLine
 10
-43.099999826403064
 20
97.49407088061912
 30
0.0
 11
-40.344916325064105
 21
100.24915438195808
 31
0.0
  0
LINE
  5
482
100
AcDbEntity
  8
0
  6
CONTINUOUS
 62
               7
100
AcDbLine
 10
-40.248382962098162
 20
110.65210601345734
 30
0.0
 11
-43.493217362340488
 21
110.65210601345734
 31
0.0
  0
LINE
  5
483
100
AcDbEntity
  8
0
  6
CONTINUOUS
 62
               7
100
AcDbLine
 10
-40.818392386661571
 20
99.775678270069193
 30
0.0
 11
-39.881528507116855
 21
117.65210601345734
 31
0.0
  0
LINE
  5
484
100
AcDbEntity
  8
0
  6
CONTINUOUS
 62
               7
100
AcDbLine
 10
-42.818392379210991
 20
97.775678270069193
 30
0.0
 11
-43.860071817321796
 21
117.65210601345734
 31
0.0
  0
LINE
  5
485
100
AcDbEntity
  8
0
  6
CONTINUOUS
 62
               7
100
AcDbLine
 10
-42.818392382036222
 20
97.775678329673838
 30
0.0
 11
-42.818392382036222
 21
117.65210601345734
 31
0.0
  0
LINE
  5
486
100
AcDbEntity
  8
0
  6
CONTINUOUS
 62
               7
100
AcDbLine
 10
-41.818392382036222
 20
98.775678329673838
 30
0.0
 11
-41.818392382036222
 21
117.65210601345734
 31
0.0
  0
LINE
  5
487
100
AcDbEntity
  8
0
  6
CONTINUOUS
 62
               7
100
AcDbLine
 10
-40.818392382036222
 20
99.775678329673838
 30
0.0
 11
-40.818392382036222
 21
117.65210601345734
 31
0.0
  0
LINE
  5
488
100
AcDbEntity
  8
0
  6
CONTINUOUS
 62
               7
100
AcDbLine
 10
-40.344916312079135
 20
100.24915436066766
 30
0.0
 11
-37.263573576476915
 21
117.72431739709958
 31
0.0
  0
LINE
  5
489
100
AcDbEntity
  8
0
  6
CONTINUOUS
 62
               7
100
AcDbLine
 10
-39.357257063487694
 20
100.09167781803795
 30
0.0
 11
-36.309384684394104
 21
117.37702103010656
 31
0.0
  0
LINE
  5
48A
100
AcDbEntity
  8
0
  6
CONTINUOUS
 62
               2
100
AcDbLine
 10
-45.399999803161705
 20
78.14966924027128
 30
0.0
 11
-37.399999803161705
 21
79.560285085939
 31
0.0
  0
LINE
  5
48B
100
AcDbEntity
  8
0
  6
CONTINUOUS
 62
               2
100
AcDbLine
 10
-45.399999803161705
 20
80.14966924027128
 30
0.0
 11
-37.399999803161705
 21
81.560285085939
 31
0.0
  0
LINE
  5
48C
100
AcDbEntity
  8
0
  6
CONTINUOUS
 62
               7
100
AcDbLine
 10
-59.500000000000114
 20
1.0
 30
0.0
 11
-59.499999976551976
 21
67.499999999649916
 31
0.0
  0
LINE
  5
48D
100
AcDbEntity
  8
0
  6
CONTINUOUS
 62
               7
100
AcDbLine
 10
-34.499999604001914
 20
15.0
 30
0.0
 11
-34.499999604001914
 21
67.499999999649916
 31
0.0
  0
LINE
  5
48E
100
AcDbEntity
  8
0
  6
CONTINUOUS
 62
             200
100
AcDbLine
 10
-10.0
 20
-1.6999999999999886
 30
0.0
 11
-10.0
 21
3.3000000000000114
 31
0.0
  0
LINE
  5
48F
100
AcDbEntity
  8
0
  6
CONTINUOUS
 62
             200
100
AcDbLine
 10
0.0
 20
-1.6999999999999886
 30
0.0
 11
0.0
 21
3.3000000000000114
 31
0.0
  0
LINE
  5
490
100
AcDbEntity
  8
0
  6
CONTINUOUS
 62
               4
100
AcDbLine
 10
-20.5
 20
1.0
 30
0.0
 11
-20.5
 21
0.5
 31
0.0
  0
LINE
  5
491
100
AcDbEntity
  8
0
  6
CONTINUOUS
 62
               4
100
AcDbLine
 10
-20.0
 20
0.0
 30
0.0
 11
4.0
 21
0.0
 31
0.0
  0
LINE
  5
492
100
AcDbEntity
  8
0
  6
CONTINUOUS
 62
               4
100
AcDbLine
 10
-9.5000000000000568
 20
1.6000000000000227
 30
0.0
 11
4.0
 21
1.6000000000000227
 31
0.0
  0
LINE
  5
493
100
AcDbEntity
  8
0
  6
CONTINUOUS
 62
               4
100
AcDbLine
 10
4.5
 20
1.1000000000000227
 30
0.0
 11
4.5
 21
0.5
 31
0.0
  0
ARC
  5
494
100
AcDbEntity
  8
0
  6
CONTINUOUS
 62
               4
100
AcDbCircle
 10
-20.0
 20
0.5
 30
0.0
 40
0.5
100
AcDbArc
 50
180.0
 51
270.0
  0
ARC
  5
495
100
AcDbEntity
  8
0
  6
CONTINUOUS
 62
               4
100
AcDbCircle
 10
4.0
 20
0.5
 30
0.0
 40
0.5
100
AcDbArc
 50
270.0
 51
0.0
  0
ARC
  5
496
100
AcDbEntity
  8
0
  6
CONTINUOUS
 62
               4
100
AcDbCircle
 10
4.0
 20
1.1000000000000227
 30
0.0
 40
0.5
100
AcDbArc
 50
0.0
 51
90.0
  0
LINE
  5
497
100
AcDbEntity
  8
0
  6
CONTINUOUS
 62
               7
100
AcDbLine
 10
-10.463603896932199
 20
13.836396075567876
 30
0.0
 11
-11.734428877022538
 21
12.565571095477509
 31
0.0
  0
LINE
  5
498
100
AcDbEntity
  8
0
  6
CONTINUOUS
 62
               7
100
AcDbLine
 10
-11.734428877022566
 20
13.834428849522467
 30
0.0
 11
-10.46360389693217
 21
12.563603869432086
 31
0.0
  0
LINE
  5
499
100
AcDbEntity
  8
0
  6
CONTINUOUS
 62
               7
100
AcDbLine
 10
-21.363603896932148
 20
3.1363960755678875
 30
0.0
 11
-22.634428877022515
 21
1.8655710954775202
 31
0.0
  0
LINE
  5
49A
100
AcDbEntity
  8
0
  6
CONTINUOUS
 62
               7
100
AcDbLine
 10
-22.634428877022486
 20
3.1344288495224646
 30
0.0
 11
-21.363603896932119
 21
1.8636038694320973
 31
0.0
  0
LINE
  5
49B
100
AcDbEntity
  8
0
  6
CONTINUOUS
 62
               7
100
AcDbLine
 10
-31.998224030218466
 20
66.53369020928821
 30
0.0
 11
-22.998224030218466
 21
66.53369020928821
 31
0.0
  0
LINE
  5
49C
100
AcDbEntity
  8
0
  6
CONTINUOUS
 62
               7
100
AcDbLine
 10
-12.250000000000028
 20
59.500000000000028
 30
0.0
 11
-12.250000000000028
 21
62.200000000000017
 31
0.0
  0
LINE
  5
49D
100
AcDbEntity
  8
0
  6
CONTINUOUS
 62
               7
100
AcDbLine
 10
-18.750000000000028
 20
60.000000079349405
 30
0.0
 11
-18.750000000000028
 21
62.200000000000017
 31
0.0
  0
LINE
  5
49E
100
AcDbEntity
  8
0
  6
CONTINUOUS
 62
               7
100
AcDbLine
 10
-12.750000000000028
 20
62.700000000000031
 30
0.0
 11
-18.250000000000028
 21
62.700000000000031
 31
0.0
  0
LINE
  5
49F
100
AcDbEntity
  8
0
  6
CONTINUOUS
 62
               7
100
AcDbLine
 10
-12.250000000000028
 20
62.200000000000017
 30
0.0
 11
-12.750000000000028
 21
62.700000000000031
 31
0.0
  0
LINE
  5
4A0
100
AcDbEntity
  8
0
  6
CONTINUOUS
 62
               7
100
AcDbLine
 10
-18.750000000000028
 20
62.200000000000017
 30
0.0
 11
-18.250000000000028
 21
62.700000000000031
 31
0.0
  0
LINE
  5
4A1
100
AcDbEntity
  8
0
  6
CONTINUOUS
 62
               7
100
AcDbLine
 10
-18.750000000000028
 20
62.200000000000017
 30
0.0
 11
-12.250000000000028
 21
62.200000000000017
 31
0.0
  0
LINE
  5
4A2
100
AcDbEntity
  8
0
  6
CONTINUOUS
 62
               7
100
AcDbLine
 10
-59.500000000000114
 20
15.0
 30
0.0
 11
-9.5000000000000284
 21
15.0
 31
0.0
  0
LINE
  5
4A3
100
AcDbEntity
  8
0
  6
CONTINUOUS
 62
               7
100
AcDbLine
 10
-9.5000000000000568
 20
59.075735931288023
 30
0.0
 11
-9.5000000000000568
 21
1.0
 31
0.0
  0
ARC
  5
4A4
100
AcDbEntity
  8
0
  6
CONTINUOUS
 62
               7
100
AcDbCircle
 10
-24.498224030218438
 20
66.500000079349434
 30
0.0
 40
1.5
100
AcDbArc
 50
1.2869763903468026
 51
89.999999999999972
  0
ARC
  5
4A5
100
AcDbEntity
  8
0
  6
CONTINUOUS
 62
               7
100
AcDbCircle
 10
-30.498224030218466
 20
66.500000079349434
 30
0.0
 40
1.5
100
AcDbArc
 50
90.0
 51
178.71302360965319
  0
ARC
  5
4A6
100
AcDbEntity
  8
0
  6
CONTINUOUS
 62
               7
100
AcDbCircle
 10
-33.614476382137127
 20
59.900000079349411
 30
0.0
 40
0.1
100
AcDbArc
 50
90.0
 51
178.99999999999579
  0
ARC
  5
4A7
100
AcDbEntity
  8
0
  6
CONTINUOUS
 62
               7
100
AcDbCircle
 10
-12.381971678299834
 20
59.900000079349411
 30
0.0
 40
0.1000000000000018
100
AcDbArc
 50
1.0000000000042124
 51
90.000000000000014
  0
LINE
  5
4A8
100
AcDbEntity
  8
0
  6
CONTINUOUS
 62
               7
100
AcDbLine
 10
-31.998224030218466
 20
60.30000007934936
 30
0.0
 11
-31.998224030218466
 21
66.53369020928821
 31
0.0
  0
LINE
  5
4A9
100
AcDbEntity
  8
0
  6
CONTINUOUS
 62
               7
100
AcDbLine
 10
-22.998224030218466
 20
60.30000007934936
 30
0.0
 11
-22.998224030218466
 21
66.53369020928821
 31
0.0
  0
LINE
  5
4AA
100
AcDbEntity
  8
0
  6
CONTINUOUS
 62
               7
100
AcDbLine
 10
-27.864278149758633
 20
67.000000079349405
 30
0.0
 11
-27.998224030218466
 21
67.000000079349434
 31
0.0
  0
LINE
  5
4AB
100
AcDbEntity
  8
0
  6
CONTINUOUS
 62
               7
100
AcDbLine
 10
-27.998224030218466
 20
67.000000079349434
 30
0.0
 11
-27.998224030218466
 21
67.260217675588365
 31
0.0
  0
LINE
  5
4AC
100
AcDbEntity
  8
0
  6
CONTINUOUS
 62
               7
100
AcDbLine
 10
-23.066589141663513
 20
60.30000007934936
 30
0.0
 11
-22.998224030218466
 21
60.30000007934936
 31
0.0
  0
LINE
  5
4AD
100
AcDbEntity
  8
0
  6
CONTINUOUS
 62
               7
100
AcDbLine
 10
-23.269607236681878
 20
60.300000079349445
 30
0.0
 11
-23.066589141663513
 21
60.300000079349445
 31
0.0
  0
LINE
  5
4AE
100
AcDbEntity
  8
0
  6
CONTINUOUS
 62
               7
100
AcDbLine
 10
-23.601109713188492
 20
60.300000079349445
 30
0.0
 11
-23.269607236681878
 21
60.300000079349445
 31
0.0
  0
LINE
  5
4AF
100
AcDbEntity
  8
0
  6
CONTINUOUS
 62
               7
100
AcDbLine
 10
-24.051024036183065
 20
60.300000079349445
 30
0.0
 11
-23.601109713188492
 21
60.300000079349445
 31
0.0
  0
LINE
  5
4B0
100
AcDbEntity
  8
0
  6
CONTINUOUS
 62
               7
100
AcDbLine
 10
-24.605679786629025
 20
60.300000079349445
 30
0.0
 11
-24.051024036183065
 21
60.300000079349445
 31
0.0
  0
LINE
  5
4B1
100
AcDbEntity
  8
0
  6
CONTINUOUS
 62
               7
100
AcDbLine
 10
-25.248224030218438
 20
60.300000079349445
 30
0.0
 11
-24.605679786629025
 21
60.300000079349445
 31
0.0
  0
LINE
  5
4B2
100
AcDbEntity
  8
0
  6
CONTINUOUS
 62
               7
100
AcDbLine
 10
-25.959133385252954
 20
60.300000079349445
 30
0.0
 11
-25.248224030218438
 21
60.300000079349445
 31
0.0
  0
LINE
  5
4B3
100
AcDbEntity
  8
0
  6
CONTINUOUS
 62
               7
100
AcDbLine
 10
-26.716807230717251
 20
60.300000079349445
 30
0.0
 11
-25.959133385252954
 21
60.300000079349445
 31
0.0
  0
LINE
  5
4B4
100
AcDbEntity
  8
0
  6
CONTINUOUS
 62
               7
100
AcDbLine
 10
-27.498224030218438
 20
60.300000079349445
 30
0.0
 11
-26.716807230717251
 21
60.300000079349445
 31
0.0
  0
LINE
  5
4B5
100
AcDbEntity
  8
0
  6
CONTINUOUS
 62
               7
100
AcDbLine
 10
-28.279640829719625
 20
60.300000079349445
 30
0.0
 11
-27.498224030218438
 21
60.300000079349445
 31
0.0
  0
LINE
  5
4B6
100
AcDbEntity
  8
0
  6
CONTINUOUS
 62
               7
100
AcDbLine
 10
-29.037314675183978
 20
60.300000079349445
 30
0.0
 11
-28.279640829719625
 21
60.300000079349445
 31
0.0
  0
LINE
  5
4B7
100
AcDbEntity
  8
0
  6
CONTINUOUS
 62
               7
100
AcDbLine
 10
-29.748224030218438
 20
60.300000079349445
 30
0.0
 11
-29.037314675183978
 21
60.300000079349445
 31
0.0
  0
LINE
  5
4B8
100
AcDbEntity
  8
0
  6
CONTINUOUS
 62
               7
100
AcDbLine
 10
-30.390768273807879
 20
60.300000079349445
 30
0.0
 11
-29.748224030218438
 21
60.300000079349445
 31
0.0
  0
LINE
  5
4B9
100
AcDbEntity
  8
0
  6
CONTINUOUS
 62
               7
100
AcDbLine
 10
-30.945424024253867
 20
60.300000079349445
 30
0.0
 11
-30.390768273807879
 21
60.300000079349445
 31
0.0
  0
LINE
  5
4BA
100
AcDbEntity
  8
0
  6
CONTINUOUS
 62
               7
100
AcDbLine
 10
-31.39533834724844
 20
60.300000079349445
 30
0.0
 11
-30.945424024253867
 21
60.300000079349445
 31
0.0
  0
LINE
  5
4BB
100
AcDbEntity
  8
0
  6
CONTINUOUS
 62
               7
100
AcDbLine
 10
-31.726840823755055
 20
60.300000079349445
 30
0.0
 11
-31.39533834724844
 21
60.300000079349445
 31
0.0
  0
LINE
  5
4BC
100
AcDbEntity
  8
0
  6
CONTINUOUS
 62
               7
100
AcDbLine
 10
-31.929858918773391
 20
60.300000079349445
 30
0.0
 11
-31.726840823755055
 21
60.300000079349445
 31
0.0
  0
LINE
  5
4BD
100
AcDbEntity
  8
0
  6
CONTINUOUS
 62
               7
100
AcDbLine
 10
-31.998224030218466
 20
60.300000079349445
 30
0.0
 11
-31.929858918773391
 21
60.300000079349445
 31
0.0
  0
LINE
  5
4BE
100
AcDbEntity
  8
0
  6
CONTINUOUS
 62
               7
100
AcDbLine
 10
-23.298224030218449
 20
60.000000079349405
 30
0.0
 11
-22.998224030218466
 21
60.300000079349445
 31
0.0
  0
LINE
  5
4BF
100
AcDbEntity
  8
0
  6
CONTINUOUS
 62
               7
100
AcDbLine
 10
-31.998224030218466
 20
60.300000079349445
 30
0.0
 11
-31.698224030218455
 21
60.000000079349405
 31
0.0
  0
LINE
  5
4C0
100
AcDbEntity
  8
0
  6
CONTINUOUS
 62
               7
100
AcDbLine
 10
-26.798224030219018
 20
68.000000079349434
 30
0.0
 11
-24.498224030218466
 21
68.000000079349434
 31
0.0
  0
LINE
  5
4C1
100
AcDbEntity
  8
0
  6
CONTINUOUS
 62
               7
100
AcDbLine
 10
-26.798224030218449
 20
68.000000079349434
 30
0.0
 11
-26.998224030218466
 21
67.800000079349445
 31
0.0
  0
LINE
  5
4C2
100
AcDbEntity
  8
0
  6
CONTINUOUS
 62
               7
100
AcDbLine
 10
-26.998224030218466
 20
67.800000079349445
 30
0.0
 11
-26.998224030218466
 21
67.260217675588365
 31
0.0
  0
LINE
  5
4C3
100
AcDbEntity
  8
0
  6
CONTINUOUS
 62
               7
100
AcDbLine
 10
-26.998224030218466
 20
67.260217675588365
 30
0.0
 11
-26.998224030218438
 21
67.000000079349434
 31
0.0
  0
LINE
  5
4C4
100
AcDbEntity
  8
0
  6
CONTINUOUS
 62
               7
100
AcDbLine
 10
-26.998224030218438
 20
67.000000079349434
 30
0.0
 11
-27.1321699106783
 21
67.000000079349405
 31
0.0
  0
LINE
  5
4C5
100
AcDbEntity
  8
0
  6
CONTINUOUS
 62
               7
100
AcDbLine
 10
-27.998224030218466
 20
67.800000079349445
 30
0.0
 11
-27.998224030218466
 21
67.260217675588365
 31
0.0
  0
LINE
  5
4C6
100
AcDbEntity
  8
0
  6
CONTINUOUS
 62
               7
100
AcDbLine
 10
-28.198224030218455
 20
68.000000079349434
 30
0.0
 11
-27.998224030218466
 21
67.800000079349445
 31
0.0
  0
LINE
  5
4C7
100
AcDbEntity
  8
0
  6
CONTINUOUS
 62
               7
100
AcDbLine
 10
-30.498224030218466
 20
68.000000079349434
 30
0.0
 11
-28.198224030218455
 21
68.000000079349434
 31
0.0
  0
LINE
  5
4C8
100
AcDbEntity
  8
0
  6
CONTINUOUS
 62
               7
100
AcDbLine
 10
-27.598935653183588
 20
67.000000079349434
 30
0.0
 11
-27.864278149758633
 21
67.000000079349405
 31
0.0
  0
LINE
  5
4C9
100
AcDbEntity
  8
0
  6
CONTINUOUS
 62
               7
100
AcDbLine
 10
-27.598935653183588
 20
67.000000079349434
 30
0.0
 11
-27.397512407253572
 21
67.000000079349434
 31
0.0
  0
LINE
  5
4CA
100
AcDbEntity
  8
0
  6
CONTINUOUS
 62
               7
100
AcDbLine
 10
-27.1321699106783
 20
67.000000079349405
 30
0.0
 11
-27.397512407253572
 21
67.000000079349434
 31
0.0
  0
LINE
  5
4CB
100
AcDbEntity
  8
0
  6
CONTINUOUS
 62
               7
100
AcDbLine
 10
-34.496448060436904
 20
15.101745319993086
 30
0.0
 11
-33.714461151652756
 21
59.901745319993154
 31
0.0
  0
LINE
  5
4CC
100
AcDbEntity
  8
0
  6
CONTINUOUS
 62
               7
100
AcDbLine
 10
-12.281986908784205
 20
59.901745319993154
 30
0.0
 11
-11.500000000000057
 21
15.101745319993086
 31
0.0
  0
LINE
  5
4CD
100
AcDbEntity
  8
0
  6
CONTINUOUS
 62
               7
100
AcDbLine
 10
-33.614476382137127
 20
60.000000079349405
 30
0.0
 11
-12.381971678299834
 21
60.000000079349405
 31
0.0
  0
LINE
  5
4CE
100
AcDbEntity
  8
0
  6
CONTINUOUS
 62
               7
100
AcDbLine
 10
-9.7121320343560171
 20
59.412132034356006
 30
0.0
 11
-9.8000000000000398
 21
59.500000000000028
 31
0.0
  0
LINE
  5
4CF
100
AcDbEntity
  8
0
  6
CONTINUOUS
 62
               7
100
AcDbLine
 10
-12.274974418139124
 20
59.500000000000028
 30
0.0
 11
-9.8000000000000398
 21
59.500000000000028
 31
0.0
  0
LINE
  5
4D0
100
AcDbEntity
  8
0
  6
CONTINUOUS
 62
               7
100
AcDbLine
 10
-9.5000000000000568
 20
59.075735931288023
 30
0.0
 11
-9.5878679656440795
 21
59.287867965644068
 31
0.0
  0
LINE
  5
4D1
100
AcDbEntity
  8
0
  6
CONTINUOUS
 62
               7
100
AcDbLine
 10
-9.5878679656440795
 20
59.287867965644068
 30
0.0
 11
-9.5878679656440795
 21
15.0
 31
0.0
  0
LINE
  5
4D2
100
AcDbEntity
  8
0
  6
CONTINUOUS
 62
               7
100
AcDbLine
 10
-9.6500000000000625
 20
59.350000000000051
 30
0.0
 11
-9.5878679656440795
 21
59.287867965644068
 31
0.0
  0
LINE
  5
4D3
100
AcDbEntity
  8
0
  6
CONTINUOUS
 62
               7
100
AcDbLine
 10
-9.6500000000000625
 20
59.350000000000051
 30
0.0
 11
-10.100000000000051
 21
58.900000000000063
 31
0.0
  0
LINE
  5
4D4
100
AcDbEntity
  8
0
  6
CONTINUOUS
 62
               7
100
AcDbLine
 10
-9.7121320343560171
 20
59.412132034356006
 30
0.0
 11
-9.6500000000000625
 21
59.350000000000051
 31
0.0
  0
LINE
  5
4D5
100
AcDbEntity
  8
0
  6
CONTINUOUS
 62
               7
100
AcDbLine
 10
-12.273440677093703
 20
59.412132034356006
 30
0.0
 11
-9.7121320343560171
 21
59.412132034356006
 31
0.0
  0
LINE
  5
4D6
100
AcDbEntity
  8
0
  6
CONTINUOUS
 62
               7
100
AcDbLine
 10
-10.100000000000051
 20
15.0
 30
0.0
 11
-10.100000000000051
 21
58.900000000000063
 31
0.0
  0
LINE
  5
4D7
100
AcDbEntity
  8
0
  6
CONTINUOUS
 62
               7
100
AcDbLine
 10
-10.100000000000051
 20
58.900000000000063
 30
0.0
 11
-12.264501379182178
 21
58.900000000000063
 31
0.0
  0
LINE
  5
4D8
100
AcDbEntity
  8
0
  6
CONTINUOUS
 62
               7
100
AcDbLine
 10
-59.500000000000114
 20
1.0
 30
0.0
 11
-9.5000000000000284
 21
1.0
 31
0.0
  0
CIRCLE
  5
4D9
100
AcDbEntity
  8
0
  6
CONTINUOUS
 62
               7
100
AcDbCircle
 10
-22.000000000000028
 20
2.4999999724999782
 30
0.0
 40
1.3499999999999996
  0
CIRCLE
  5
4DA
100
AcDbEntity
  8
0
  6
CONTINUOUS
 62
               7
100
AcDbCircle
 10
-11.100000000000051
 20
13.199999972499981
 30
0.0
 40
1.3500000000000001
  0
CIRCLE
  5
4DB
100
AcDbEntity
  8
0
  6
CONTINUOUS
 62
               7
100
AcDbCircle
 10
-22.000000000000028
 20
2.5000000000000284
 30
0.0
 40
1.2499999999999998
  0
CIRCLE
  5
4DC
100
AcDbEntity
  8
0
  6
CONTINUOUS
 62
               7
100
AcDbCircle
 10
-11.100000000000051
 20
13.200000000000045
 30
0.0
 40
1.2499999999999993
  0
ARC
  5
4DD
100
AcDbEntity
  8
0
  6
CONTINUOUS
 62
               7
100
AcDbCircle
 10
-34.396463290921275
 20
15.100000079349371
 30
0.0
 40
0.1
100
AcDbArc
 50
178.99999999999986
 51
268.99999999999983
  0
ARC
  5
4DE
100
AcDbEntity
  8
0
  6
CONTINUOUS
 62
               7
100
AcDbCircle
 10
-11.599984769515714
 20
15.100000079349357
 30
0.0
 40
0.1
100
AcDbArc
 50
270.99999999999994
 51
1.0000000000031948
  0
ARC
  5
4DF
100
AcDbEntity
  8
0
  6
CONTINUOUS
 62
               7
100
AcDbCircle
 10
-34.396463290921275
 20
15.100000079349371
 30
0.0
 40
0.1
100
AcDbArc
 50
268.99999999999983
 51
270.0
  0
ARC
  5
4E0
100
AcDbEntity
  8
0
  6
CONTINUOUS
 62
               7
100
AcDbCircle
 10
-11.599984769515714
 20
15.100000079349371
 30
0.0
 40
0.1
100
AcDbArc
 50
270.00000000000205
 51
270.99999999999989
  0
LINE
  5
4E1
100
AcDbEntity
  8
0
  6
CONTINUOUS
 62
               2
100
AcDbLine
 10
-15.500000000000028
 20
64.200000000000031
 30
0.0
 11
-15.500000000000028
 21
58.500000079349405
 31
0.0
  0
ENDBLK
  5
4E2
100
AcDbEntity
  8
0
100
AcDbBlockEnd
  0
BLOCK
  5
4E3
100
AcDbEntity
  8
0
100
AcDbBlockBegin
  2
MV180-05-DA-F-8
 70
               0
 10
0.0
 20
0.0
 30
0.0
  3
MV180-05-DA-F-8
  1

  0
ARC
  5
4E4
100
AcDbEntity
  8
0
  6
CONTINUOUS
 62
               4
100
AcDbCircle
 10
-4.0
 20
1.1000000000000227
 30
0.0
 40
0.5
100
AcDbArc
 50
90.0
 51
180.0
  0
ARC
  5
4E5
100
AcDbEntity
  8
0
  6
CONTINUOUS
 62
               4
100
AcDbCircle
 10
-4.0
 20
0.5
 30
0.0
 40
0.5
100
AcDbArc
 50
180.0
 51
270.0
  0
LINE
  5
4E6
100
AcDbEntity
  8
0
  6
CONTINUOUS
 62
               4
100
AcDbLine
 10
-4.5
 20
1.1000000000000227
 30
0.0
 11
-4.5
 21
0.5
 31
0.0
  0
LINE
  5
4E7
100
AcDbEntity
  8
0
  6
CONTINUOUS
 62
               7
100
AcDbLine
 10
72.300000035276668
 20
14.630391266960061
 30
0.0
 11
72.300000035276668
 21
14.130391266960061
 31
0.0
  0
LINE
  5
4E8
100
AcDbEntity
  8
0
  6
CONTINUOUS
 62
               2
100
AcDbLine
 10
64.528474598398162
 20
12.600391266960088
 30
0.0
 11
63.923673054568155
 21
16.030391266960095
 31
0.0
  0
LINE
  5
4E9
100
AcDbEntity
  8
0
  6
CONTINUOUS
 62
               2
100
AcDbLine
 10
64.028474598398162
 20
12.600391266960088
 30
0.0
 11
63.423673054568155
 21
16.030391266960095
 31
0.0
  0
LINE
  5
4EA
100
AcDbEntity
  8
0
  6
CONTINUOUS
 62
               7
100
AcDbLine
 10
64.329225110197598
 20
13.730391266960083
 30
0.0
 11
68.300000035276668
 21
13.730391266960083
 31
0.0
  0
LINE
  5
4EB
100
AcDbEntity
  8
0
  6
CONTINUOUS
 62
               7
100
AcDbLine
 10
64.100000035276594
 20
15.030391266960066
 30
0.0
 11
68.300000035276668
 21
15.030391266960066
 31
0.0
  0
LINE
  5
4EC
100
AcDbEntity
  8
0
  6
CONTINUOUS
 62
               7
100
AcDbLine
 10
68.300000035276668
 20
13.730391266960083
 30
0.0
 11
68.300000035276668
 21
15.030391266960066
 31
0.0
  0
LINE
  5
4ED
100
AcDbEntity
  8
0
  6
CONTINUOUS
 62
               7
100
AcDbLine
 10
60.100000035276594
 20
13.730391266960083
 30
0.0
 11
63.829225110197598
 21
13.730391266960083
 31
0.0
  0
LINE
  5
4EE
100
AcDbEntity
  8
0
  6
CONTINUOUS
 62
               7
100
AcDbLine
 10
60.100000035276594
 20
15.030391266960066
 30
0.0
 11
63.600000035276594
 21
15.030391266960066
 31
0.0
  0
LINE
  5
4EF
100
AcDbEntity
  8
0
  6
CONTINUOUS
 62
               7
100
AcDbLine
 10
59.900000035276605
 20
12.380391266960089
 30
0.0
 11
59.100000035276594
 21
12.380391266960089
 31
0.0
  0
ARC
  5
4F0
100
AcDbEntity
  8
0
  6
CONTINUOUS
 62
               7
100
AcDbCircle
 10
59.900711472940316
 20
12.57967982929631
 30
0.0
 40
0.1992898322082596
100
AcDbArc
 50
269.79546140589554
 51
0.2045385941045798
  0
LINE
  5
4F1
100
AcDbEntity
  8
0
  6
CONTINUOUS
 62
               7
100
AcDbLine
 10
60.100000035276594
 20
16.180391266960072
 30
0.0
 11
60.100000035276594
 21
12.580391266960078
 31
0.0
  0
ARC
  5
4F2
100
AcDbEntity
  8
0
  6
CONTINUOUS
 62
               7
100
AcDbCircle
 10
59.900711472940316
 20
16.181102704623839
 30
0.0
 40
0.1992898322082596
100
AcDbArc
 50
359.79546140589559
 51
90.204538594104378
  0
LINE
  5
4F3
100
AcDbEntity
  8
0
  6
CONTINUOUS
 62
               7
100
AcDbLine
 10
59.900000035276605
 20
16.380391266960089
 30
0.0
 11
59.100000035276594
 21
16.380391266960089
 31
0.0
  0
LINE
  5
4F4
100
AcDbEntity
  8
0
  6
CONTINUOUS
 62
               7
100
AcDbLine
 10
59.500000000000057
 20
1.0
 30
0.0
 11
20.5
 21
1.0
 31
0.0
  0
LINE
  5
4F5
100
AcDbEntity
  8
0
  6
CONTINUOUS
 62
               7
100
AcDbLine
 10
53.200000035276616
 20
18.599999999999895
 30
0.0
 11
59.10000003527648
 21
18.599999999999895
 31
0.0
  0
LINE
  5
4F6
100
AcDbEntity
  8
0
  6
CONTINUOUS
 62
               7
100
AcDbLine
 10
54.500000035276571
 20
19.90918254822877
 30
0.0
 11
59.10000003527648
 21
19.098078436969828
 31
0.0
  0
LINE
  5
4F7
100
AcDbEntity
  8
0
  6
CONTINUOUS
 62
               7
100
AcDbLine
 10
59.100000035276594
 20
18.5
 30
0.0
 11
53.200000035276616
 21
18.5
 31
0.0
  0
LINE
  5
4F8
100
AcDbEntity
  8
0
  6
CONTINUOUS
 62
               7
100
AcDbLine
 10
57.000000162362255
 20
23.708806453204588
 30
0.0
 11
54.500000035276571
 21
23.708806453204588
 31
0.0
  0
LINE
  5
4F9
100
AcDbEntity
  8
0
  6
CONTINUOUS
 62
               7
100
AcDbLine
 10
59.499999976551919
 20
67.499999999649916
 30
0.0
 11
34.499999604001857
 21
67.499999999649916
 31
0.0
  0
LINE
  5
4FA
100
AcDbEntity
  8
0
  6
CONTINUOUS
 62
               7
100
AcDbLine
 10
34.499999604001857
 20
59.499999972500007
 30
0.0
 11
34.499999604001857
 21
67.499999999649916
 31
0.0
  0
LINE
  5
4FB
100
AcDbEntity
  8
0
  6
CONTINUOUS
 62
               2
100
AcDbLine
 10
45.399999803161649
 20
80.14966924027128
 30
0.0
 11
37.399999803161649
 21
81.560285085939
 31
0.0
  0
LINE
  5
4FC
100
AcDbEntity
  8
0
  6
CONTINUOUS
 62
               2
100
AcDbLine
 10
45.399999803161649
 20
78.14966924027128
 30
0.0
 11
37.399999803161649
 21
79.560285085939
 31
0.0
  0
LINE
  5
4FD
100
AcDbEntity
  8
0
  6
CONTINUOUS
 62
               7
100
AcDbLine
 10
39.357257063487651
 20
100.09167781803779
 30
0.0
 11
36.309384684394047
 21
117.37702103010656
 31
0.0
  0
LINE
  5
4FE
100
AcDbEntity
  8
0
  6
CONTINUOUS
 62
               7
100
AcDbLine
 10
40.344916312079079
 20
100.24915436066766
 30
0.0
 11
37.263573576476858
 21
117.72431739709958
 31
0.0
  0
LINE
  5
4FF
100
AcDbEntity
  8
0
  6
CONTINUOUS
 62
               7
100
AcDbLine
 10
40.818392382036166
 20
99.775678329673838
 30
0.0
 11
40.818392382036166
 21
117.65210601345734
 31
0.0
  0
LINE
  5
500
100
AcDbEntity
  8
0
  6
CONTINUOUS
 62
               7
100
AcDbLine
 10
41.818392382036166
 20
98.775678329673838
 30
0.0
 11
41.818392382036166
 21
117.65210601345734
 31
0.0
  0
LINE
  5
501
100
AcDbEntity
  8
0
  6
CONTINUOUS
 62
               7
100
AcDbLine
 10
42.818392382036166
 20
97.775678329673838
 30
0.0
 11
42.818392382036166
 21
117.65210601345734
 31
0.0
  0
LINE
  5
502
100
AcDbEntity
  8
0
  6
CONTINUOUS
 62
               7
100
AcDbLine
 10
42.818392379210934
 20
97.775678270069193
 30
0.0
 11
43.860071817321739
 21
117.65210601345734
 31
0.0
  0
LINE
  5
503
100
AcDbEntity
  8
0
  6
CONTINUOUS
 62
               7
100
AcDbLine
 10
40.818392386661515
 20
99.775678270069193
 30
0.0
 11
39.881528507116798
 21
117.65210601345734
 31
0.0
  0
LINE
  5
504
100
AcDbEntity
  8
0
  6
CONTINUOUS
 62
               7
100
AcDbLine
 10
40.248382962098106
 20
110.65210601345734
 30
0.0
 11
43.493217362340431
 21
110.65210601345734
 31
0.0
  0
LINE
  5
505
100
AcDbEntity
  8
0
  6
CONTINUOUS
 62
               7
100
AcDbLine
 10
43.099999826403007
 20
97.49407088061912
 30
0.0
 11
40.344916325064048
 21
100.24915438195808
 31
0.0
  0
LINE
  5
506
100
AcDbEntity
  8
0
  6
CONTINUOUS
 62
               7
100
AcDbLine
 10
40.086981970818385
 20
91.750883929935526
 30
0.0
 11
39.357257063487651
 21
100.09167781803794
 31
0.0
  0
LINE
  5
507
100
AcDbEntity
  8
0
  6
CONTINUOUS
 62
               7
100
AcDbLine
 10
43.099999803161666
 20
97.484884629979206
 30
0.0
 11
43.099999803161666
 21
91.75088404261993
 31
0.0
  0
LINE
  5
508
100
AcDbEntity
  8
0
  6
CONTINUOUS
 62
               7
100
AcDbLine
 10
39.599999803161666
 20
81.17236572838037
 30
0.0
 11
39.599999803161666
 21
91.75088404261993
 31
0.0
  0
LINE
  5
509
100
AcDbEntity
  8
0
  6
CONTINUOUS
 62
               7
100
AcDbLine
 10
43.39999980316162
 20
80.502323201688213
 30
0.0
 11
43.39999980316162
 21
91.75088404261993
 31
0.0
  0
LINE
  5
50A
100
AcDbEntity
  8
0
  6
CONTINUOUS
 62
               7
100
AcDbLine
 10
39.599999826403007
 20
91.75088404261993
 30
0.0
 11
43.39999980316162
 21
91.75088404261993
 31
0.0
  0
LINE
  5
50B
100
AcDbEntity
  8
0
  6
CONTINUOUS
 62
               7
100
AcDbLine
 10
42.818392382036166
 20
117.65210601345734
 30
0.0
 11
43.860071817321739
 21
117.65210601345734
 31
0.0
  0
LINE
  5
50C
100
AcDbEntity
  8
0
  6
CONTINUOUS
 62
               7
100
AcDbLine
 10
40.818392382036166
 20
117.65210601345734
 30
0.0
 11
42.818392382036166
 21
117.65210601345734
 31
0.0
  0
LINE
  5
50D
100
AcDbEntity
  8
0
  6
CONTINUOUS
 62
               7
100
AcDbLine
 10
39.881528507116798
 20
117.65210601345734
 30
0.0
 11
40.818392382036166
 21
117.65210601345734
 31
0.0
  0
LINE
  5
50E
100
AcDbEntity
  8
0
  6
CONTINUOUS
 62
               7
100
AcDbLine
 10
36.309384685011253
 20
117.37702103754623
 30
0.0
 11
37.263573568315849
 21
117.72431739470107
 31
0.0
  0
LINE
  5
50F
100
AcDbEntity
  8
0
  6
CONTINUOUS
 62
               7
100
AcDbLine
 10
43.39999980316162
 20
67.550884061065744
 30
0.0
 11
43.39999980316162
 21
78.502323201688213
 31
0.0
  0
LINE
  5
510
100
AcDbEntity
  8
0
  6
CONTINUOUS
 62
               7
100
AcDbLine
 10
39.599999803161666
 20
67.550884061065744
 30
0.0
 11
39.599999803161666
 21
79.17236572838037
 31
0.0
  0
LINE
  5
511
100
AcDbEntity
  8
0
  6
CONTINUOUS
 62
               4
100
AcDbLine
 10
17.899999999999977
 20
16.0
 30
0.0
 11
17.899999999999977
 21
17.238608504619151
 31
0.0
  0
LINE
  5
512
100
AcDbEntity
  8
0
  6
CONTINUOUS
 62
               4
100
AcDbLine
 10
15.099999999999966
 20
16.0
 30
0.0
 11
15.099999999999966
 21
17.238608504619151
 31
0.0
  0
ARC
  5
513
100
AcDbEntity
  8
0
  6
CONTINUOUS
 62
               4
100
AcDbCircle
 10
16.5
 20
16.0
 30
0.0
 40
1.3999999999999999
100
AcDbArc
 50
180.0
 51
0.0
  0
ARC
  5
514
100
AcDbEntity
  8
0
  6
CONTINUOUS
 62
               4
100
AcDbCircle
 10
20.0
 20
0.5
 30
0.0
 40
0.5
100
AcDbArc
 50
270.0
 51
0.0
  0
LINE
  5
515
100
AcDbEntity
  8
0
  6
CONTINUOUS
 62
               4
100
AcDbLine
 10
12.5
 20
19.0
 30
0.0
 11
12.5
 21
1.6000000000000227
 31
0.0
  0
LINE
  5
516
100
AcDbEntity
  8
0
  6
CONTINUOUS
 62
               4
100
AcDbLine
 10
20.5
 20
19.0
 30
0.0
 11
20.5
 21
0.5
 31
0.0
  0
ARC
  5
517
100
AcDbEntity
  8
0
  6
CONTINUOUS
 62
               4
100
AcDbCircle
 10
16.5
 20
19.0
 30
0.0
 40
4.0
100
AcDbArc
 50
0.0
 51
180.0
  0
CIRCLE
  5
518
100
AcDbEntity
  8
0
  6
CONTINUOUS
 62
               4
100
AcDbCircle
 10
16.5
 20
19.0
 30
0.0
 40
2.25
  0
LINE
  5
519
100
AcDbEntity
  8
0
  6
CONTINUOUS
 62
               4
100
AcDbLine
 10
17.499999956111253
 20
18.422649741172791
 30
0.0
 11
16.499999943090586
 21
17.845299464465683
 31
0.0
  0
LINE
  5
51A
100
AcDbEntity
  8
0
  6
CONTINUOUS
 62
               4
100
AcDbLine
 10
16.499999956111253
 20
20.154700517654419
 30
0.0
 11
15.5
 21
19.577350273803972
 31
0.0
  0
LINE
  5
51B
100
AcDbEntity
  8
0
  6
CONTINUOUS
 62
               4
100
AcDbLine
 10
16.499999956111253
 20
17.845299452543259
 30
0.0
 11
15.499999985913576
 21
18.422649711370468
 31
0.0
  0
LINE
  5
51C
100
AcDbEntity
  8
0
  6
CONTINUOUS
 62
               4
100
AcDbLine
 10
17.499999956111253
 20
19.577350288629532
 30
0.0
 11
16.499999985913576
 21
20.154700547456741
 31
0.0
  0
LINE
  5
51D
100
AcDbEntity
  8
0
  6
CONTINUOUS
 62
               4
100
AcDbLine
 10
17.5
 20
18.422649741172791
 30
0.0
 11
17.5
 21
19.577350258827209
 31
0.0
  0
LINE
  5
51E
100
AcDbEntity
  8
0
  6
CONTINUOUS
 62
               4
100
AcDbLine
 10
15.5
 20
18.422649681568146
 30
0.0
 11
15.5
 21
19.577350258827209
 31
0.0
  0
CIRCLE
  5
51F
100
AcDbEntity
  8
0
  6
CONTINUOUS
 62
               4
100
AcDbCircle
 10
16.5
 20
19.0
 30
0.0
 40
1.9999999999999996
  0
CIRCLE
  5
520
100
AcDbEntity
  8
0
  6
CONTINUOUS
 62
               4
100
AcDbCircle
 10
16.5
 20
6.0
 30
0.0
 40
2.25
  0
LINE
  5
521
100
AcDbEntity
  8
0
  6
CONTINUOUS
 62
               4
100
AcDbLine
 10
17.499999956111253
 20
5.4226497411727905
 30
0.0
 11
16.499999943090586
 21
4.8452994644656826
 31
0.0
  0
LINE
  5
522
100
AcDbEntity
  8
0
  6
CONTINUOUS
 62
               4
100
AcDbLine
 10
16.499999956111253
 20
7.1547005176544189
 30
0.0
 11
15.5
 21
6.5773502738039724
 31
0.0
  0
LINE
  5
523
100
AcDbEntity
  8
0
  6
CONTINUOUS
 62
               4
100
AcDbLine
 10
16.499999956111253
 20
4.8452994525432587
 30
0.0
 11
15.499999985913576
 21
5.4226497113704681
 31
0.0
  0
LINE
  5
524
100
AcDbEntity
  8
0
  6
CONTINUOUS
 62
               4
100
AcDbLine
 10
17.499999956111253
 20
6.5773502886295319
 30
0.0
 11
16.499999985913576
 21
7.1547005474567413
 31
0.0
  0
LINE
  5
525
100
AcDbEntity
  8
0
  6
CONTINUOUS
 62
               4
100
AcDbLine
 10
17.5
 20
5.4226497411727905
 30
0.0
 11
17.5
 21
6.5773502588272095
 31
0.0
  0
LINE
  5
526
100
AcDbEntity
  8
0
  6
CONTINUOUS
 62
               4
100
AcDbLine
 10
15.5
 20
5.4226496815681458
 30
0.0
 11
15.5
 21
6.5773502588272095
 31
0.0
  0
CIRCLE
  5
527
100
AcDbEntity
  8
0
  6
CONTINUOUS
 62
               4
100
AcDbCircle
 10
16.5
 20
6.0
 30
0.0
 40
1.9999999999999996
  0
LINE
  5
528
100
AcDbEntity
  8
0
  6
CONTINUOUS
 62
             200
100
AcDbLine
 10
16.5
 20
14.100000000000023
 30
0.0
 11
16.5
 21
22.0
 31
0.0
  0
LINE
  5
529
100
AcDbEntity
  8
0
  6
CONTINUOUS
 62
             200
100
AcDbLine
 10
13.5
 20
19.0
 30
0.0
 11
19.5
 21
19.0
 31
0.0
  0
LINE
  5
52A
100
AcDbEntity
  8
0
  6
CONTINUOUS
 62
             200
100
AcDbLine
 10
13.47112452431486
 20
16.0
 30
0.0
 11
19.5
 21
16.0
 31
0.0
  0
LINE
  5
52B
100
AcDbEntity
  8
0
  6
CONTINUOUS
 62
             200
100
AcDbLine
 10
16.5
 20
2.75
 30
0.0
 11
16.5
 21
9.25
 31
0.0
  0
LINE
  5
52C
100
AcDbEntity
  8
0
  6
CONTINUOUS
 62
             200
100
AcDbLine
 10
13.25
 20
6.0
 30
0.0
 11
19.75
 21
6.0
 31
0.0
  0
LINE
  5
52D
100
AcDbEntity
  8
0
  6
CONTINUOUS
 62
             200
100
AcDbLine
 10
0.0
 20
-1.6999999999999886
 30
0.0
 11
0.0
 21
3.3000000000000114
 31
0.0
  0
LINE
  5
52E
100
AcDbEntity
  8
0
  6
CONTINUOUS
 62
             200
100
AcDbLine
 10
10.0
 20
-1.6999999999999886
 30
0.0
 11
10.0
 21
3.3000000000000114
 31
0.0
  0
LINE
  5
52F
100
AcDbEntity
  8
0
  6
CONTINUOUS
 62
               7
100
AcDbLine
 10
22.99822403021841
 20
66.500000079349462
 30
0.0
 11
31.99822403021841
 21
66.500000079349462
 31
0.0
  0
LINE
  5
530
100
AcDbEntity
  8
0
  6
CONTINUOUS
 62
               7
100
AcDbLine
 10
39.500000035276571
 20
59.499999972500007
 30
0.0
 11
9.5
 21
59.499999972500007
 31
0.0
  0
LINE
  5
531
100
AcDbEntity
  8
0
  6
CONTINUOUS
 62
               7
100
AcDbLine
 10
39.500000035276571
 20
33.499999999999943
 30
0.0
 11
43.500000035276571
 21
33.499999999999943
 31
0.0
  0
ARC
  5
532
100
AcDbEntity
  8
0
  6
CONTINUOUS
 62
               7
100
AcDbCircle
 10
42.000000035276571
 20
41.999999999999943
 30
0.0
 40
1.5
100
AcDbArc
 50
270.0
 51
277.66225566076605
  0
SPLINE
  5
533
100
AcDbEntity
  8
0
  6
CONTINUOUS
 62
               7
100
AcDbSpline
210
0.0
220
0.0
230
1.0
 70
               0
 71
               3
 72
               0
 73
               0
 74
               5
 44
0.000001
 12
0.5581455721859482
 22
-0.8297430447127716
 32
0.0
 13
-0.5581455721859486
 23
-0.8297430447127714
 33
0.0
 11
42.20000003527656
 21
43.486606874731791
 31
0.0
 11
42.559427175719051
 21
42.778029517482011
 31
0.0
 11
42.70000003527656
 21
41.999999999999943
 31
0.0
 11
42.559427175719051
 21
41.221970482517861
 31
0.0
 11
42.20000003527656
 21
40.513393125268067
 31
0.0
  0
ARC
  5
534
100
AcDbEntity
  8
0
  6
CONTINUOUS
 62
               7
100
AcDbCircle
 10
42.000000035276571
 20
41.999999999999943
 30
0.0
 40
1.5
100
AcDbArc
 50
82.33774433923395
 51
90.0
  0
LINE
  5
535
100
AcDbEntity
  8
0
  6
CONTINUOUS
 62
               7
100
AcDbLine
 10
42.000000035276571
 20
43.599999999999937
 30
0.0
 11
42.000000035276571
 21
40.39999999999992
 31
0.0
  0
LINE
  5
536
100
AcDbEntity
  8
0
  6
CONTINUOUS
 62
               7
100
AcDbLine
 10
43.500000035276571
 20
40.39999999999992
 30
0.0
 11
42.000000035276571
 21
40.39999999999992
 31
0.0
  0
LINE
  5
537
100
AcDbEntity
  8
0
  6
CONTINUOUS
 62
               7
100
AcDbLine
 10
43.500000035276571
 20
43.599999999999937
 30
0.0
 11
42.000000035276571
 21
43.599999999999937
 31
0.0
  0
LINE
  5
538
100
AcDbEntity
  8
0
  6
CONTINUOUS
 62
               7
100
AcDbLine
 10
39.500000035276571
 20
46.999999999999915
 30
0.0
 11
43.500000035276571
 21
46.999999999999915
 31
0.0
  0
LINE
  5
539
100
AcDbEntity
  8
0
  6
CONTINUOUS
 62
               7
100
AcDbLine
 10
43.500000035276571
 20
46.999999999999915
 30
0.0
 11
43.500000035276571
 21
33.499999999999943
 31
0.0
  0
LINE
  5
53A
100
AcDbEntity
  8
0
  6
CONTINUOUS
 62
               7
100
AcDbLine
 10
12.25
 20
62.219220935761115
 30
0.0
 11
18.75
 21
62.219220935761115
 31
0.0
  0
LINE
  5
53B
100
AcDbEntity
  8
0
  6
CONTINUOUS
 62
               7
100
AcDbLine
 10
12.25
 20
62.219220935761115
 30
0.0
 11
12.75
 21
62.719220935761129
 31
0.0
  0
LINE
  5
53C
100
AcDbEntity
  8
0
  6
CONTINUOUS
 62
               7
100
AcDbLine
 10
18.75
 20
62.219220935761115
 30
0.0
 11
18.25
 21
62.719220935761129
 31
0.0
  0
LINE
  5
53D
100
AcDbEntity
  8
0
  6
CONTINUOUS
 62
               7
100
AcDbLine
 10
18.25
 20
62.719220935761129
 30
0.0
 11
12.75
 21
62.719220935761129
 31
0.0
  0
LINE
  5
53E
100
AcDbEntity
  8
0
  6
CONTINUOUS
 62
               7
100
AcDbLine
 10
18.75
 20
59.519220935761126
 30
0.0
 11
18.75
 21
62.219220935761115
 31
0.0
  0
LINE
  5
53F
100
AcDbEntity
  8
0
  6
CONTINUOUS
 62
               7
100
AcDbLine
 10
12.25
 20
59.519220935761126
 30
0.0
 11
12.25
 21
62.219220935761115
 31
0.0
  0
LINE
  5
540
100
AcDbEntity
  8
0
  6
CONTINUOUS
 62
               7
100
AcDbLine
 10
39.500000035276571
 20
32.999999999999915
 30
0.0
 11
51.000000035276571
 21
32.999999999999915
 31
0.0
  0
LINE
  5
541
100
AcDbEntity
  8
0
  6
CONTINUOUS
 62
               7
100
AcDbLine
 10
50.300000035276639
 20
32.299999999999898
 30
0.0
 11
42.70000003527656
 21
32.299999999999898
 31
0.0
  0
LINE
  5
542
100
AcDbEntity
  8
0
  6
CONTINUOUS
 62
               7
100
AcDbLine
 10
50.300000035276639
 20
31.499999999999915
 30
0.0
 11
42.70000003527656
 21
31.499999999999915
 31
0.0
  0
LINE
  5
543
100
AcDbEntity
  8
0
  6
CONTINUOUS
 62
               7
100
AcDbLine
 10
50.300000035276639
 20
31.499999999999915
 30
0.0
 11
50.300000035276639
 21
32.299999999999898
 31
0.0
  0
LINE
  5
544
100
AcDbEntity
  8
0
  6
CONTINUOUS
 62
               7
100
AcDbLine
 10
42.70000003527656
 20
32.299999999999898
 30
0.0
 11
42.70000003527656
 21
31.499999999999915
 31
0.0
  0
LINE
  5
545
100
AcDbEntity
  8
0
  6
CONTINUOUS
 62
               7
100
AcDbLine
 10
51.000000035276571
 20
27.217144432479571
 30
0.0
 11
54.500000035276571
 21
26.599999999999895
 31
0.0
  0
LINE
  5
546
100
AcDbEntity
  8
0
  6
CONTINUOUS
 62
               7
100
AcDbLine
 10
53.200000035276616
 20
2.4999999999999432
 30
0.0
 11
40.70000003527656
 21
2.4999999999999432
 31
0.0
  0
LINE
  5
547
100
AcDbEntity
  8
0
  6
CONTINUOUS
 62
               7
100
AcDbLine
 10
40.400000035276548
 20
0.9999999999999147
 30
0.0
 11
40.70000003527656
 21
1.2999999999999261
 31
0.0
  0
LINE
  5
548
100
AcDbEntity
  8
0
  6
CONTINUOUS
 62
               7
100
AcDbLine
 10
54.500000035276571
 20
26.599999999999895
 30
0.0
 11
54.500000035276571
 21
19.90918254822877
 31
0.0
  0
LINE
  5
549
100
AcDbEntity
  8
0
  6
CONTINUOUS
 62
               7
100
AcDbLine
 10
40.70000003527656
 20
0.9999999999999147
 30
0.0
 11
40.70000003527656
 21
2.4999999999999432
 31
0.0
  0
LINE
  5
54A
100
AcDbEntity
  8
0
  6
CONTINUOUS
 62
               7
100
AcDbLine
 10
53.200000035276616
 20
2.4999999999999432
 30
0.0
 11
53.200000035276616
 21
18.599999999999895
 31
0.0
  0
LINE
  5
54B
100
AcDbEntity
  8
0
  6
CONTINUOUS
 62
               7
100
AcDbLine
 10
53.500000035276571
 20
26.099999999999895
 30
0.0
 11
53.500000035276571
 21
22.899999999999906
 31
0.0
  0
LINE
  5
54C
100
AcDbEntity
  8
0
  6
CONTINUOUS
 62
               7
100
AcDbLine
 10
54.500000035276571
 20
22.899999999999906
 30
0.0
 11
53.500000035276571
 21
22.899999999999906
 31
0.0
  0
LINE
  5
54D
100
AcDbEntity
  8
0
  6
CONTINUOUS
 62
               7
100
AcDbLine
 10
54.500000035276571
 20
26.099999999999895
 30
0.0
 11
53.500000035276571
 21
26.099999999999895
 31
0.0
  0
LINE
  5
54E
100
AcDbEntity
  8
0
  6
CONTINUOUS
 62
               7
100
AcDbLine
 10
53.600000035276594
 20
25.999999999999929
 30
0.0
 11
53.500000035276571
 21
25.999999999999929
 31
0.0
  0
LINE
  5
54F
100
AcDbEntity
  8
0
  6
CONTINUOUS
 62
               7
100
AcDbLine
 10
53.600000035276594
 20
22.999999999999929
 30
0.0
 11
53.500000035276571
 21
22.999999999999929
 31
0.0
  0
LINE
  5
550
100
AcDbEntity
  8
0
  6
CONTINUOUS
 62
               7
100
AcDbLine
 10
54.100000035276594
 20
25.499999999999929
 30
0.0
 11
54.100000035276594
 21
23.499999999999929
 31
0.0
  0
ARC
  5
551
100
AcDbEntity
  8
0
  6
CONTINUOUS
 62
               7
100
AcDbCircle
 10
53.600000035276594
 20
23.499999999999929
 30
0.0
 40
0.5
100
AcDbArc
 50
270.0
 51
0.0
  0
ARC
  5
552
100
AcDbEntity
  8
0
  6
CONTINUOUS
 62
               7
100
AcDbCircle
 10
53.600000035276594
 20
25.499999999999929
 30
0.0
 40
0.5
100
AcDbArc
 50
0.0
 51
90.0
  0
LINE
  5
553
100
AcDbEntity
  8
0
  6
CONTINUOUS
 62
               7
100
AcDbLine
 10
51.000000035276571
 20
32.999999999999915
 30
0.0
 11
51.000000035276571
 21
27.217144432479571
 31
0.0
  0
LINE
  5
554
100
AcDbEntity
  8
0
  6
CONTINUOUS
 62
               7
100
AcDbLine
 10
23.5
 20
59.5
 30
0.0
 11
23.5
 21
1.0
 31
0.0
  0
LINE
  5
555
100
AcDbEntity
  8
0
  6
CONTINUOUS
 62
               7
100
AcDbLine
 10
9.5
 20
1.6000000000000227
 30
0.0
 11
9.5
 21
59.5
 31
0.0
  0
LINE
  5
556
100
AcDbEntity
  8
0
  6
CONTINUOUS
 62
               7
100
AcDbLine
 10
39.500000035276571
 20
59.499999972500007
 30
0.0
 11
39.500000035276571
 21
1.0
 31
0.0
  0
LINE
  5
557
100
AcDbEntity
  8
0
  6
CONTINUOUS
 62
               7
100
AcDbLine
 10
18.75
 20
60.000000079349405
 30
0.0
 11
33.61447638213707
 21
60.000000079349405
 31
0.0
  0
ARC
  5
558
100
AcDbEntity
  8
0
  6
CONTINUOUS
 62
               7
100
AcDbCircle
 10
30.49822403021841
 20
66.500000079349434
 30
0.0
 40
1.5
100
AcDbArc
 50
0.0000000000010687
 51
90.0
  0
ARC
  5
559
100
AcDbEntity
  8
0
  6
CONTINUOUS
 62
               7
100
AcDbCircle
 10
24.49822403021841
 20
66.500000079349434
 30
0.0
 40
1.5
100
AcDbArc
 50
90.0
 51
179.99999999999889
  0
ARC
  5
55A
100
AcDbEntity
  8
0
  6
CONTINUOUS
 62
               7
100
AcDbCircle
 10
33.61447638213707
 20
59.900000079349411
 30
0.0
 40
0.1
100
AcDbArc
 50
1.0000000000042124
 51
90.0
  0
LINE
  5
55B
100
AcDbEntity
  8
0
  6
CONTINUOUS
 62
               7
100
AcDbLine
 10
22.99822403021841
 20
60.30000007934936
 30
0.0
 11
22.99822403021841
 21
66.500000079349462
 31
0.0
  0
LINE
  5
55C
100
AcDbEntity
  8
0
  6
CONTINUOUS
 62
               7
100
AcDbLine
 10
31.99822403021841
 20
60.30000007934936
 30
0.0
 11
31.99822403021841
 21
66.500000079349462
 31
0.0
  0
LINE
  5
55D
100
AcDbEntity
  8
0
  6
CONTINUOUS
 62
               7
100
AcDbLine
 10
27.132169910678215
 20
67.000000079349405
 30
0.0
 11
26.998224030218353
 21
67.000000079349434
 31
0.0
  0
LINE
  5
55E
100
AcDbEntity
  8
0
  6
CONTINUOUS
 62
               7
100
AcDbLine
 10
26.998224030218353
 20
67.000000079349434
 30
0.0
 11
26.99822403021841
 21
67.260217675588336
 31
0.0
  0
LINE
  5
55F
100
AcDbEntity
  8
0
  6
CONTINUOUS
 62
               7
100
AcDbLine
 10
26.716807230717222
 20
60.300000079349445
 30
0.0
 11
27.49822403021841
 21
60.300000079349445
 31
0.0
  0
LINE
  5
560
100
AcDbEntity
  8
0
  6
CONTINUOUS
 62
               7
100
AcDbLine
 10
27.49822403021841
 20
60.300000079349445
 30
0.0
 11
28.279640829719597
 21
60.300000079349445
 31
0.0
  0
LINE
  5
561
100
AcDbEntity
  8
0
  6
CONTINUOUS
 62
               7
100
AcDbLine
 10
22.99822403021841
 20
60.300000079349445
 30
0.0
 11
23.066589141663485
 21
60.300000079349445
 31
0.0
  0
LINE
  5
562
100
AcDbEntity
  8
0
  6
CONTINUOUS
 62
               7
100
AcDbLine
 10
31.929858918773334
 20
60.300000079349445
 30
0.0
 11
31.99822403021841
 21
60.300000079349445
 31
0.0
  0
LINE
  5
563
100
AcDbEntity
  8
0
  6
CONTINUOUS
 62
               7
100
AcDbLine
 10
31.726840823754969
 20
60.300000079349445
 30
0.0
 11
31.929858918773334
 21
60.300000079349445
 31
0.0
  0
LINE
  5
564
100
AcDbEntity
  8
0
  6
CONTINUOUS
 62
               7
100
AcDbLine
 10
31.395338347248355
 20
60.300000079349445
 30
0.0
 11
31.726840823754969
 21
60.300000079349445
 31
0.0
  0
LINE
  5
565
100
AcDbEntity
  8
0
  6
CONTINUOUS
 62
               7
100
AcDbLine
 10
30.945424024253782
 20
60.300000079349445
 30
0.0
 11
31.395338347248355
 21
60.300000079349445
 31
0.0
  0
LINE
  5
566
100
AcDbEntity
  8
0
  6
CONTINUOUS
 62
               7
100
AcDbLine
 10
30.390768273807851
 20
60.300000079349445
 30
0.0
 11
30.945424024253782
 21
60.300000079349445
 31
0.0
  0
LINE
  5
567
100
AcDbEntity
  8
0
  6
CONTINUOUS
 62
               7
100
AcDbLine
 10
29.74822403021841
 20
60.300000079349445
 30
0.0
 11
30.390768273807851
 21
60.300000079349445
 31
0.0
  0
LINE
  5
568
100
AcDbEntity
  8
0
  6
CONTINUOUS
 62
               7
100
AcDbLine
 10
29.037314675183893
 20
60.300000079349445
 30
0.0
 11
29.74822403021841
 21
60.300000079349445
 31
0.0
  0
LINE
  5
569
100
AcDbEntity
  8
0
  6
CONTINUOUS
 62
               7
100
AcDbLine
 10
28.279640829719597
 20
60.300000079349445
 30
0.0
 11
29.037314675183893
 21
60.300000079349445
 31
0.0
  0
LINE
  5
56A
100
AcDbEntity
  8
0
  6
CONTINUOUS
 62
               7
100
AcDbLine
 10
25.959133385252869
 20
60.300000079349445
 30
0.0
 11
26.716807230717222
 21
60.300000079349445
 31
0.0
  0
LINE
  5
56B
100
AcDbEntity
  8
0
  6
CONTINUOUS
 62
               7
100
AcDbLine
 10
25.24822403021841
 20
60.300000079349445
 30
0.0
 11
25.959133385252869
 21
60.300000079349445
 31
0.0
  0
LINE
  5
56C
100
AcDbEntity
  8
0
  6
CONTINUOUS
 62
               7
100
AcDbLine
 10
24.605679786628968
 20
60.300000079349445
 30
0.0
 11
25.24822403021841
 21
60.300000079349445
 31
0.0
  0
LINE
  5
56D
100
AcDbEntity
  8
0
  6
CONTINUOUS
 62
               7
100
AcDbLine
 10
24.05102403618298
 20
60.300000079349445
 30
0.0
 11
24.605679786628968
 21
60.300000079349445
 31
0.0
  0
LINE
  5
56E
100
AcDbEntity
  8
0
  6
CONTINUOUS
 62
               7
100
AcDbLine
 10
23.601109713188407
 20
60.300000079349445
 30
0.0
 11
24.05102403618298
 21
60.300000079349445
 31
0.0
  0
LINE
  5
56F
100
AcDbEntity
  8
0
  6
CONTINUOUS
 62
               7
100
AcDbLine
 10
23.269607236681793
 20
60.300000079349445
 30
0.0
 11
23.601109713188407
 21
60.300000079349445
 31
0.0
  0
LINE
  5
570
100
AcDbEntity
  8
0
  6
CONTINUOUS
 62
               7
100
AcDbLine
 10
23.066589141663485
 20
60.300000079349445
 30
0.0
 11
23.269607236681793
 21
60.300000079349445
 31
0.0
  0
LINE
  5
571
100
AcDbEntity
  8
0
  6
CONTINUOUS
 62
               7
100
AcDbLine
 10
31.698224030218398
 20
60.000000079349405
 30
0.0
 11
31.99822403021841
 21
60.300000079349445
 31
0.0
  0
LINE
  5
572
100
AcDbEntity
  8
0
  6
CONTINUOUS
 62
               7
100
AcDbLine
 10
22.998224030218466
 20
60.30000007934936
 30
0.0
 11
23.298224030218421
 21
60.000000079349405
 31
0.0
  0
LINE
  5
573
100
AcDbEntity
  8
0
  6
CONTINUOUS
 62
               7
100
AcDbLine
 10
27.99822403021841
 20
67.260217675588137
 30
0.0
 11
27.99822403021841
 21
67.000000079349434
 31
0.0
  0
LINE
  5
574
100
AcDbEntity
  8
0
  6
CONTINUOUS
 62
               7
100
AcDbLine
 10
27.99822403021841
 20
67.000000079349434
 30
0.0
 11
27.864278149758547
 21
67.000000079349405
 31
0.0
  0
LINE
  5
575
100
AcDbEntity
  8
0
  6
CONTINUOUS
 62
               7
100
AcDbLine
 10
28.198224030218398
 20
68.000000079349434
 30
0.0
 11
30.49822403021841
 21
68.000000079349434
 31
0.0
  0
LINE
  5
576
100
AcDbEntity
  8
0
  6
CONTINUOUS
 62
               7
100
AcDbLine
 10
27.99822403021841
 20
67.800000079349445
 30
0.0
 11
28.198224030218398
 21
68.000000079349434
 31
0.0
  0
LINE
  5
577
100
AcDbEntity
  8
0
  6
CONTINUOUS
 62
               7
100
AcDbLine
 10
27.99822403021841
 20
67.260217675588137
 30
0.0
 11
27.99822403021841
 21
67.800000079349445
 31
0.0
  0
LINE
  5
578
100
AcDbEntity
  8
0
  6
CONTINUOUS
 62
               7
100
AcDbLine
 10
26.99822403021841
 20
67.260217675588336
 30
0.0
 11
26.99822403021841
 21
67.800000079349445
 31
0.0
  0
LINE
  5
579
100
AcDbEntity
  8
0
  6
CONTINUOUS
 62
               7
100
AcDbLine
 10
26.99822403021841
 20
67.800000079349445
 30
0.0
 11
26.798224030218421
 21
68.000000079349434
 31
0.0
  0
LINE
  5
57A
100
AcDbEntity
  8
0
  6
CONTINUOUS
 62
               7
100
AcDbLine
 10
24.49822403021841
 20
68.000000079349434
 30
0.0
 11
26.798224030218421
 21
68.000000079349434
 31
0.0
  0
LINE
  5
57B
100
AcDbEntity
  8
0
  6
CONTINUOUS
 62
               7
100
AcDbLine
 10
27.397512407253714
 20
67.000000079349434
 30
0.0
 11
27.132169910678215
 21
67.000000079349405
 31
0.0
  0
LINE
  5
57C
100
AcDbEntity
  8
0
  6
CONTINUOUS
 62
               7
100
AcDbLine
 10
27.397512407253714
 20
67.000000079349434
 30
0.0
 11
27.598935653183446
 21
67.000000079349434
 31
0.0
  0
LINE
  5
57D
100
AcDbEntity
  8
0
  6
CONTINUOUS
 62
               7
100
AcDbLine
 10
27.864278149758547
 20
67.000000079349405
 30
0.0
 11
27.598935653183446
 21
67.000000079349434
 31
0.0
  0
LINE
  5
57E
100
AcDbEntity
  8
0
  6
CONTINUOUS
 62
               7
100
AcDbLine
 10
33.714461151652699
 20
59.901745319993154
 30
0.0
 11
33.721473642777823
 21
59.499999972500007
 31
0.0
  0
ARC
  5
57F
100
AcDbEntity
  8
0
  6
CONTINUOUS
 62
               7
100
AcDbCircle
 10
38.899999999999977
 20
28.771061858402192
 30
0.0
 40
0.2
100
AcDbArc
 50
0.0
 51
73.398450400979954
  0
ARC
  5
580
100
AcDbEntity
  8
0
  6
CONTINUOUS
 62
               7
100
AcDbCircle
 10
38.899999999999977
 20
26.087780285402488
 30
0.0
 40
0.2
100
AcDbArc
 50
286.60154959902036
 51
0.0
  0
ARC
  5
581
100
AcDbEntity
  8
0
  6
CONTINUOUS
 62
               7
100
AcDbCircle
 10
36.45835921350016
 20
1.3000000000000114
 30
0.0
 40
0.2
100
AcDbArc
 50
196.60154959901993
 51
270.0
  0
ARC
  5
582
100
AcDbEntity
  8
0
  6
CONTINUOUS
 62
               7
100
AcDbCircle
 10
39.141640786499863
 20
1.3000000000000114
 30
0.0
 40
0.2
100
AcDbArc
 50
270.0
 51
343.39845040097975
  0
ARC
  5
583
100
AcDbEntity
  8
0
  6
CONTINUOUS
 62
               7
100
AcDbCircle
 10
38.5
 20
27.42942107190234
 30
0.0
 40
1.6000000000000001
100
AcDbArc
 50
270.0
 51
286.60154959902007
  0
ARC
  5
584
100
AcDbEntity
  8
0
  6
CONTINUOUS
 62
               7
100
AcDbCircle
 10
38.5
 20
27.42942107190234
 30
0.0
 40
1.6000000000000001
100
AcDbArc
 50
73.398450400980053
 51
90.0
  0
ARC
  5
585
100
AcDbEntity
  8
0
  6
CONTINUOUS
 62
               7
100
AcDbCircle
 10
37.800000000000011
 20
1.7000000000000171
 30
0.0
 40
1.6000000000000001
100
AcDbArc
 50
343.39845040097947
 51
359.99999999999932
  0
ARC
  5
586
100
AcDbEntity
  8
0
  6
CONTINUOUS
 62
               7
100
AcDbCircle
 10
37.800000000000011
 20
1.7000000000000171
 30
0.0
 40
1.6000000000000001
100
AcDbArc
 50
180.00000000000065
 51
196.6015495990205
  0
ARC
  5
587
100
AcDbEntity
  8
0
  6
CONTINUOUS
 62
               7
100
AcDbCircle
 10
39.141640821776491
 20
59.199999972500024
 30
0.0
 40
0.2
100
AcDbArc
 50
16.601549599021421
 51
90.0
  0
ARC
  5
588
100
AcDbEntity
  8
0
  6
CONTINUOUS
 62
               7
100
AcDbCircle
 10
36.458359248776787
 20
59.199999972500024
 30
0.0
 40
0.2
100
AcDbArc
 50
90.0
 51
163.39845040097887
  0
ARC
  5
589
100
AcDbEntity
  8
0
  6
CONTINUOUS
 62
               7
100
AcDbCircle
 10
37.800000035276639
 20
58.799999972500046
 30
0.0
 40
1.6000000000000001
100
AcDbArc
 50
163.39845040097984
 51
179.99999999999974
  0
ARC
  5
58A
100
AcDbEntity
  8
0
  6
CONTINUOUS
 62
               7
100
AcDbCircle
 10
37.800000035276639
 20
58.799999972500046
 30
0.0
 40
1.6000000000000001
100
AcDbArc
 50
0.0000000000002385
 51
16.601549599020149
  0
LINE
  5
58B
100
AcDbEntity
  8
0
  6
CONTINUOUS
 62
               7
100
AcDbLine
 10
39.100000000000023
 20
26.087780285402488
 30
0.0
 11
39.100000000000023
 21
28.771061858402192
 31
0.0
  0
LINE
  5
58C
100
AcDbEntity
  8
0
  6
CONTINUOUS
 62
               7
100
AcDbLine
 10
39.141640786499863
 20
1.0999999999999943
 30
0.0
 11
36.45835921350016
 21
1.0999999999999943
 31
0.0
  0
LINE
  5
58D
100
AcDbEntity
  8
0
  6
CONTINUOUS
 62
               7
100
AcDbLine
 10
38.5
 20
25.803498913800894
 30
0.0
 11
39.5
 21
25.803498913800894
 31
0.0
  0
LINE
  5
58E
100
AcDbEntity
  8
0
  6
CONTINUOUS
 62
               7
100
AcDbLine
 10
38.5
 20
25.799992326630672
 30
0.0
 11
39.5
 21
25.799992326630672
 31
0.0
  0
LINE
  5
58F
100
AcDbEntity
  8
0
  6
CONTINUOUS
 62
               7
100
AcDbLine
 10
38.5
 20
29.19999997249991
 30
0.0
 11
38.5
 21
25.799992326630672
 31
0.0
  0
LINE
  5
590
100
AcDbEntity
  8
0
  6
CONTINUOUS
 62
               7
100
AcDbLine
 10
38.5
 20
29.19999997249991
 30
0.0
 11
39.5
 21
29.19999997249991
 31
0.0
  0
LINE
  5
591
100
AcDbEntity
  8
0
  6
CONTINUOUS
 62
               7
100
AcDbLine
 10
39.5
 20
9.5000000275001071
 30
0.0
 11
23.5
 21
9.5000000275001071
 31
0.0
  0
LINE
  5
592
100
AcDbEntity
  8
0
  6
CONTINUOUS
 62
               7
100
AcDbLine
 10
39.5
 20
50.900000027500084
 30
0.0
 11
39.500000017638285
 21
50.900395902517971
 31
0.0
  0
LINE
  5
593
100
AcDbEntity
  8
0
  6
CONTINUOUS
 62
               7
100
AcDbLine
 10
39.5
 20
51.00000002750005
 30
0.0
 11
23.5
 21
51.000000027500079
 31
0.0
  0
LINE
  5
594
100
AcDbEntity
  8
0
  6
CONTINUOUS
 62
               7
100
AcDbLine
 10
36.199999999999989
 20
1.7000000000000455
 30
0.0
 11
36.199999999999989
 21
1.0
 31
0.0
  0
LINE
  5
595
100
AcDbEntity
  8
0
  6
CONTINUOUS
 62
               7
100
AcDbLine
 10
36.199999999999989
 20
1.7000000000000455
 30
0.0
 11
37.800000000000011
 21
1.7000000000000171
 31
0.0
  0
LINE
  5
596
100
AcDbEntity
  8
0
  6
CONTINUOUS
 62
               7
100
AcDbLine
 10
37.800000000000011
 20
1.7000000000000171
 30
0.0
 11
39.5
 21
1.7000000000000455
 31
0.0
  0
LINE
  5
597
100
AcDbEntity
  8
0
  6
CONTINUOUS
 62
               7
100
AcDbLine
 10
38.356776471559613
 20
58.799999972500046
 30
0.0
 11
39.500000035276571
 21
58.799999972500075
 31
0.0
  0
LINE
  5
598
100
AcDbEntity
  8
0
  6
CONTINUOUS
 62
               7
100
AcDbLine
 10
36.20000003527656
 20
58.799999972500075
 30
0.0
 11
36.20000003527656
 21
59.499999945000013
 31
0.0
  0
LINE
  5
599
100
AcDbEntity
  8
0
  6
CONTINUOUS
 62
               7
100
AcDbLine
 10
36.20000003527656
 20
58.799999972500075
 30
0.0
 11
37.243223598993609
 21
58.799999972500046
 31
0.0
  0
LINE
  5
59A
100
AcDbEntity
  8
0
  6
CONTINUOUS
 62
               7
100
AcDbLine
 10
36.458359248776787
 20
59.399999972500041
 30
0.0
 11
39.141640821776491
 21
59.399999972500041
 31
0.0
  0
LINE
  5
59B
100
AcDbEntity
  8
0
  6
CONTINUOUS
 62
               7
100
AcDbLine
 10
37.243223598993609
 20
58.799999972500046
 30
0.0
 11
38.356776471559613
 21
58.799999972500046
 31
0.0
  0
LINE
  5
59C
100
AcDbEntity
  8
0
  6
CONTINUOUS
 62
               7
100
AcDbLine
 10
59.499999994576854
 20
16.380391266960089
 30
0.0
 11
59.499999976551919
 21
67.499999999649916
 31
0.0
  0
LINE
  5
59D
100
AcDbEntity
  8
0
  6
CONTINUOUS
 62
               7
100
AcDbLine
 10
59.500000000000057
 20
1.0
 30
0.0
 11
59.499999995987281
 21
12.380391267101132
 31
0.0
  0
LINE
  5
59E
100
AcDbEntity
  8
0
  6
CONTINUOUS
 62
               7
100
AcDbLine
 10
57.000000162362255
 20
23.708806453204588
 30
0.0
 11
57.000000162362255
 21
19.468365074048961
 31
0.0
  0
LINE
  5
59F
100
AcDbEntity
  8
0
  6
CONTINUOUS
 62
               7
100
AcDbLine
 10
58.500000035276571
 20
18.499999999999872
 30
0.0
 11
58.500000035276571
 21
18.599999999999895
 31
0.0
  0
LINE
  5
5A0
100
AcDbEntity
  8
0
  6
CONTINUOUS
 62
               7
100
AcDbLine
 10
59.10000003527648
 20
19.098078436969828
 30
0.0
 11
59.10000003527648
 21
18.599999999999895
 31
0.0
  0
LINE
  5
5A1
100
AcDbEntity
  8
0
  6
CONTINUOUS
 62
               7
100
AcDbLine
 10
59.100000035276594
 20
18.499999999999929
 30
0.0
 11
59.100000035276594
 21
1.2999999999999545
 31
0.0
  0
ARC
  5
5A2
100
AcDbEntity
  8
0
  6
CONTINUOUS
 62
               7
100
AcDbCircle
 10
58.800000035276639
 20
1.2999999999999545
 30
0.0
 40
0.3
100
AcDbArc
 50
270.0
 51
0.0
  0
LINE
  5
5A3
100
AcDbEntity
  8
0
  6
CONTINUOUS
 62
               2
100
AcDbLine
 10
15.5
 20
64.219220935761129
 30
0.0
 11
15.5
 21
58.019220948219299
 31
0.0
  0
LINE
  5
5A4
100
AcDbEntity
  8
0
  6
CONTINUOUS
 62
               4
100
AcDbLine
 10
20.0
 20
0.0
 30
0.0
 11
-4.0
 21
0.0
 31
0.0
  0
LINE
  5
5A5
100
AcDbEntity
  8
0
  6
CONTINUOUS
 62
               4
100
AcDbLine
 10
20.5
 20
1.6000000000000227
 30
0.0
 11
-4.0
 21
1.6000000000000227
 31
0.0
  0
LINE
  5
5A6
100
AcDbEntity
  8
0
  6
CONTINUOUS
 62
               7
100
AcDbLine
 10
68.300000035276668
 20
14.130391266960061
 30
0.0
 11
72.300000035276668
 21
14.130391266960061
 31
0.0
  0
LINE
  5
5A7
100
AcDbEntity
  8
0
  6
CONTINUOUS
 62
               7
100
AcDbLine
 10
68.300000035276668
 20
14.630391266960061
 30
0.0
 11
72.300000035276668
 21
14.630391266960061
 31
0.0
  0
ENDBLK
  5
5A8
100
AcDbEntity
  8
0
100
AcDbBlockEnd
  0
BLOCK
  5
5A9
100
AcDbEntity
  8
0
100
AcDbBlockBegin
  2
MV180-05-DA-F-9
 70
               0
 10
0.0
 20
0.0
 30
0.0
  3
MV180-05-DA-F-9
  1

  0
LINE
  5
5AA
100
AcDbEntity
  8
0
  6
CONTINUOUS
 62
               2
100
AcDbLine
 10
-12.374999999999915
 20
65.153673019291546
 30
0.0
 11
-8.9449999999999079
 21
65.758474563121567
 31
0.0
  0
LINE
  5
5AB
100
AcDbEntity
  8
0
  6
CONTINUOUS
 62
               2
100
AcDbLine
 10
-17.454999999999984
 20
65.153673016626144
 30
0.0
 11
-14.024999999999977
 21
65.758474560456179
 31
0.0
  0
LINE
  5
5AC
100
AcDbEntity
  8
0
  6
CONTINUOUS
 62
               2
100
AcDbLine
 10
-12.374999999999915
 20
64.653673019291546
 30
0.0
 11
-8.9449999999999079
 21
65.258474563121567
 31
0.0
  0
LINE
  5
5AD
100
AcDbEntity
  8
0
  6
CONTINUOUS
 62
               2
100
AcDbLine
 10
-17.454999999999984
 20
64.653673016626144
 30
0.0
 11
-14.024999999999977
 21
65.258474560456179
 31
0.0
  0
LINE
  5
5AE
100
AcDbEntity
  8
0
  6
CONTINUOUS
 62
               7
100
AcDbLine
 10
-11.059999999999945
 20
75.630000000000038
 30
0.0
 11
-10.259999999999934
 21
75.630000000000038
 31
0.0
  0
LINE
  5
5AF
100
AcDbEntity
  8
0
  6
CONTINUOUS
 62
               7
100
AcDbLine
 10
-11.374999999999943
 20
70.630000000000038
 30
0.0
 11
-9.9449999999999363
 21
70.630000000000038
 31
0.0
  0
LINE
  5
5B0
100
AcDbEntity
  8
0
  6
CONTINUOUS
 62
               7
100
AcDbLine
 10
-10.259999999999934
 20
70.630000000000038
 30
0.0
 11
-10.259999999999934
 21
75.630000000000038
 31
0.0
  0
LINE
  5
5B1
100
AcDbEntity
  8
0
  6
CONTINUOUS
 62
               7
100
AcDbLine
 10
-11.059999999999945
 20
70.630000000000038
 30
0.0
 11
-11.059999999999945
 21
75.630000000000038
 31
0.0
  0
LINE
  5
5B2
100
AcDbEntity
  8
0
  6
CONTINUOUS
 62
               7
100
AcDbLine
 10
-11.374999999999943
 20
65.329999999999998
 30
0.0
 11
-11.374999999999943
 21
70.630000000000038
 31
0.0
  0
LINE
  5
5B3
100
AcDbEntity
  8
0
  6
CONTINUOUS
 62
               7
100
AcDbLine
 10
-9.9449999999999363
 20
65.5821475824131
 30
0.0
 11
-9.9449999999999363
 21
70.630000000000038
 31
0.0
  0
LINE
  5
5B4
100
AcDbEntity
  8
0
  6
CONTINUOUS
 62
               7
100
AcDbLine
 10
-9.9449999999999363
 20
60.100000000000037
 30
0.0
 11
-9.9449999999999363
 21
65.0821475824131
 31
0.0
  0
LINE
  5
5B5
100
AcDbEntity
  8
0
  6
CONTINUOUS
 62
               7
100
AcDbLine
 10
-11.374999999999943
 20
60.100000000000037
 30
0.0
 11
-11.374999999999943
 21
64.829999999999998
 31
0.0
  0
LINE
  5
5B6
100
AcDbEntity
  8
0
  6
CONTINUOUS
 62
               7
100
AcDbLine
 10
-16.454999999999984
 20
70.630000000000038
 30
0.0
 11
-15.024999999999977
 21
70.630000000000038
 31
0.0
  0
LINE
  5
5B7
100
AcDbEntity
  8
0
  6
CONTINUOUS
 62
               7
100
AcDbLine
 10
-15.024999999999977
 20
65.582147579747712
 30
0.0
 11
-15.024999999999977
 21
70.630000000000038
 31
0.0
  0
LINE
  5
5B8
100
AcDbEntity
  8
0
  6
CONTINUOUS
 62
               7
100
AcDbLine
 10
-16.454999999999984
 20
65.32999999733461
 30
0.0
 11
-16.454999999999984
 21
70.630000000000038
 31
0.0
  0
LINE
  5
5B9
100
AcDbEntity
  8
0
  6
CONTINUOUS
 62
               7
100
AcDbLine
 10
-15.339999999999975
 20
70.630000000000038
 30
0.0
 11
-15.339999999999975
 21
75.630000000000038
 31
0.0
  0
LINE
  5
5BA
100
AcDbEntity
  8
0
  6
CONTINUOUS
 62
               7
100
AcDbLine
 10
-16.13999999999993
 20
70.630000000000038
 30
0.0
 11
-16.13999999999993
 21
75.630000000000038
 31
0.0
  0
LINE
  5
5BB
100
AcDbEntity
  8
0
  6
CONTINUOUS
 62
               7
100
AcDbLine
 10
-15.339999999999975
 20
75.630000000000038
 30
0.0
 11
-16.13999999999993
 21
75.630000000000038
 31
0.0
  0
LINE
  5
5BC
100
AcDbEntity
  8
0
  6
CONTINUOUS
 62
               7
100
AcDbLine
 10
-15.024999999999977
 20
60.100000000000037
 30
0.0
 11
-15.024999999999977
 21
65.082147579747712
 31
0.0
  0
LINE
  5
5BD
100
AcDbEntity
  8
0
  6
CONTINUOUS
 62
               7
100
AcDbLine
 10
-16.454999999999984
 20
60.100000000000037
 30
0.0
 11
-16.454999999999984
 21
64.82999999733461
 31
0.0
  0
LINE
  5
5BE
100
AcDbEntity
  8
0
  6
CONTINUOUS
 62
               7
100
AcDbLine
 10
-18.200000000000017
 20
9.5000000000000426
 30
0.0
 11
-18.199999999999989
 21
60.100000000000037
 31
0.0
  0
LINE
  5
5BF
100
AcDbEntity
  8
0
  6
CONTINUOUS
 62
               7
100
AcDbLine
 10
-8.1999999999999886
 20
43.50000003527667
 30
0.0
 11
-8.1999999999999886
 21
60.100000000000037
 31
0.0
  0
CIRCLE
  5
5C0
100
AcDbEntity
  8
0
  6
CONTINUOUS
 62
               7
100
AcDbCircle
 10
-21.199999999999989
 20
41.499999790276874
 30
0.0
 40
3.0
  0
CIRCLE
  5
5C1
100
AcDbEntity
  8
0
  6
CONTINUOUS
 62
               7
100
AcDbCircle
 10
-21.199999999999989
 20
41.499999790276874
 30
0.0
 40
2.0
  0
LINE
  5
5C2
100
AcDbEntity
  8
0
  6
CONTINUOUS
 62
               7
100
AcDbLine
 10
-21.199999999999989
 20
39.499999790276874
 30
0.0
 11
-21.199999999999989
 21
34.499999790276874
 31
0.0
  0
LINE
  5
5C3
100
AcDbEntity
  8
0
  6
CONTINUOUS
 62
               7
100
AcDbLine
 10
-21.199999999999989
 20
43.499999790276874
 30
0.0
 11
-21.199999999999989
 21
59.499999790276874
 31
0.0
  0
LINE
  5
5C4
100
AcDbEntity
  8
0
  6
CONTINUOUS
 62
               4
100
AcDbLine
 10
-4.2000000000000028
 20
10.5
 30
0.0
 11
-4.2000000000000028
 21
12.299999999999997
 31
0.0
  0
LINE
  5
5C5
100
AcDbEntity
  8
0
  6
CONTINUOUS
 62
               4
100
AcDbLine
 10
4.0
 20
-0.5
 30
0.0
 11
4.0
 21
16.499999999999986
 31
0.0
  0
LINE
  5
5C6
100
AcDbEntity
  8
0
  6
CONTINUOUS
 62
               4
100
AcDbLine
 10
-5.4999999999999858
 20
20.499999999999986
 30
0.0
 11
0.0
 21
20.499999999999986
 31
0.0
  0
LINE
  5
5C7
100
AcDbEntity
  8
0
  6
CONTINUOUS
 62
               4
100
AcDbLine
 10
-6.0
 20
12.5
 30
0.0
 11
-4.4000000000000057
 21
12.5
 31
0.0
  0
LINE
  5
5C8
100
AcDbEntity
  8
0
  6
CONTINUOUS
 62
               4
100
AcDbLine
 10
-6.0
 20
-4.5
 30
0.0
 11
0.0
 21
-4.5
 31
0.0
  0
LINE
  5
5C9
100
AcDbEntity
  8
0
  6
CONTINUOUS
 62
               4
100
AcDbLine
 10
-6.0
 20
-4.5
 30
0.0
 11
-6.0
 21
9.5000000000000426
 31
0.0
  0
LINE
  5
5CA
100
AcDbEntity
  8
0
  6
CONTINUOUS
 62
               4
100
AcDbLine
 10
-2.0500000000000114
 20
18.749999999999986
 30
0.0
 11
-4.4000000000000057
 21
18.749999999999986
 31
0.0
  0
LINE
  5
5CB
100
AcDbEntity
  8
0
  6
CONTINUOUS
 62
               4
100
AcDbLine
 10
-2.0500000000000114
 20
14.249999999999986
 30
0.0
 11
-4.4000000000000057
 21
14.249999999999986
 31
0.0
  0
LINE
  5
5CC
100
AcDbEntity
  8
0
  6
CONTINUOUS
 62
               4
100
AcDbLine
 10
-1.8000000000000114
 20
18.499999999999986
 30
0.0
 11
-1.8000000000000114
 21
14.499999999999986
 31
0.0
  0
LINE
  5
5CD
100
AcDbEntity
  8
0
  6
CONTINUOUS
 62
               4
100
AcDbLine
 10
-2.0500000000000114
 20
18.749999999999986
 30
0.0
 11
-2.0500000000000114
 21
14.249999999999986
 31
0.0
  0
LINE
  5
5CE
100
AcDbEntity
  8
0
  6
CONTINUOUS
 62
               4
100
AcDbLine
 10
-2.0500000000000114
 20
14.249999999999986
 30
0.0
 11
-1.8000000000000114
 21
14.499999999999986
 31
0.0
  0
LINE
  5
5CF
100
AcDbEntity
  8
0
  6
CONTINUOUS
 62
               4
100
AcDbLine
 10
-2.0500000000000114
 20
18.749999999999986
 30
0.0
 11
-1.8000000000000114
 21
18.499999999999986
 31
0.0
  0
LINE
  5
5D0
100
AcDbEntity
  8
0
  6
CONTINUOUS
 62
             200
100
AcDbLine
 10
-7.7000000000000171
 20
16.499999999999986
 30
0.0
 11
-0.4512971541956006
 21
16.499999999999986
 31
0.0
  0
LINE
  5
5D1
100
AcDbEntity
  8
0
  6
CONTINUOUS
 62
               4
100
AcDbLine
 10
-6.0
 20
10.0
 30
0.0
 11
-4.7000000000000028
 21
10.0
 31
0.0
  0
CIRCLE
  5
5D2
100
AcDbEntity
  8
0
  6
CONTINUOUS
 62
               4
100
AcDbCircle
 10
0.0
 20
10.0
 30
0.0
 40
1.8
  0
CIRCLE
  5
5D3
100
AcDbEntity
  8
0
  6
CONTINUOUS
 62
               4
100
AcDbCircle
 10
0.0
 20
0.0
 30
0.0
 40
1.8
  0
ARC
  5
5D4
100
AcDbEntity
  8
0
  6
CONTINUOUS
 62
               4
100
AcDbCircle
 10
0.0
 20
16.499999999999986
 30
0.0
 40
4.0
100
AcDbArc
 50
0.0
 51
90.0
  0
ARC
  5
5D5
100
AcDbEntity
  8
0
  6
CONTINUOUS
 62
               4
100
AcDbCircle
 10
0.0
 20
-0.5
 30
0.0
 40
4.0
100
AcDbArc
 50
270.0
 51
0.0
  0
LINE
  5
5D6
100
AcDbEntity
  8
0
  6
CONTINUOUS
 62
             200
100
AcDbLine
 10
3.3000000000000114
 20
10.0
 30
0.0
 11
-3.2999999999999829
 21
10.0
 31
0.0
  0
LINE
  5
5D7
100
AcDbEntity
  8
0
  6
CONTINUOUS
 62
             200
100
AcDbLine
 10
0.0
 20
13.299999999999997
 30
0.0
 11
0.0
 21
6.7000000000000028
 31
0.0
  0
LINE
  5
5D8
100
AcDbEntity
  8
0
  6
CONTINUOUS
 62
             200
100
AcDbLine
 10
3.3000000000000114
 20
0.0
 30
0.0
 11
-3.2999999999999829
 21
0.0
 31
0.0
  0
LINE
  5
5D9
100
AcDbEntity
  8
0
  6
CONTINUOUS
 62
             200
100
AcDbLine
 10
0.0
 20
3.2999999999999972
 30
0.0
 11
0.0
 21
-3.2999999999999972
 31
0.0
  0
ARC
  5
5DA
100
AcDbEntity
  8
0
  6
CONTINUOUS
 62
               4
100
AcDbCircle
 10
-4.3999999999999915
 20
12.299999999999997
 30
0.0
 40
0.2
100
AcDbArc
 50
0.0
 51
90.0
  0
ARC
  5
5DB
100
AcDbEntity
  8
0
  6
CONTINUOUS
 62
               4
100
AcDbCircle
 10
-4.7000000000000028
 20
10.5
 30
0.0
 40
0.5
100
AcDbArc
 50
270.0
 51
0.0
  0
LINE
  5
5DC
100
AcDbEntity
  8
0
  6
CONTINUOUS
 62
               7
100
AcDbLine
 10
-6.0000000000000853
 20
39.500000000000043
 30
0.0
 11
-18.199999999999989
 21
39.500000000000043
 31
0.0
  0
LINE
  5
5DD
100
AcDbEntity
  8
0
  6
CONTINUOUS
 62
               7
100
AcDbLine
 10
-17.32781745930518
 20
25.827817459305251
 30
0.0
 11
-15.87218254069478
 21
24.372182540694894
 31
0.0
  0
LINE
  5
5DE
100
AcDbEntity
  8
0
  6
CONTINUOUS
 62
               7
100
AcDbLine
 10
-17.32781745930518
 20
24.37218254069488
 30
0.0
 11
-15.872182540694808
 21
25.827817459305251
 31
0.0
  0
LINE
  5
5DF
100
AcDbEntity
  8
0
  6
CONTINUOUS
 62
               7
100
AcDbLine
 10
-8.3278174593051801
 20
38.627817459305263
 30
0.0
 11
-6.8721825406947801
 21
37.172182540694905
 31
0.0
  0
LINE
  5
5E0
100
AcDbEntity
  8
0
  6
CONTINUOUS
 62
               7
100
AcDbLine
 10
-8.3278174593051801
 20
37.172182540694891
 30
0.0
 11
-6.8721825406948085
 21
38.627817459305263
 31
0.0
  0
ARC
  5
5E1
100
AcDbEntity
  8
0
  6
CONTINUOUS
 62
               7
100
AcDbCircle
 10
-26.108818492021243
 20
28.522199794812494
 30
0.0
 40
1.7239960922922868
100
AcDbArc
 50
242.12609636951572
 51
269.72176355154471
  0
ARC
  5
5E2
100
AcDbEntity
  8
0
  6
CONTINUOUS
 62
               7
100
AcDbCircle
 10
-26.108818492021243
 20
26.474248265624411
 30
0.0
 40
1.7239960922922868
100
AcDbArc
 50
90.278236448455317
 51
117.87390363048432
  0
ARC
  5
5E3
100
AcDbEntity
  8
0
  6
CONTINUOUS
 62
               7
100
AcDbCircle
 10
-20.291181507978678
 20
28.522199794812494
 30
0.0
 40
1.7239960922922868
100
AcDbArc
 50
270.27823644845529
 51
297.87390363048428
  0
ARC
  5
5E4
100
AcDbEntity
  8
0
  6
CONTINUOUS
 62
               7
100
AcDbCircle
 10
-20.291181507978678
 20
26.474248265624411
 30
0.0
 40
1.7239960922922868
100
AcDbArc
 50
62.126096369515686
 51
89.721763551544683
  0
CIRCLE
  5
5E5
100
AcDbEntity
  8
0
  6
CONTINUOUS
 62
               7
100
AcDbCircle
 10
-23.19999999999996
 20
27.498224030218452
 30
0.0
 40
4.5
  0
CIRCLE
  5
5E6
100
AcDbEntity
  8
0
  6
CONTINUOUS
 62
               7
100
AcDbCircle
 10
-16.599999999999994
 20
25.100000000000065
 30
0.0
 40
1.5
  0
CIRCLE
  5
5E7
100
AcDbEntity
  8
0
  6
CONTINUOUS
 62
               7
100
AcDbCircle
 10
-7.5999999999999943
 20
37.900000000000077
 30
0.0
 40
1.5
  0
ARC
  5
5E8
100
AcDbEntity
  8
0
  6
CONTINUOUS
 62
               7
100
AcDbCircle
 10
-16.599999999999994
 20
25.100000000000065
 30
0.0
 40
1.7000000000000002
100
AcDbArc
 50
0.0
 51
90.0
  0
ARC
  5
5E9
100
AcDbEntity
  8
0
  6
CONTINUOUS
 62
               7
100
AcDbCircle
 10
-7.5999999999999943
 20
37.900000000000077
 30
0.0
 40
1.6999999999999993
100
AcDbArc
 50
180.0
 51
269.99999999999989
  0
LINE
  5
5EA
100
AcDbEntity
  8
0
  6
CONTINUOUS
 62
               7
100
AcDbLine
 10
-14.899999999999977
 20
23.500000000000043
 30
0.0
 11
-14.899999999999977
 21
25.100000000000065
 31
0.0
  0
LINE
  5
5EB
100
AcDbEntity
  8
0
  6
CONTINUOUS
 62
               7
100
AcDbLine
 10
-16.599999999999994
 20
26.800000000000054
 30
0.0
 11
-18.199999999999989
 21
26.800000000000054
 31
0.0
  0
LINE
  5
5EC
100
AcDbEntity
  8
0
  6
CONTINUOUS
 62
               7
100
AcDbLine
 10
-9.2999999999999829
 20
37.900000000000077
 30
0.0
 11
-9.2999999999999829
 21
39.500000000000043
 31
0.0
  0
LINE
  5
5ED
100
AcDbEntity
  8
0
  6
CONTINUOUS
 62
               7
100
AcDbLine
 10
-6.0
 20
36.200000000000031
 30
0.0
 11
-7.5999999999999943
 21
36.200000000000031
 31
0.0
  0
CIRCLE
  5
5EE
100
AcDbEntity
  8
0
  6
CONTINUOUS
 62
               7
100
AcDbCircle
 10
-14.099999999999994
 20
15.500000000000043
 30
0.0
 40
2.75
  0
LINE
  5
5EF
100
AcDbEntity
  8
0
  6
CONTINUOUS
 62
               7
100
AcDbLine
 10
-17.5
 20
40.500000000000043
 30
0.0
 11
-17.5
 21
42.000000000000043
 31
0.0
  0
LINE
  5
5F0
100
AcDbEntity
  8
0
  6
CONTINUOUS
 62
               7
100
AcDbLine
 10
-16.099999999999966
 20
41.000000000000043
 30
0.0
 11
-16.099999999999966
 21
40.200000000000031
 31
0.0
  0
LINE
  5
5F1
100
AcDbEntity
  8
0
  6
CONTINUOUS
 62
               7
100
AcDbLine
 10
-8.1999999999999886
 20
51.000000000000043
 30
0.0
 11
-18.199999999999989
 21
51.000000000000043
 31
0.0
  0
LINE
  5
5F2
100
AcDbEntity
  8
0
  6
CONTINUOUS
 62
               7
100
AcDbLine
 10
-8.1999999999999886
 20
54.500000000000043
 30
0.0
 11
-18.199999999999989
 21
54.500000000000043
 31
0.0
  0
ARC
  5
5F3
100
AcDbEntity
  8
0
  6
CONTINUOUS
 62
               7
100
AcDbCircle
 10
-17.199999999999989
 20
40.500000000000043
 30
0.0
 40
0.3
100
AcDbArc
 50
180.0
 51
270.0
  0
ARC
  5
5F4
100
AcDbEntity
  8
0
  6
CONTINUOUS
 62
               7
100
AcDbCircle
 10
-17.199999999999989
 20
42.000000000000043
 30
0.0
 40
0.3
100
AcDbArc
 50
90.0
 51
180.0
  0
LINE
  5
5F5
100
AcDbEntity
  8
0
  6
CONTINUOUS
 62
               7
100
AcDbLine
 10
-8.1999999999999886
 20
59.100000000000037
 30
0.0
 11
-18.199999999999989
 21
59.100000000000037
 31
0.0
  0
LINE
  5
5F6
100
AcDbEntity
  8
0
  6
CONTINUOUS
 62
               7
100
AcDbLine
 10
-5.9951497239924834
 20
43.50000003527667
 30
0.0
 11
-16.0
 21
43.50000003527667
 31
0.0
  0
LINE
  5
5F7
100
AcDbEntity
  8
0
  6
CONTINUOUS
 62
               7
100
AcDbLine
 10
-16.0
 20
40.200000000000031
 30
0.0
 11
-17.199999999999989
 21
40.200000000000031
 31
0.0
  0
LINE
  5
5F8
100
AcDbEntity
  8
0
  6
CONTINUOUS
 62
               7
100
AcDbLine
 10
-16.0
 20
42.30000000000004
 30
0.0
 11
-17.199999999999989
 21
42.30000000000004
 31
0.0
  0
ARC
  5
5F9
100
AcDbEntity
  8
0
  6
CONTINUOUS
 62
               7
100
AcDbCircle
 10
-15.899999999999977
 20
41.000000000000043
 30
0.0
 40
0.2
100
AcDbArc
 50
120.0000000000078
 51
180.0
  0
LINE
  5
5FA
100
AcDbEntity
  8
0
  6
CONTINUOUS
 62
               7
100
AcDbLine
 10
-16.0
 20
39.500000000000043
 30
0.0
 11
-16.0
 21
43.50000003527667
 31
0.0
  0
LINE
  5
5FB
100
AcDbEntity
  8
0
  6
CONTINUOUS
 62
               7
100
AcDbLine
 10
-18.200000000000017
 20
23.500000000000043
 30
0.0
 11
-6.0
 21
23.500000000000043
 31
0.0
  0
LINE
  5
5FC
100
AcDbEntity
  8
0
  6
CONTINUOUS
 62
               7
100
AcDbLine
 10
-28.200000000000017
 20
9.5000000000000426
 30
0.0
 11
-28.200000000000017
 21
59.500000000000099
 31
0.0
  0
ELLIPSE
  5
5FD
100
AcDbEntity
  8
0
  6
CONTINUOUS
 62
               7
100
AcDbEllipse
 10
-18.299999999999955
 20
34.39646329092129
 30
0.0
 11
-0.0713250449154178
 21
-0.0713250449154185
 31
0.0
210
0.0
220
0.0
230
1.0
 40
0.9826972631156901
 41
2.3649211364522125
 42
3.9357174632472707
  0
ELLIPSE
  5
5FE
100
AcDbEntity
  8
0
  6
CONTINUOUS
 62
               7
100
AcDbEllipse
 10
-28.099999999999881
 20
34.39646329092129
 30
0.0
 11
-0.0713250449154178
 21
0.0713250449154185
 31
0.0
210
0.0
220
0.0
230
1.0
 40
0.9826972631156901
 41
5.4890604975233073
 42
0.7766715171364256
  0
ELLIPSE
  5
5FF
100
AcDbEntity
  8
0
  6
CONTINUOUS
 62
               7
100
AcDbEllipse
 10
-28.099999999999966
 20
11.599984769515672
 30
0.0
 11
-0.0713250449154178
 21
-0.0713250449154185
 31
0.0
210
0.0
220
0.0
230
1.0
 40
0.9826972631156901
 41
5.5065137900420176
 42
0.7941248096574149
  0
ELLIPSE
  5
600
100
AcDbEntity
  8
0
  6
CONTINUOUS
 62
               7
100
AcDbEllipse
 10
-18.299999999999955
 20
11.599984769515672
 30
0.0
 11
-0.0713250449154178
 21
0.0713250449154185
 31
0.0
210
0.0
220
0.0
230
1.0
 40
0.9826972631156901
 41
2.3474678439322783
 42
3.9182641707273489
  0
ARC
  5
601
100
AcDbEntity
  8
0
  6
CONTINUOUS
 62
               7
100
AcDbCircle
 10
-18.499999919713559
 20
59.19999997655195
 30
0.0
 40
0.3000000000000008
100
AcDbArc
 50
0.0
 51
90.000000000005755
  0
ARC
  5
602
100
AcDbEntity
  8
0
  6
CONTINUOUS
 62
               7
100
AcDbCircle
 10
-27.89999969621357
 20
59.19999997655195
 30
0.0
 40
0.3
100
AcDbArc
 50
90.000000009708216
 51
138.18968510421132
  0
ARC
  5
603
100
AcDbEntity
  8
0
  6
CONTINUOUS
 62
               7
100
AcDbCircle
 10
-27.899999696213513
 20
59.19999997655195
 30
0.0
 40
0.3000000000000007
100
AcDbArc
 50
138.18968510421894
 51
179.99999999999994
  0
ELLIPSE
  5
604
100
AcDbEntity
  8
0
  6
CONTINUOUS
 62
               7
100
AcDbEllipse
 10
-28.099999999999881
 20
34.39646329092129
 30
0.0
 11
-0.0713250449154178
 21
0.0713250449154185
 31
0.0
210
0.0
220
0.0
230
1.0
 40
0.9826972631156901
 41
5.4890604975233073
 42
0.7766715171364256
  0
ELLIPSE
  5
605
100
AcDbEntity
  8
0
  6
CONTINUOUS
 62
               7
100
AcDbEllipse
 10
-28.099999999999966
 20
11.599984769515672
 30
0.0
 11
-0.0713250449154178
 21
-0.0713250449154185
 31
0.0
210
0.0
220
0.0
230
1.0
 40
0.9826972631156901
 41
5.5065137900420176
 42
0.7941248096574149
  0
ELLIPSE
  5
606
100
AcDbEntity
  8
0
  6
CONTINUOUS
 62
               7
100
AcDbEllipse
 10
-18.299999999999955
 20
11.599984769515672
 30
0.0
 11
-0.0713250449154178
 21
0.0713250449154185
 31
0.0
210
0.0
220
0.0
230
1.0
 40
0.9826972631156901
 41
2.3474678439322783
 42
3.9182641707273489
  0
ARC
  5
607
100
AcDbEntity
  8
0
  6
CONTINUOUS
 62
               7
100
AcDbCircle
 10
-23.19999999999996
 20
27.498224030218452
 30
0.0
 40
4.4142135623730958
100
AcDbArc
 50
173.49612214213639
 51
186.50387785786361
  0
ARC
  5
608
100
AcDbEntity
  8
0
  6
CONTINUOUS
 62
               7
100
AcDbCircle
 10
-23.19999999999996
 20
27.498224030218452
 30
0.0
 40
4.4142135623730958
100
AcDbArc
 50
353.49612214213636
 51
6.5038778578636256
  0
LINE
  5
609
100
AcDbEntity
  8
0
  6
CONTINUOUS
 62
               7
100
AcDbLine
 10
-18.299999999999955
 20
34.496448060436919
 30
0.0
 11
-28.099999999999966
 21
34.496448060436919
 31
0.0
  0
LINE
  5
60A
100
AcDbEntity
  8
0
  6
CONTINUOUS
 62
               7
100
AcDbLine
 10
-28.099999999999966
 20
11.500000000000043
 30
0.0
 11
-18.299999999999955
 21
11.500000000000043
 31
0.0
  0
LINE
  5
60B
100
AcDbEntity
  8
0
  6
CONTINUOUS
 62
               7
100
AcDbLine
 10
-27.585804529871126
 20
27.998224030218452
 30
0.0
 11
-18.814195470128794
 21
27.998224030218452
 31
0.0
  0
LINE
  5
60C
100
AcDbEntity
  8
0
  6
CONTINUOUS
 62
               7
100
AcDbLine
 10
-20.282809570837003
 20
28.198224030218441
 30
0.0
 11
-26.117190429162946
 21
28.198224030218441
 31
0.0
  0
LINE
  5
60D
100
AcDbEntity
  8
0
  6
CONTINUOUS
 62
               7
100
AcDbLine
 10
-27.585804529871126
 20
26.998224030218452
 30
0.0
 11
-18.814195470128794
 21
26.998224030218452
 31
0.0
  0
LINE
  5
60E
100
AcDbEntity
  8
0
  6
CONTINUOUS
 62
               7
100
AcDbLine
 10
-20.282809570837031
 20
26.798224030218464
 30
0.0
 11
-26.117190429165333
 21
26.798224030218464
 31
0.0
  0
LINE
  5
60F
100
AcDbEntity
  8
0
  6
CONTINUOUS
 62
               7
100
AcDbLine
 10
-18.241354507353094
 20
42.700000032151408
 30
0.0
 11
-18.239657912179638
 21
42.700000032151408
 31
0.0
  0
CIRCLE
  5
610
100
AcDbEntity
  8
0
  6
CONTINUOUS
 62
               7
100
AcDbCircle
 10
-14.099999999999994
 20
15.500000000000043
 30
0.0
 40
3.2499999999999996
  0
LINE
  5
611
100
AcDbEntity
  8
0
  6
CONTINUOUS
 62
               7
100
AcDbLine
 10
-28.200000000000017
 20
59.500000000000099
 30
0.0
 11
-18.499999919713559
 21
59.500000000000099
 31
0.0
  0
LINE
  5
612
100
AcDbEntity
  8
0
  6
CONTINUOUS
 62
               7
100
AcDbLine
 10
-28.200000000000017
 20
9.5000000000000426
 30
0.0
 11
-5.9999999999999147
 21
9.5000000000000426
 31
0.0
  0
LINE
  5
613
100
AcDbEntity
  8
0
  6
CONTINUOUS
 62
               7
100
AcDbLine
 10
-6.0000000000001137
 20
43.50000003527667
 30
0.0
 11
-5.9999999999999147
 21
9.5000000000000426
 31
0.0
  0
LINE
  5
614
100
AcDbEntity
  8
0
  6
CONTINUOUS
 62
               7
100
AcDbLine
 10
-18.199999999999989
 20
60.100000000000037
 30
0.0
 11
-8.1999999999999886
 21
60.100000000000037
 31
0.0
  0
ARC
  5
615
100
AcDbEntity
  8
0
  6
CONTINUOUS
 62
               4
100
AcDbCircle
 10
-4.9000000000000057
 20
19.999999999999986
 30
0.0
 40
0.5
100
AcDbArc
 50
0.0
 51
90.0
  0
ARC
  5
616
100
AcDbEntity
  8
0
  6
CONTINUOUS
 62
               4
100
AcDbCircle
 10
-5.4999999999999858
 20
19.999999999999986
 30
0.0
 40
0.5
100
AcDbArc
 50
90.0
 51
180.0
  0
LINE
  5
617
100
AcDbEntity
  8
0
  6
CONTINUOUS
 62
               4
100
AcDbLine
 10
-4.4000000000000057
 20
12.5
 30
0.0
 11
-4.4000000000000057
 21
19.999999999999986
 31
0.0
  0
LINE
  5
618
100
AcDbEntity
  8
0
  6
CONTINUOUS
 62
               2
100
AcDbLine
 10
-9.3499999999999943
 20
15.500000000000043
 30
0.0
 11
-18.849999999999994
 21
15.500000000000043
 31
0.0
  0
LINE
  5
619
100
AcDbEntity
  8
0
  6
CONTINUOUS
 62
               2
100
AcDbLine
 10
-14.099999999999994
 20
20.250000000000043
 30
0.0
 11
-14.099999999999994
 21
10.750000000000043
 31
0.0
  0
ENDBLK
  5
61A
100
AcDbEntity
  8
0
100
AcDbBlockEnd
  0
BLOCK
  5
61B
100
AcDbEntity
  8
0
100
AcDbBlockBegin
  2
MV180-05-DA-F-10
 70
               0
 10
0.0
 20
0.0
 30
0.0
  3
MV180-05-DA-F-10
  1

  0
LINE
  5
61C
100
AcDbEntity
  8
0
  6
CONTINUOUS
 62
               7
100
AcDbLine
 10
23.292378541892731
 20
29.145804657477811
 30
0.0
 11
23.410463337463796
 21
29.228488521484621
 31
0.0
  0
LINE
  5
61D
100
AcDbEntity
  8
0
  6
CONTINUOUS
 62
               7
100
AcDbLine
 10
23.053105693828684
 20
31.898894380177239
 30
0.0
 11
23.128548133034883
 21
31.951719744810362
 31
0.0
  0
LINE
  5
61E
100
AcDbEntity
  8
0
  6
CONTINUOUS
 62
               7
100
AcDbLine
 10
23.010463337463761
 20
29.405606494079052
 30
0.0
 11
23.010463337463761
 21
31.816979175748372
 31
0.0
  0
LINE
  5
61F
100
AcDbEntity
  8
0
  6
CONTINUOUS
 62
               7
100
AcDbLine
 10
23.410463337463796
 20
31.723447787097086
 30
0.0
 11
23.410463337463796
 21
29.228488521484621
 31
0.0
  0
LINE
  5
620
100
AcDbEntity
  8
0
  6
CONTINUOUS
 62
               7
100
AcDbLine
 10
23.153105693828707
 20
29.170362218271634
 30
0.0
 11
23.028548133034917
 21
29.348248850443952
 31
0.0
  0
LINE
  5
621
100
AcDbEntity
  8
0
  6
CONTINUOUS
 62
               7
100
AcDbLine
 10
23.267820981098907
 20
31.927162184016538
 30
0.0
 11
23.410463337463739
 21
31.723447787097086
 31
0.0
  0
ARC
  5
622
100
AcDbEntity
  8
0
  6
CONTINUOUS
 62
               7
100
AcDbCircle
 10
23.185905776669983
 20
31.869804540381438
 30
0.0
 40
0.1
100
AcDbArc
 50
34.999999999999247
 51
124.99999999999655
  0
ARC
  5
623
100
AcDbEntity
  8
0
  6
CONTINUOUS
 62
               7
100
AcDbCircle
 10
23.110463337463784
 20
31.816979175748372
 30
0.0
 40
0.1
100
AcDbArc
 50
125.00000000000189
 51
180.0
  0
ARC
  5
624
100
AcDbEntity
  8
0
  6
CONTINUOUS
 62
               7
100
AcDbCircle
 10
23.235020898257631
 20
29.227719861906735
 30
0.0
 40
0.1
100
AcDbArc
 50
214.99999999999457
 51
304.99999999999653
  0
ARC
  5
625
100
AcDbEntity
  8
0
  6
CONTINUOUS
 62
               7
100
AcDbCircle
 10
23.110463337463784
 20
29.405606494079052
 30
0.0
 40
0.1
100
AcDbArc
 50
180.0
 51
215.00000000000858
  0
LINE
  5
626
100
AcDbEntity
  8
0
  6
CONTINUOUS
 62
               7
100
AcDbLine
 10
20.791610186155822
 20
43.115302511043581
 30
0.0
 11
22.942756423670971
 21
42.735997512995311
 31
0.0
  0
LINE
  5
627
100
AcDbEntity
  8
0
  6
CONTINUOUS
 62
               7
100
AcDbLine
 10
20.791610181657347
 20
39.954318647975299
 30
0.0
 11
22.896718584951827
 21
39.583131119601148
 31
0.0
  0
LINE
  5
628
100
AcDbEntity
  8
0
  6
CONTINUOUS
 62
               7
100
AcDbLine
 10
20.8495243863224
 20
42.734967483609921
 30
0.0
 11
22.758252913106389
 21
42.398407501404392
 31
0.0
  0
LINE
  5
629
100
AcDbEntity
  8
0
  6
CONTINUOUS
 62
               7
100
AcDbLine
 10
21.016905218100533
 20
40.284715539672845
 30
0.0
 11
22.838804592871156
 21
39.963465863488466
 31
0.0
  0
LINE
  5
62A
100
AcDbEntity
  8
0
  6
CONTINUOUS
 62
               7
100
AcDbLine
 10
23.572225827064017
 20
39.499286336288549
 30
0.0
 11
25.711560182393782
 21
39.122063847186325
 31
0.0
  0
LINE
  5
62B
100
AcDbEntity
  8
0
  6
CONTINUOUS
 62
               7
100
AcDbLine
 10
23.570278002116197
 20
42.660614028255225
 30
0.0
 11
25.774900791969344
 21
42.271879023061501
 31
0.0
  0
LINE
  5
62C
100
AcDbEntity
  8
0
  6
CONTINUOUS
 62
               7
100
AcDbLine
 10
23.668984238412349
 20
42.273086285987119
 30
0.0
 11
25.59039781654036
 21
41.934289410905194
 31
0.0
  0
LINE
  5
62D
100
AcDbEntity
  8
0
  6
CONTINUOUS
 62
               7
100
AcDbLine
 10
23.797521080652587
 20
39.829683380912968
 30
0.0
 11
25.612853930165386
 21
39.509591578162429
 31
0.0
  0
LINE
  5
62E
100
AcDbEntity
  8
0
  6
CONTINUOUS
 62
               7
100
AcDbLine
 10
26.054897832699794
 20
39.490557949176036
 30
0.0
 11
26.054897832699794
 21
41.897416857200483
 31
0.0
  0
LINE
  5
62F
100
AcDbEntity
  8
0
  6
CONTINUOUS
 62
               7
100
AcDbLine
 10
25.690397816540383
 20
39.725488319363137
 30
0.0
 11
25.690397816540383
 21
41.782232705849992
 31
0.0
  0
LINE
  5
630
100
AcDbEntity
  8
0
  6
CONTINUOUS
 62
               7
100
AcDbLine
 10
20.818356595280989
 20
42.536664901586107
 30
0.0
 11
20.818356595280989
 21
40.351466695358397
 31
0.0
  0
LINE
  5
631
100
AcDbEntity
  8
0
  6
CONTINUOUS
 62
               7
100
AcDbLine
 10
20.453856579121521
 20
40.288339249063142
 30
0.0
 11
20.453856579121521
 21
42.740065392885413
 31
0.0
  0
LINE
  5
632
100
AcDbEntity
  8
0
  6
CONTINUOUS
 62
               7
100
AcDbLine
 10
20.751617361213334
 20
40.134714626748973
 30
0.0
 11
20.94218277450841
 21
40.2681499656602
 31
0.0
  0
LINE
  5
633
100
AcDbEntity
  8
0
  6
CONTINUOUS
 62
               7
100
AcDbLine
 10
23.532233006620118
 20
39.679682315062223
 30
0.0
 11
23.722798638064546
 21
39.813117806723312
 31
0.0
  0
LINE
  5
634
100
AcDbEntity
  8
0
  6
CONTINUOUS
 62
               7
100
AcDbLine
 10
25.733040172905248
 20
41.864147910278916
 30
0.0
 11
25.897540189064671
 21
41.97933206162935
 31
0.0
  0
LINE
  5
635
100
AcDbEntity
  8
0
  6
CONTINUOUS
 62
               7
100
AcDbLine
 10
22.758252913106389
 20
42.398407501404392
 30
0.0
 11
22.982749255003966
 21
42.55560153230158
 31
0.0
  0
LINE
  5
636
100
AcDbEntity
  8
0
  6
CONTINUOUS
 62
               7
100
AcDbLine
 10
20.611214222756644
 20
40.206424044634218
 30
0.0
 11
20.818356595280932
 21
40.351466695358397
 31
0.0
  0
LINE
  5
637
100
AcDbEntity
  8
0
  6
CONTINUOUS
 62
               7
100
AcDbLine
 10
23.316387428957114
 20
39.698566368314346
 30
0.0
 11
23.434472224528179
 21
39.781250232321156
 31
0.0
  0
LINE
  5
638
100
AcDbEntity
  8
0
  6
CONTINUOUS
 62
               7
100
AcDbLine
 10
25.59039781654036
 20
41.934289410905194
 30
0.0
 11
25.814893595090552
 21
42.091483047342308
 31
0.0
  0
LINE
  5
639
100
AcDbEntity
  8
0
  6
CONTINUOUS
 62
               7
100
AcDbLine
 10
23.077114580893067
 20
42.451656091013774
 30
0.0
 11
23.152557020099266
 21
42.504481455646896
 31
0.0
  0
LINE
  5
63A
100
AcDbEntity
  8
0
  6
CONTINUOUS
 62
               7
100
AcDbLine
 10
23.034472224528145
 20
39.958368204915587
 30
0.0
 11
23.034472224528145
 21
42.369740886584907
 31
0.0
  0
LINE
  5
63B
100
AcDbEntity
  8
0
  6
CONTINUOUS
 62
               7
100
AcDbLine
 10
23.434472224528179
 20
42.276209497933621
 30
0.0
 11
23.434472224528179
 21
39.781250232321156
 31
0.0
  0
LINE
  5
63C
100
AcDbEntity
  8
0
  6
CONTINUOUS
 62
               7
100
AcDbLine
 10
20.635771783550354
 20
42.797423036520513
 30
0.0
 11
20.818356595280989
 21
42.536664901586107
 31
0.0
  0
LINE
  5
63D
100
AcDbEntity
  8
0
  6
CONTINUOUS
 62
               7
100
AcDbLine
 10
20.692330169424736
 20
42.959464091143673
 30
0.0
 11
20.8495243863224
 21
42.734967483609921
 31
0.0
  0
LINE
  5
63E
100
AcDbEntity
  8
0
  6
CONTINUOUS
 62
               7
100
AcDbLine
 10
23.17711458089309
 20
39.723123929108169
 30
0.0
 11
23.0525570200993
 21
39.901010561280486
 31
0.0
  0
LINE
  5
63F
100
AcDbEntity
  8
0
  6
CONTINUOUS
 62
               7
100
AcDbLine
 10
22.995998612571896
 20
39.738969537581056
 30
0.0
 11
22.838804592871156
 21
39.963465863488466
 31
0.0
  0
LINE
  5
640
100
AcDbEntity
  8
0
  6
CONTINUOUS
 62
               7
100
AcDbLine
 10
25.810840210013737
 20
39.277902265166233
 30
0.0
 11
25.677404335641427
 21
39.468468443178892
 31
0.0
  0
LINE
  5
641
100
AcDbEntity
  8
0
  6
CONTINUOUS
 62
               7
100
AcDbLine
 10
25.872982628270904
 20
39.433200305540936
 30
0.0
 11
25.708482612111538
 21
39.668130675728037
 31
0.0
  0
LINE
  5
642
100
AcDbEntity
  8
0
  6
CONTINUOUS
 62
               7
100
AcDbLine
 10
23.29182986816329
 20
42.479923894853073
 30
0.0
 11
23.434472224528122
 21
42.276209497933621
 31
0.0
  0
LINE
  5
643
100
AcDbEntity
  8
0
  6
CONTINUOUS
 62
               7
100
AcDbLine
 10
23.604433842810408
 20
42.314209419229599
 30
0.0
 11
23.470997957173495
 21
42.504775613329855
 31
0.0
  0
ARC
  5
644
100
AcDbEntity
  8
0
  6
CONTINUOUS
 62
               7
100
AcDbCircle
 10
20.553856579121486
 20
40.288339249063142
 30
0.0
 40
0.1
100
AcDbArc
 50
180.0
 51
304.99999999999653
  0
ARC
  5
645
100
AcDbEntity
  8
0
  6
CONTINUOUS
 62
               7
100
AcDbCircle
 10
20.553856579121486
 20
42.740065392885413
 30
0.0
 40
0.1
100
AcDbArc
 50
35.00000000000388
 51
180.0
  0
ARC
  5
646
100
AcDbEntity
  8
0
  6
CONTINUOUS
 62
               7
100
AcDbCircle
 10
20.77424537385366
 20
43.016821734778773
 30
0.0
 40
0.1
100
AcDbArc
 50
80.000003179257689
 51
215.00000000000389
  0
ARC
  5
647
100
AcDbEntity
  8
0
  6
CONTINUOUS
 62
               7
100
AcDbCircle
 10
22.925391611368809
 20
42.637516736730561
 30
0.0
 40
0.1
100
AcDbArc
 50
304.99999999999119
 51
80.000003179260077
  0
ARC
  5
648
100
AcDbEntity
  8
0
  6
CONTINUOUS
 62
               7
100
AcDbCircle
 10
23.209914663734367
 20
42.422566251217972
 30
0.0
 40
0.1
100
AcDbArc
 50
34.999999999999247
 51
124.99999999999655
  0
ARC
  5
649
100
AcDbEntity
  8
0
  6
CONTINUOUS
 62
               7
100
AcDbCircle
 10
23.134472224528167
 20
42.369740886584907
 30
0.0
 40
0.1
100
AcDbArc
 50
125.00000000000189
 51
180.0
  0
ARC
  5
64A
100
AcDbEntity
  8
0
  6
CONTINUOUS
 62
               7
100
AcDbCircle
 10
23.259029785322014
 20
39.78048157274327
 30
0.0
 40
0.1
100
AcDbArc
 50
214.99999999999457
 51
304.99999999999653
  0
ARC
  5
64B
100
AcDbEntity
  8
0
  6
CONTINUOUS
 62
               7
100
AcDbCircle
 10
23.134472224528167
 20
39.958368204915587
 30
0.0
 40
0.1
100
AcDbArc
 50
180.0
 51
215.00000000000858
  0
ARC
  5
64C
100
AcDbEntity
  8
0
  6
CONTINUOUS
 62
               7
100
AcDbCircle
 10
22.914083408143028
 20
39.681611893945956
 30
0.0
 40
0.1
100
AcDbArc
 50
259.99999684407106
 51
35.000000000003929
  0
ARC
  5
64D
100
AcDbEntity
  8
0
  6
CONTINUOUS
 62
               7
100
AcDbCircle
 10
20.808975004848435
 20
40.052799422320049
 30
0.0
 40
0.1
100
AcDbArc
 50
124.99999999999655
 51
259.99999684407339
  0
ARC
  5
64E
100
AcDbEntity
  8
0
  6
CONTINUOUS
 62
               7
100
AcDbCircle
 10
20.999540418143511
 20
40.186234761231333
 30
0.0
 40
0.1
100
AcDbArc
 50
80.000010361602506
 51
124.99999999999523
  0
ARC
  5
64F
100
AcDbEntity
  8
0
  6
CONTINUOUS
 62
               7
100
AcDbCircle
 10
23.780156281699703
 20
39.731202602294388
 30
0.0
 40
0.1
100
AcDbArc
 50
80.000010945824187
 51
125.00000000000321
  0
ARC
  5
650
100
AcDbEntity
  8
0
  6
CONTINUOUS
 62
               7
100
AcDbCircle
 10
23.589590650255218
 20
39.597767110633299
 30
0.0
 40
0.1
100
AcDbArc
 50
124.99999999998988
 51
259.99999684407339
  0
ARC
  5
651
100
AcDbEntity
  8
0
  6
CONTINUOUS
 62
               7
100
AcDbCircle
 10
25.72892500558487
 20
39.220544621531133
 30
0.0
 40
0.1
100
AcDbArc
 50
259.99999684407106
 51
35.000000000013294
  0
ARC
  5
652
100
AcDbEntity
  8
0
  6
CONTINUOUS
 62
               7
100
AcDbCircle
 10
23.552913161602419
 20
42.562133256964955
 30
0.0
 40
0.1
100
AcDbArc
 50
79.999986765780577
 51
214.99999999998988
  0
ARC
  5
653
100
AcDbEntity
  8
0
  6
CONTINUOUS
 62
               7
100
AcDbCircle
 10
25.757535951455509
 20
42.173398251771118
 30
0.0
 40
0.1
100
AcDbArc
 50
305.00000000000722
 51
79.999986765783831
  0
ARC
  5
654
100
AcDbEntity
  8
0
  6
CONTINUOUS
 62
               7
100
AcDbCircle
 10
23.686349047239332
 20
42.371567062864699
 30
0.0
 40
0.1
100
AcDbArc
 50
214.99999999999457
 51
260.00000520109757
  0
ARC
  5
655
100
AcDbEntity
  8
0
  6
CONTINUOUS
 62
               7
100
AcDbCircle
 10
25.790397816540349
 20
39.725488319363137
 30
0.0
 40
0.1
100
AcDbArc
 50
180.0
 51
215.00000000000389
  0
ARC
  5
656
100
AcDbEntity
  8
0
  6
CONTINUOUS
 62
               7
100
AcDbCircle
 10
25.595489131212503
 20
39.411110799543792
 30
0.0
 40
0.1
100
AcDbArc
 50
34.999999999994564
 51
80.000010945829885
  0
ARC
  5
657
100
AcDbEntity
  8
0
  6
CONTINUOUS
 62
               7
100
AcDbCircle
 10
25.790397816540349
 20
41.782232705849992
 30
0.0
 40
0.1
100
AcDbArc
 50
124.99999999999655
 51
180.0
  0
ARC
  5
658
100
AcDbEntity
  8
0
  6
CONTINUOUS
 62
               7
100
AcDbCircle
 10
25.954897832699771
 20
41.897416857200483
 30
0.0
 40
0.1
100
AcDbArc
 50
0.0
 51
125.00000000000189
  0
ARC
  5
659
100
AcDbEntity
  8
0
  6
CONTINUOUS
 62
               7
100
AcDbCircle
 10
25.954897832699771
 20
39.490557949176036
 30
0.0
 40
0.1
100
AcDbArc
 50
215.00000000000389
 51
0.0
  0
ARC
  5
65A
100
AcDbEntity
  8
0
  6
CONTINUOUS
 62
               7
100
AcDbCircle
 10
25.920425608171513
 20
34.368857321862038
 30
0.0
 40
0.1
100
AcDbArc
 50
215.00000000000389
 51
0.0
  0
ARC
  5
65B
100
AcDbEntity
  8
0
  6
CONTINUOUS
 62
               7
100
AcDbCircle
 10
25.920425608171513
 20
36.775716229886484
 30
0.0
 40
0.1
100
AcDbArc
 50
0.0
 51
125.00000000000189
  0
ARC
  5
65C
100
AcDbEntity
  8
0
  6
CONTINUOUS
 62
               7
100
AcDbCircle
 10
25.75592559201209
 20
36.660532078535994
 30
0.0
 40
0.1
100
AcDbArc
 50
124.99999999999655
 51
180.0
  0
ARC
  5
65D
100
AcDbEntity
  8
0
  6
CONTINUOUS
 62
               7
100
AcDbCircle
 10
25.561016906684245
 20
34.289410172229793
 30
0.0
 40
0.1
100
AcDbArc
 50
34.999999999994564
 51
80.000010945829885
  0
ARC
  5
65E
100
AcDbEntity
  8
0
  6
CONTINUOUS
 62
               7
100
AcDbCircle
 10
25.75592559201209
 20
34.603787692049139
 30
0.0
 40
0.1
100
AcDbArc
 50
180.0
 51
215.00000000000389
  0
ARC
  5
65F
100
AcDbEntity
  8
0
  6
CONTINUOUS
 62
               7
100
AcDbCircle
 10
23.651876822711074
 20
37.2498664355507
 30
0.0
 40
0.1
100
AcDbArc
 50
214.99999999999457
 51
260.00000520109757
  0
ARC
  5
660
100
AcDbEntity
  8
0
  6
CONTINUOUS
 62
               7
100
AcDbCircle
 10
25.723063726927251
 20
37.05169762445712
 30
0.0
 40
0.1
100
AcDbArc
 50
305.00000000000722
 51
79.999986765783831
  0
ARC
  5
661
100
AcDbEntity
  8
0
  6
CONTINUOUS
 62
               7
100
AcDbCircle
 10
23.518440937074161
 20
37.440432629650957
 30
0.0
 40
0.1
100
AcDbArc
 50
79.999986765780577
 51
214.99999999998988
  0
ARC
  5
662
100
AcDbEntity
  8
0
  6
CONTINUOUS
 62
               7
100
AcDbCircle
 10
25.694452781056611
 20
34.098843994217134
 30
0.0
 40
0.1
100
AcDbArc
 50
259.99999684407106
 51
35.000000000013294
  0
ARC
  5
663
100
AcDbEntity
  8
0
  6
CONTINUOUS
 62
               7
100
AcDbCircle
 10
23.55511842572696
 20
34.4760664833193
 30
0.0
 40
0.1
100
AcDbArc
 50
124.99999999998988
 51
259.99999684407339
  0
ARC
  5
664
100
AcDbEntity
  8
0
  6
CONTINUOUS
 62
               7
100
AcDbCircle
 10
23.745684057171445
 20
34.60950197498039
 30
0.0
 40
0.1
100
AcDbArc
 50
80.000010945824187
 51
125.00000000000321
  0
ARC
  5
665
100
AcDbEntity
  8
0
  6
CONTINUOUS
 62
               7
100
AcDbCircle
 10
20.965068193615252
 20
35.064534133917334
 30
0.0
 40
0.1
100
AcDbArc
 50
80.000010361602506
 51
124.99999999999523
  0
ARC
  5
666
100
AcDbEntity
  8
0
  6
CONTINUOUS
 62
               7
100
AcDbCircle
 10
20.774502780320176
 20
34.931098795006051
 30
0.0
 40
0.1
100
AcDbArc
 50
124.99999999999655
 51
259.99999684407339
  0
ARC
  5
667
100
AcDbEntity
  8
0
  6
CONTINUOUS
 62
               7
100
AcDbCircle
 10
22.87961118361477
 20
34.559911266631957
 30
0.0
 40
0.1
100
AcDbArc
 50
259.99999684407106
 51
35.000000000003929
  0
ARC
  5
668
100
AcDbEntity
  8
0
  6
CONTINUOUS
 62
               7
100
AcDbCircle
 10
23.099999999999909
 20
34.836667577601588
 30
0.0
 40
0.1
100
AcDbArc
 50
180.0
 51
215.00000000000858
  0
ARC
  5
669
100
AcDbEntity
  8
0
  6
CONTINUOUS
 62
               7
100
AcDbCircle
 10
23.224557560793755
 20
34.658780945429271
 30
0.0
 40
0.1
100
AcDbArc
 50
214.99999999999457
 51
304.99999999999653
  0
ARC
  5
66A
100
AcDbEntity
  8
0
  6
CONTINUOUS
 62
               7
100
AcDbCircle
 10
23.099999999999909
 20
37.248040259270908
 30
0.0
 40
0.1
100
AcDbArc
 50
125.00000000000189
 51
180.0
  0
ARC
  5
66B
100
AcDbEntity
  8
0
  6
CONTINUOUS
 62
               7
100
AcDbCircle
 10
23.175442439206108
 20
37.300865623903974
 30
0.0
 40
0.1
100
AcDbArc
 50
34.999999999999247
 51
124.99999999999655
  0
ARC
  5
66C
100
AcDbEntity
  8
0
  6
CONTINUOUS
 62
               7
100
AcDbCircle
 10
22.890919386840551
 20
37.515816109416562
 30
0.0
 40
0.1
100
AcDbArc
 50
304.99999999999119
 51
80.000003179260077
  0
ARC
  5
66D
100
AcDbEntity
  8
0
  6
CONTINUOUS
 62
               7
100
AcDbCircle
 10
20.739773149325401
 20
37.895121107464774
 30
0.0
 40
0.1
100
AcDbArc
 50
80.000003179257689
 51
215.00000000000389
  0
ARC
  5
66E
100
AcDbEntity
  8
0
  6
CONTINUOUS
 62
               7
100
AcDbCircle
 10
20.519384354593228
 20
37.618364765571414
 30
0.0
 40
0.1
100
AcDbArc
 50
35.00000000000388
 51
180.0
  0
ARC
  5
66F
100
AcDbEntity
  8
0
  6
CONTINUOUS
 62
               7
100
AcDbCircle
 10
20.519384354593228
 20
35.166638621749144
 30
0.0
 40
0.1
100
AcDbArc
 50
180.0
 51
304.99999999999653
  0
LINE
  5
670
100
AcDbEntity
  8
0
  6
CONTINUOUS
 62
               7
100
AcDbLine
 10
23.56996161828215
 20
37.1925087919156
 30
0.0
 11
23.436525732645237
 21
37.383074986015856
 31
0.0
  0
LINE
  5
671
100
AcDbEntity
  8
0
  6
CONTINUOUS
 62
               7
100
AcDbLine
 10
23.257357643635032
 20
37.358223267539074
 30
0.0
 11
23.399999999999864
 21
37.154508870619622
 31
0.0
  0
LINE
  5
672
100
AcDbEntity
  8
0
  6
CONTINUOUS
 62
               7
100
AcDbLine
 10
25.838510403742646
 20
34.311499678226937
 30
0.0
 11
25.67401038758328
 21
34.546430048414038
 31
0.0
  0
LINE
  5
673
100
AcDbEntity
  8
0
  6
CONTINUOUS
 62
               7
100
AcDbLine
 10
25.776367985485479
 20
34.156201637852234
 30
0.0
 11
25.642932111113169
 21
34.346767815864894
 31
0.0
  0
LINE
  5
674
100
AcDbEntity
  8
0
  6
CONTINUOUS
 62
               7
100
AcDbLine
 10
22.961526388043637
 20
34.617268910267057
 30
0.0
 11
22.804332368342898
 21
34.841765236174467
 31
0.0
  0
LINE
  5
675
100
AcDbEntity
  8
0
  6
CONTINUOUS
 62
               7
100
AcDbLine
 10
23.142642356364831
 20
34.601423301794171
 30
0.0
 11
23.018084795571042
 21
34.779309933966488
 31
0.0
  0
LINE
  5
676
100
AcDbEntity
  8
0
  6
CONTINUOUS
 62
               7
100
AcDbLine
 10
20.657857944896477
 20
37.837763463829674
 30
0.0
 11
20.815052161794142
 21
37.613266856295922
 31
0.0
  0
LINE
  5
677
100
AcDbEntity
  8
0
  6
CONTINUOUS
 62
               7
100
AcDbLine
 10
20.601299559022095
 20
37.675722409206514
 30
0.0
 11
20.78388437075273
 21
37.414964274272108
 31
0.0
  0
LINE
  5
678
100
AcDbEntity
  8
0
  6
CONTINUOUS
 62
               7
100
AcDbLine
 10
23.39999999999992
 20
37.154508870619622
 30
0.0
 11
23.39999999999992
 21
34.659549605007157
 31
0.0
  0
LINE
  5
679
100
AcDbEntity
  8
0
  6
CONTINUOUS
 62
               7
100
AcDbLine
 10
22.999999999999886
 20
34.836667577601588
 30
0.0
 11
22.999999999999886
 21
37.248040259270908
 31
0.0
  0
LINE
  5
67A
100
AcDbEntity
  8
0
  6
CONTINUOUS
 62
               7
100
AcDbLine
 10
23.042642356364809
 20
37.329955463699775
 30
0.0
 11
23.118084795571008
 21
37.382780828332898
 31
0.0
  0
LINE
  5
67B
100
AcDbEntity
  8
0
  6
CONTINUOUS
 62
               7
100
AcDbLine
 10
25.555925592012102
 20
36.812588783591195
 30
0.0
 11
25.780421370562294
 21
36.969782420028309
 31
0.0
  0
LINE
  5
67C
100
AcDbEntity
  8
0
  6
CONTINUOUS
 62
               7
100
AcDbLine
 10
23.281915204428856
 20
34.576865741000347
 30
0.0
 11
23.39999999999992
 21
34.659549605007157
 31
0.0
  0
LINE
  5
67D
100
AcDbEntity
  8
0
  6
CONTINUOUS
 62
               7
100
AcDbLine
 10
20.576741998228385
 20
35.08472341732022
 30
0.0
 11
20.783884370752673
 21
35.229766068044398
 31
0.0
  0
LINE
  5
67E
100
AcDbEntity
  8
0
  6
CONTINUOUS
 62
               7
100
AcDbLine
 10
22.723780688578131
 20
37.276706874090394
 30
0.0
 11
22.948277030475708
 21
37.433900904987581
 31
0.0
  0
LINE
  5
67F
100
AcDbEntity
  8
0
  6
CONTINUOUS
 62
               7
100
AcDbLine
 10
25.69856794837699
 20
36.742447282964918
 30
0.0
 11
25.863067964536413
 21
36.857631434315351
 31
0.0
  0
LINE
  5
680
100
AcDbEntity
  8
0
  6
CONTINUOUS
 62
               7
100
AcDbLine
 10
23.497760782091859
 20
34.557981687748224
 30
0.0
 11
23.688326413536288
 21
34.691417179409314
 31
0.0
  0
LINE
  5
681
100
AcDbEntity
  8
0
  6
CONTINUOUS
 62
               7
100
AcDbLine
 10
20.717145136685076
 20
35.013013999434975
 30
0.0
 11
20.907710549980152
 21
35.146449338346201
 31
0.0
  0
LINE
  5
682
100
AcDbEntity
  8
0
  6
CONTINUOUS
 62
               7
100
AcDbLine
 10
20.419384354593262
 20
35.166638621749144
 30
0.0
 11
20.419384354593262
 21
37.618364765571414
 31
0.0
  0
LINE
  5
683
100
AcDbEntity
  8
0
  6
CONTINUOUS
 62
               7
100
AcDbLine
 10
20.78388437075273
 20
37.414964274272108
 30
0.0
 11
20.78388437075273
 21
35.229766068044398
 31
0.0
  0
LINE
  5
684
100
AcDbEntity
  8
0
  6
CONTINUOUS
 62
               7
100
AcDbLine
 10
25.655925592012125
 20
34.603787692049139
 30
0.0
 11
25.655925592012125
 21
36.660532078535994
 31
0.0
  0
LINE
  5
685
100
AcDbEntity
  8
0
  6
CONTINUOUS
 62
               7
100
AcDbLine
 10
26.020425608171536
 20
34.368857321862038
 30
0.0
 11
26.020425608171536
 21
36.775716229886484
 31
0.0
  0
LINE
  5
686
100
AcDbEntity
  8
0
  6
CONTINUOUS
 62
               7
100
AcDbLine
 10
23.763048856124328
 20
34.707982753598969
 30
0.0
 11
25.578381705637128
 21
34.38789095084843
 31
0.0
  0
LINE
  5
687
100
AcDbEntity
  8
0
  6
CONTINUOUS
 62
               7
100
AcDbLine
 10
23.634512013884091
 20
37.151385658673121
 30
0.0
 11
25.555925592012102
 21
36.812588783591195
 31
0.0
  0
LINE
  5
688
100
AcDbEntity
  8
0
  6
CONTINUOUS
 62
               7
100
AcDbLine
 10
23.535805777587939
 20
37.538913400941226
 30
0.0
 11
25.740428567441086
 21
37.150178395747503
 31
0.0
  0
LINE
  5
689
100
AcDbEntity
  8
0
  6
CONTINUOUS
 62
               7
100
AcDbLine
 10
23.537753602535759
 20
34.37758570897455
 30
0.0
 11
25.677087957865524
 21
34.000363219872327
 31
0.0
  0
LINE
  5
68A
100
AcDbEntity
  8
0
  6
CONTINUOUS
 62
               7
100
AcDbLine
 10
22.629901643390895
 20
51.1374393189584
 30
0.0
 11
24.116508518122714
 21
48.562560681041646
 31
0.0
  0
LINE
  5
68B
100
AcDbEntity
  8
0
  6
CONTINUOUS
 62
               7
100
AcDbLine
 10
22.283491481877036
 20
50.937439318958354
 30
0.0
 11
23.770098356608969
 21
48.3625606810416
 31
0.0
  0
CIRCLE
  5
68C
100
AcDbEntity
  8
0
  6
CONTINUOUS
 62
               7
100
AcDbCircle
 10
23.199999999999932
 20
49.75
 30
0.0
 40
1.5
  0
LINE
  5
68D
100
AcDbEntity
  8
0
  6
CONTINUOUS
 62
               7
100
AcDbLine
 10
22.629901643390895
 20
56.3874393189584
 30
0.0
 11
24.116508518122714
 21
53.812560681041646
 31
0.0
  0
LINE
  5
68E
100
AcDbEntity
  8
0
  6
CONTINUOUS
 62
               7
100
AcDbLine
 10
22.283491481877036
 20
56.187439318958354
 30
0.0
 11
23.770098356608969
 21
53.6125606810416
 31
0.0
  0
CIRCLE
  5
68F
100
AcDbEntity
  8
0
  6
CONTINUOUS
 62
               7
100
AcDbCircle
 10
23.199999999999932
 20
55.0
 30
0.0
 40
1.5
  0
LINE
  5
690
100
AcDbEntity
  8
0
  6
CONTINUOUS
 62
               7
100
AcDbLine
 10
20.982432993572274
 20
35.163014912358847
 30
0.0
 11
22.804332368342898
 21
34.841765236174467
 31
0.0
  0
LINE
  5
691
100
AcDbEntity
  8
0
  6
CONTINUOUS
 62
               7
100
AcDbLine
 10
20.815052161794142
 20
37.613266856295922
 30
0.0
 11
22.723780688578131
 21
37.276706874090394
 31
0.0
  0
LINE
  5
692
100
AcDbEntity
  8
0
  6
CONTINUOUS
 62
               7
100
AcDbLine
 10
20.757137957129089
 20
34.8326180206613
 30
0.0
 11
22.862246360423569
 21
34.46143049228715
 31
0.0
  0
LINE
  5
693
100
AcDbEntity
  8
0
  6
CONTINUOUS
 62
               7
100
AcDbLine
 10
20.757137961627564
 20
37.993601883729582
 30
0.0
 11
22.908284199142713
 21
37.614296885681313
 31
0.0
  0
LINE
  5
694
100
AcDbEntity
  8
0
  6
CONTINUOUS
 62
               7
100
AcDbLine
 10
22.629901643390895
 20
61.6374393189584
 30
0.0
 11
24.116508518122714
 21
59.062560681041646
 31
0.0
  0
LINE
  5
695
100
AcDbEntity
  8
0
  6
CONTINUOUS
 62
               7
100
AcDbLine
 10
22.283491481877036
 20
61.437439318958354
 30
0.0
 11
23.770098356608969
 21
58.8625606810416
 31
0.0
  0
CIRCLE
  5
696
100
AcDbEntity
  8
0
  6
CONTINUOUS
 62
               7
100
AcDbCircle
 10
23.199999999999932
 20
60.25
 30
0.0
 40
1.5
  0
LINE
  5
697
100
AcDbEntity
  8
0
  6
CONTINUOUS
 62
               7
100
AcDbLine
 10
20.619384354593194
 20
31.501252610148185
 30
0.0
 11
20.619384354593194
 21
29.501252610148185
 31
0.0
  0
LINE
  5
698
100
AcDbEntity
  8
0
  6
CONTINUOUS
 62
               7
100
AcDbLine
 10
19.619384354593194
 20
31.501252610148185
 30
0.0
 11
19.619384354593194
 21
29.501252610148185
 31
0.0
  0
LINE
  5
699
100
AcDbEntity
  8
0
  6
CONTINUOUS
 62
               7
100
AcDbLine
 10
19.619384354593194
 20
29.501252610148185
 30
0.0
 11
20.619384354593194
 21
29.501252610148185
 31
0.0
  0
LINE
  5
69A
100
AcDbEntity
  8
0
  6
CONTINUOUS
 62
               7
100
AcDbLine
 10
19.619384354593194
 20
30.501252610148185
 30
0.0
 11
20.619384354593194
 21
30.501252610148185
 31
0.0
  0
LINE
  5
69B
100
AcDbEntity
  8
0
  6
CONTINUOUS
 62
               7
100
AcDbLine
 10
19.619384354593194
 20
31.501252610148185
 30
0.0
 11
20.619384354593194
 21
31.501252610148185
 31
0.0
  0
CIRCLE
  5
69C
100
AcDbEntity
  8
0
  6
CONTINUOUS
 62
               7
100
AcDbCircle
 10
20.119384354593194
 20
30.001252610148185
 30
0.0
 40
0.5
  0
LINE
  5
69D
100
AcDbEntity
  8
0
  6
CONTINUOUS
 62
               7
100
AcDbLine
 10
18.699999999999932
 20
24.5
 30
0.0
 11
27.699999999999932
 21
24.5
 31
0.0
  0
LINE
  5
69E
100
AcDbEntity
  8
0
  6
CONTINUOUS
 62
               7
100
AcDbLine
 10
18.699999999999932
 20
27.5
 30
0.0
 11
27.699999999999932
 21
27.5
 31
0.0
  0
LINE
  5
69F
100
AcDbEntity
  8
0
  6
CONTINUOUS
 62
               7
100
AcDbLine
 10
18.699999999999932
 20
44.5
 30
0.0
 11
27.699999999999932
 21
44.5
 31
0.0
  0
LINE
  5
6A0
100
AcDbEntity
  8
0
  6
CONTINUOUS
 62
               7
100
AcDbLine
 10
18.199999999999932
 20
22.0
 30
0.0
 11
28.199999999999932
 21
22.0
 31
0.0
  0
LINE
  5
6A1
100
AcDbEntity
  8
0
  6
CONTINUOUS
 62
               7
100
AcDbLine
 10
18.699999999999932
 20
65.5
 30
0.0
 11
27.699999999999932
 21
65.5
 31
0.0
  0
LINE
  5
6A2
100
AcDbEntity
  8
0
  6
CONTINUOUS
 62
               7
100
AcDbLine
 10
28.199999999999932
 20
67.5
 30
0.0
 11
18.199999999999989
 21
67.5
 31
0.0
  0
LINE
  5
6A3
100
AcDbEntity
  8
0
  6
CONTINUOUS
 62
               7
100
AcDbLine
 10
23.199999999999989
 20
68.0
 30
0.0
 11
18.199999999999989
 21
68.0
 31
0.0
  0
LINE
  5
6A4
100
AcDbEntity
  8
0
  6
CONTINUOUS
 62
               7
100
AcDbLine
 10
23.199999999999989
 20
68.0
 30
0.0
 11
23.199999999999989
 21
67.5
 31
0.0
  0
LINE
  5
6A5
100
AcDbEntity
  8
0
  6
CONTINUOUS
 62
               7
100
AcDbLine
 10
21.38160741650006
 20
100.72479420900346
 30
0.0
 11
22.318471296044777
 21
118.60122195239161
 31
0.0
  0
LINE
  5
6A6
100
AcDbEntity
  8
0
  6
CONTINUOUS
 62
               7
100
AcDbLine
 10
19.381607423950641
 20
98.724794209003463
 30
0.0
 11
18.339927985839836
 21
118.60122195239161
 31
0.0
  0
LINE
  5
6A7
100
AcDbEntity
  8
0
  6
CONTINUOUS
 62
               7
100
AcDbLine
 10
19.381607421125466
 20
118.60122195239161
 30
0.0
 11
18.339927985839836
 21
118.60122195239161
 31
0.0
  0
LINE
  5
6A8
100
AcDbEntity
  8
0
  6
CONTINUOUS
 62
               7
100
AcDbLine
 10
21.381607421125466
 20
118.60122195239161
 30
0.0
 11
19.381607421125466
 21
118.60122195239161
 31
0.0
  0
LINE
  5
6A9
100
AcDbEntity
  8
0
  6
CONTINUOUS
 62
               7
100
AcDbLine
 10
21.951616841063526
 20
111.60122195239161
 30
0.0
 11
18.706782440821144
 21
111.60122195239161
 31
0.0
  0
LINE
  5
6AA
100
AcDbEntity
  8
0
  6
CONTINUOUS
 62
               7
100
AcDbLine
 10
22.318471296044777
 20
118.60122195239161
 30
0.0
 11
21.381607421125466
 21
118.60122195239161
 31
0.0
  0
LINE
  5
6AB
100
AcDbEntity
  8
0
  6
CONTINUOUS
 62
               7
100
AcDbLine
 10
19.381607421125466
 20
98.724794268608107
 30
0.0
 11
19.381607421125466
 21
118.60122195239161
 31
0.0
  0
LINE
  5
6AC
100
AcDbEntity
  8
0
  6
CONTINUOUS
 62
               7
100
AcDbLine
 10
20.381607421125466
 20
99.724794268608107
 30
0.0
 11
20.381607421125466
 21
118.60122195239161
 31
0.0
  0
LINE
  5
6AD
100
AcDbEntity
  8
0
  6
CONTINUOUS
 62
               7
100
AcDbLine
 10
21.381607421125466
 20
100.72479426860811
 30
0.0
 11
21.381607421125466
 21
118.60122195239161
 31
0.0
  0
LINE
  5
6AE
100
AcDbEntity
  8
0
  6
CONTINUOUS
 62
               7
100
AcDbLine
 10
25.890615118150322
 20
118.3261369764805
 30
0.0
 11
24.936426234845726
 21
118.67343333363534
 31
0.0
  0
LINE
  5
6AF
100
AcDbEntity
  8
0
  6
CONTINUOUS
 62
               7
100
AcDbLine
 10
19.099999976758568
 20
98.443186819553389
 30
0.0
 11
21.855083478097526
 21
101.19827032089235
 31
0.0
  0
LINE
  5
6B0
100
AcDbEntity
  8
0
  6
CONTINUOUS
 62
               7
100
AcDbLine
 10
21.85508349108261
 20
101.19827029960193
 30
0.0
 11
24.93642622668483
 21
118.67343333603385
 31
0.0
  0
LINE
  5
6B1
100
AcDbEntity
  8
0
  6
CONTINUOUS
 62
               7
100
AcDbLine
 10
22.842742739673895
 20
101.04079375697157
 30
0.0
 11
25.890615118767641
 21
118.32613696904083
 31
0.0
  0
LINE
  5
6B2
100
AcDbEntity
  8
0
  6
CONTINUOUS
 62
               7
100
AcDbLine
 10
22.113017832343189
 20
92.699999868869781
 30
0.0
 11
22.842742739673895
 21
101.04079375697157
 31
0.0
  0
LINE
  5
6B3
100
AcDbEntity
  8
0
  6
CONTINUOUS
 62
               7
100
AcDbLine
 10
19.100000000000023
 20
98.434000568913476
 30
0.0
 11
19.100000000000023
 21
92.699999981554186
 31
0.0
  0
LINE
  5
6B4
100
AcDbEntity
  8
0
  6
CONTINUOUS
 62
               7
100
AcDbLine
 10
22.600000000000023
 20
82.121481667314626
 30
0.0
 11
22.600000000000023
 21
92.699999981554186
 31
0.0
  0
LINE
  5
6B5
100
AcDbEntity
  8
0
  6
CONTINUOUS
 62
               7
100
AcDbLine
 10
18.799999999999955
 20
81.451439140622455
 30
0.0
 11
18.799999999999955
 21
92.699999981554186
 31
0.0
  0
LINE
  5
6B6
100
AcDbEntity
  8
0
  6
CONTINUOUS
 62
               7
100
AcDbLine
 10
22.599999976758568
 20
92.699999981554186
 30
0.0
 11
18.799999999999955
 21
92.699999981554186
 31
0.0
  0
LINE
  5
6B7
100
AcDbEntity
  8
0
  6
CONTINUOUS
 62
               7
100
AcDbLine
 10
22.600000000000023
 20
68.0
 30
0.0
 11
22.600000000000023
 21
80.121481667314626
 31
0.0
  0
LINE
  5
6B8
100
AcDbEntity
  8
0
  6
CONTINUOUS
 62
               7
100
AcDbLine
 10
18.799999999999955
 20
68.0
 30
0.0
 11
18.799999999999955
 21
79.451439140622455
 31
0.0
  0
LINE
  5
6B9
100
AcDbEntity
  8
0
  6
CONTINUOUS
 62
               2
100
AcDbLine
 10
16.799999999999955
 20
81.098785179205521
 30
0.0
 11
24.799999999999955
 21
82.509401024873242
 31
0.0
  0
LINE
  5
6BA
100
AcDbEntity
  8
0
  6
CONTINUOUS
 62
               2
100
AcDbLine
 10
16.799999999999955
 20
79.098785179205521
 30
0.0
 11
24.799999999999955
 21
80.509401024873242
 31
0.0
  0
LINE
  5
6BB
100
AcDbEntity
  8
0
  6
CONTINUOUS
 62
               7
100
AcDbLine
 10
28.199999999999932
 20
1.0
 30
0.0
 11
28.199999999999932
 21
67.5
 31
0.0
  0
LINE
  5
6BC
100
AcDbEntity
  8
0
  6
CONTINUOUS
 62
               7
100
AcDbLine
 10
18.699999999999932
 20
65.5
 30
0.0
 11
18.699999999999932
 21
24.5
 31
0.0
  0
LINE
  5
6BD
100
AcDbEntity
  8
0
  6
CONTINUOUS
 62
               7
100
AcDbLine
 10
27.699999999999932
 20
65.5
 30
0.0
 11
27.699999999999932
 21
24.5
 31
0.0
  0
LINE
  5
6BE
100
AcDbEntity
  8
0
  6
CONTINUOUS
 62
               7
100
AcDbLine
 10
17.900000000000034
 20
13.199999999999903
 30
0.0
 11
15.699999999999989
 21
13.199999999999903
 31
0.0
  0
LINE
  5
6BF
100
AcDbEntity
  8
0
  6
CONTINUOUS
 62
               7
100
AcDbLine
 10
8.5000000000000568
 20
13.699999999999903
 30
0.0
 11
9.5000000000000568
 21
13.699999999999903
 31
0.0
  0
LINE
  5
6C0
100
AcDbEntity
  8
0
  6
CONTINUOUS
 62
               7
100
AcDbLine
 10
16.689999999999998
 20
15.199999999999903
 30
0.0
 11
14.79000000000002
 21
15.199999999999903
 31
0.0
  0
ARC
  5
6C1
100
AcDbEntity
  8
0
  6
CONTINUOUS
 62
               7
100
AcDbCircle
 10
16.6156558920257
 20
17.099335747193976
 30
0.0
 40
0.2006645478515588
100
AcDbArc
 50
356.76157835491733
 51
89.901746748495952
  0
LINE
  5
6C2
100
AcDbEntity
  8
0
  6
CONTINUOUS
 62
               7
100
AcDbLine
 10
16.900000000000034
 20
14.699999999999903
 30
0.0
 11
9.5000000000000568
 21
14.699999999999903
 31
0.0
  0
LINE
  5
6C3
100
AcDbEntity
  8
0
  6
CONTINUOUS
 62
               7
100
AcDbLine
 10
10.699999999999989
 20
13.199999999999903
 30
0.0
 11
8.5000000000000568
 21
13.199999999999903
 31
0.0
  0
LINE
  5
6C4
100
AcDbEntity
  8
0
  6
CONTINUOUS
 62
               7
100
AcDbLine
 10
10.699999999999989
 20
14.199999999999903
 30
0.0
 11
10.300000000000011
 21
14.199999999999903
 31
0.0
  0
CIRCLE
  5
6C5
100
AcDbEntity
  8
0
  6
CONTINUOUS
 62
               7
100
AcDbCircle
 10
10.660000000000025
 20
16.199999999999903
 30
0.0
 40
0.75
  0
CIRCLE
  5
6C6
100
AcDbEntity
  8
0
  6
CONTINUOUS
 62
               7
100
AcDbCircle
 10
15.739999999999952
 20
16.199999999999903
 30
0.0
 40
0.75
  0
LINE
  5
6C7
100
AcDbEntity
  8
0
  6
CONTINUOUS
 62
               7
100
AcDbLine
 10
15.699999999999989
 20
13.399999999999949
 30
0.0
 11
10.699999999999989
 21
13.399999999999949
 31
0.0
  0
LINE
  5
6C8
100
AcDbEntity
  8
0
  6
CONTINUOUS
 62
               7
100
AcDbLine
 10
15.700000000576608
 20
12.199999999999903
 30
0.0
 11
10.700000000576608
 21
12.199999999999903
 31
0.0
  0
LINE
  5
6C9
100
AcDbEntity
  8
0
  6
CONTINUOUS
 62
               7
100
AcDbLine
 10
16.29000000000002
 20
17.299999999999926
 30
0.0
 11
16.29000000000002
 21
17.799999999999926
 31
0.0
  0
LINE
  5
6CA
100
AcDbEntity
  8
0
  6
CONTINUOUS
 62
               7
100
AcDbLine
 10
15.189999999999998
 20
17.299999999999926
 30
0.0
 11
15.189999999999998
 21
17.799999999999926
 31
0.0
  0
ARC
  5
6CB
100
AcDbEntity
  8
0
  6
CONTINUOUS
 62
               7
100
AcDbCircle
 10
14.865285147361135
 20
17.100334766640373
 30
0.0
 40
0.1996665130331531
100
AcDbArc
 50
89.794867321213019
 51
183.54180757537347
  0
LINE
  5
6CC
100
AcDbEntity
  8
0
  6
CONTINUOUS
 62
               7
100
AcDbLine
 10
16.616000000000042
 20
17.299999999999926
 30
0.0
 11
14.866000000000042
 21
17.299999999999926
 31
0.0
  0
LINE
  5
6CD
100
AcDbEntity
  8
0
  6
CONTINUOUS
 62
               7
100
AcDbLine
 10
16.29000000000002
 20
17.799999999999926
 30
0.0
 11
15.189999999999998
 21
17.799999999999926
 31
0.0
  0
LINE
  5
6CE
100
AcDbEntity
  8
0
  6
CONTINUOUS
 62
               7
100
AcDbLine
 10
11.949999999999989
 20
13.699999999999903
 30
0.0
 11
11.949999999999989
 21
14.699999999999903
 31
0.0
  0
LINE
  5
6CF
100
AcDbEntity
  8
0
  6
CONTINUOUS
 62
               7
100
AcDbLine
 10
14.449999999999989
 20
13.699999999999903
 30
0.0
 11
14.449999999999989
 21
14.699999999999903
 31
0.0
  0
LINE
  5
6D0
100
AcDbEntity
  8
0
  6
CONTINUOUS
 62
               7
100
AcDbLine
 10
9.5000000000000568
 20
14.699999999999903
 30
0.0
 11
9.5000000000000568
 21
13.699999999999903
 31
0.0
  0
LINE
  5
6D1
100
AcDbEntity
  8
0
  6
CONTINUOUS
 62
               7
100
AcDbLine
 10
14.79000000000002
 20
15.199999999999903
 30
0.0
 11
14.665999999999997
 21
17.087999999999937
 31
0.0
  0
LINE
  5
6D2
100
AcDbEntity
  8
0
  6
CONTINUOUS
 62
               7
100
AcDbLine
 10
14.150000000000034
 20
15.199999999999903
 30
0.0
 11
12.250000000000057
 21
15.199999999999903
 31
0.0
  0
LINE
  5
6D3
100
AcDbEntity
  8
0
  6
CONTINUOUS
 62
               7
100
AcDbLine
 10
14.27600000000001
 20
17.087999999999937
 30
0.0
 11
14.150000000000034
 21
15.199999999999903
 31
0.0
  0
ARC
  5
6D4
100
AcDbEntity
  8
0
  6
CONTINUOUS
 62
               7
100
AcDbCircle
 10
14.075655892025736
 20
17.099335747193976
 30
0.0
 40
0.2006645478515588
100
AcDbArc
 50
356.76157835491733
 51
89.901746748495952
  0
LINE
  5
6D5
100
AcDbEntity
  8
0
  6
CONTINUOUS
 62
               7
100
AcDbLine
 10
14.075999999999965
 20
17.299999999999926
 30
0.0
 11
12.325999999999965
 21
17.299999999999926
 31
0.0
  0
LINE
  5
6D6
100
AcDbEntity
  8
0
  6
CONTINUOUS
 62
               7
100
AcDbLine
 10
13.750000000000057
 20
17.299999999999926
 30
0.0
 11
13.750000000000057
 21
17.799999999999926
 31
0.0
  0
LINE
  5
6D7
100
AcDbEntity
  8
0
  6
CONTINUOUS
 62
               7
100
AcDbLine
 10
13.750000000000057
 20
17.799999999999926
 30
0.0
 11
12.650000000000034
 21
17.799999999999926
 31
0.0
  0
LINE
  5
6D8
100
AcDbEntity
  8
0
  6
CONTINUOUS
 62
               7
100
AcDbLine
 10
12.650000000000034
 20
17.299999999999926
 30
0.0
 11
12.650000000000034
 21
17.799999999999926
 31
0.0
  0
ARC
  5
6D9
100
AcDbEntity
  8
0
  6
CONTINUOUS
 62
               7
100
AcDbCircle
 10
12.325285147361171
 20
17.100334766640373
 30
0.0
 40
0.1996665130331531
100
AcDbArc
 50
89.794867321213019
 51
183.54180757537347
  0
LINE
  5
6DA
100
AcDbEntity
  8
0
  6
CONTINUOUS
 62
               7
100
AcDbLine
 10
12.250000000000057
 20
15.199999999999903
 30
0.0
 11
12.126000000000033
 21
17.087999999999937
 31
0.0
  0
LINE
  5
6DB
100
AcDbEntity
  8
0
  6
CONTINUOUS
 62
               7
100
AcDbLine
 10
13.599999999999966
 20
15.799999999999926
 30
0.0
 11
13.599999999999966
 21
16.599999999999881
 31
0.0
  0
LINE
  5
6DC
100
AcDbEntity
  8
0
  6
CONTINUOUS
 62
               7
100
AcDbLine
 10
12.800000000000011
 20
15.799999999999926
 30
0.0
 11
13.599999999999966
 21
15.799999999999926
 31
0.0
  0
LINE
  5
6DD
100
AcDbEntity
  8
0
  6
CONTINUOUS
 62
               7
100
AcDbLine
 10
12.800000000000011
 20
15.799999999999926
 30
0.0
 11
12.800000000000011
 21
16.599999999999881
 31
0.0
  0
LINE
  5
6DE
100
AcDbEntity
  8
0
  6
CONTINUOUS
 62
               7
100
AcDbLine
 10
12.800000000000011
 20
16.599999999999881
 30
0.0
 11
13.599999999999966
 21
16.599999999999881
 31
0.0
  0
LINE
  5
6DF
100
AcDbEntity
  8
0
  6
CONTINUOUS
 62
               7
100
AcDbLine
 10
11.609999999999957
 20
15.199999999999903
 30
0.0
 11
9.7099999999999795
 21
15.199999999999903
 31
0.0
  0
LINE
  5
6E0
100
AcDbEntity
  8
0
  6
CONTINUOUS
 62
               7
100
AcDbLine
 10
11.736000000000047
 20
17.087999999999937
 30
0.0
 11
11.609999999999957
 21
15.199999999999903
 31
0.0
  0
ARC
  5
6E1
100
AcDbEntity
  8
0
  6
CONTINUOUS
 62
               7
100
AcDbCircle
 10
11.535655892025659
 20
17.099335747193976
 30
0.0
 40
0.2006645478515588
100
AcDbArc
 50
356.76157835491733
 51
89.901746748495952
  0
LINE
  5
6E2
100
AcDbEntity
  8
0
  6
CONTINUOUS
 62
               7
100
AcDbLine
 10
11.536000000000001
 20
17.299999999999926
 30
0.0
 11
9.7860000000000014
 21
17.299999999999926
 31
0.0
  0
LINE
  5
6E3
100
AcDbEntity
  8
0
  6
CONTINUOUS
 62
               7
100
AcDbLine
 10
11.20999999999998
 20
17.299999999999926
 30
0.0
 11
11.20999999999998
 21
17.799999999999926
 31
0.0
  0
LINE
  5
6E4
100
AcDbEntity
  8
0
  6
CONTINUOUS
 62
               7
100
AcDbLine
 10
11.20999999999998
 20
17.799999999999926
 30
0.0
 11
10.109999999999957
 21
17.799999999999926
 31
0.0
  0
LINE
  5
6E5
100
AcDbEntity
  8
0
  6
CONTINUOUS
 62
               7
100
AcDbLine
 10
10.109999999999957
 20
17.299999999999926
 30
0.0
 11
10.109999999999957
 21
17.799999999999926
 31
0.0
  0
ARC
  5
6E6
100
AcDbEntity
  8
0
  6
CONTINUOUS
 62
               7
100
AcDbCircle
 10
9.785285147361094
 20
17.100334766640373
 30
0.0
 40
0.1996665130331531
100
AcDbArc
 50
89.794867321213019
 51
183.54180757537347
  0
LINE
  5
6E7
100
AcDbEntity
  8
0
  6
CONTINUOUS
 62
               7
100
AcDbLine
 10
9.7099999999999795
 20
15.199999999999903
 30
0.0
 11
9.5859999999999559
 21
17.087999999999937
 31
0.0
  0
LINE
  5
6E8
100
AcDbEntity
  8
0
  6
CONTINUOUS
 62
               7
100
AcDbLine
 10
15.699999999999989
 20
12.199999999999903
 30
0.0
 11
15.699999999999989
 21
14.699999999999903
 31
0.0
  0
LINE
  5
6E9
100
AcDbEntity
  8
0
  6
CONTINUOUS
 62
               7
100
AcDbLine
 10
10.699999999999989
 20
12.199999999999903
 30
0.0
 11
10.699999999999989
 21
14.699999999999903
 31
0.0
  0
LINE
  5
6EA
100
AcDbEntity
  8
0
  6
CONTINUOUS
 62
               7
100
AcDbLine
 10
16.10000000000008
 20
13.699999999999903
 30
0.0
 11
10.300000000000011
 21
13.699999999999903
 31
0.0
  0
LINE
  5
6EB
100
AcDbEntity
  8
0
  6
CONTINUOUS
 62
               7
100
AcDbLine
 10
10.300000000000011
 20
14.199999999999903
 30
0.0
 11
10.300000000000011
 21
13.199999999999903
 31
0.0
  0
LINE
  5
6EC
100
AcDbEntity
  8
0
  6
CONTINUOUS
 62
               7
100
AcDbLine
 10
16.10000000000008
 20
14.199999999999903
 30
0.0
 11
16.10000000000008
 21
13.199999999999903
 31
0.0
  0
LINE
  5
6ED
100
AcDbEntity
  8
0
  6
CONTINUOUS
 62
               7
100
AcDbLine
 10
16.10000000000008
 20
14.199999999999903
 30
0.0
 11
15.699999999999989
 21
14.199999999999903
 31
0.0
  0
LINE
  5
6EE
100
AcDbEntity
  8
0
  6
CONTINUOUS
 62
               7
100
AcDbLine
 10
17.900000000000034
 20
13.699999999999903
 30
0.0
 11
16.900000000000034
 21
13.699999999999903
 31
0.0
  0
LINE
  5
6EF
100
AcDbEntity
  8
0
  6
CONTINUOUS
 62
               7
100
AcDbLine
 10
16.900000000000034
 20
14.699999999999903
 30
0.0
 11
16.900000000000034
 21
13.699999999999903
 31
0.0
  0
LINE
  5
6F0
100
AcDbEntity
  8
0
  6
CONTINUOUS
 62
               7
100
AcDbLine
 10
16.815999999999974
 20
17.087999999999937
 30
0.0
 11
16.689999999999998
 21
15.199999999999903
 31
0.0
  0
LINE
  5
6F1
100
AcDbEntity
  8
0
  6
CONTINUOUS
 62
               7
100
AcDbLine
 10
17.900000000000034
 20
18.999999999999915
 30
0.0
 11
17.900000000000034
 21
13.699999999999903
 31
0.0
  0
LINE
  5
6F2
100
AcDbEntity
  8
0
  6
CONTINUOUS
 62
               7
100
AcDbLine
 10
17.900000000000034
 20
18.999999999999915
 30
0.0
 11
8.4999999999999432
 21
18.999999999999915
 31
0.0
  0
LINE
  5
6F3
100
AcDbEntity
  8
0
  6
CONTINUOUS
 62
               7
100
AcDbLine
 10
8.4999999999999432
 20
18.999999999999915
 30
0.0
 11
8.4999999999999432
 21
13.699999999999903
 31
0.0
  0
LINE
  5
6F4
100
AcDbEntity
  8
0
  6
CONTINUOUS
 62
               7
100
AcDbLine
 10
17.900000000000034
 20
18.599999999999909
 30
0.0
 11
18.199999999999989
 21
18.599999999999909
 31
0.0
  0
LINE
  5
6F5
100
AcDbEntity
  8
0
  6
CONTINUOUS
 62
               7
100
AcDbLine
 10
18.199999996676183
 20
18.499999999999886
 30
0.0
 11
17.900000000000034
 21
18.500000001249902
 31
0.0
  0
ARC
  5
6F6
100
AcDbEntity
  8
0
  6
CONTINUOUS
 62
               7
100
AcDbCircle
 10
8.5000000000000568
 20
13.499999999999915
 30
0.0
 40
0.3
100
AcDbArc
 50
180.0
 51
270.0
  0
ARC
  5
6F7
100
AcDbEntity
  8
0
  6
CONTINUOUS
 62
               7
100
AcDbCircle
 10
17.900000000000034
 20
13.499999999999915
 30
0.0
 40
0.3
100
AcDbArc
 50
270.0
 51
0.0
  0
LINE
  5
6F8
100
AcDbEntity
  8
0
  6
CONTINUOUS
 62
               7
100
AcDbLine
 10
8.4999999999999432
 20
18.500000040416637
 30
0.0
 11
8.1999999999999886
 21
18.500000041666624
 31
0.0
  0
LINE
  5
6F9
100
AcDbEntity
  8
0
  6
CONTINUOUS
 62
               7
100
AcDbLine
 10
8.1999999999999886
 20
18.599999999999909
 30
0.0
 11
8.4999999999999432
 21
18.599999999999909
 31
0.0
  0
LINE
  5
6FA
100
AcDbEntity
  8
0
  6
CONTINUOUS
 62
               4
100
AcDbLine
 10
2.0500000000000114
 20
8.25
 30
0.0
 11
1.8000000000000114
 21
8.0
 31
0.0
  0
LINE
  5
6FB
100
AcDbEntity
  8
0
  6
CONTINUOUS
 62
               4
100
AcDbLine
 10
2.0500000000000114
 20
3.75
 30
0.0
 11
1.8000000000000114
 21
4.0
 31
0.0
  0
LINE
  5
6FC
100
AcDbEntity
  8
0
  6
CONTINUOUS
 62
               4
100
AcDbLine
 10
2.0500000000000114
 20
8.25
 30
0.0
 11
2.0500000000000114
 21
3.75
 31
0.0
  0
LINE
  5
6FD
100
AcDbEntity
  8
0
  6
CONTINUOUS
 62
               4
100
AcDbLine
 10
1.8000000000000114
 20
8.0
 30
0.0
 11
1.8000000000000114
 21
4.0
 31
0.0
  0
LINE
  5
6FE
100
AcDbEntity
  8
0
  6
CONTINUOUS
 62
               4
100
AcDbLine
 10
2.0500000000000114
 20
8.25
 30
0.0
 11
4.4000000000000057
 21
8.25
 31
0.0
  0
LINE
  5
6FF
100
AcDbEntity
  8
0
  6
CONTINUOUS
 62
               4
100
AcDbLine
 10
2.0500000000000114
 20
3.75
 30
0.0
 11
4.4000000000000057
 21
3.75
 31
0.0
  0
LINE
  5
700
100
AcDbEntity
  8
0
  6
CONTINUOUS
 62
               4
100
AcDbLine
 10
2.0500000000000114
 20
16.75
 30
0.0
 11
4.4000000000000057
 21
16.75
 31
0.0
  0
LINE
  5
701
100
AcDbEntity
  8
0
  6
CONTINUOUS
 62
               4
100
AcDbLine
 10
2.0500000000000114
 20
21.25
 30
0.0
 11
4.4000000000000057
 21
21.25
 31
0.0
  0
LINE
  5
702
100
AcDbEntity
  8
0
  6
CONTINUOUS
 62
               4
100
AcDbLine
 10
1.8000000000000114
 20
21.0
 30
0.0
 11
1.8000000000000114
 21
17.0
 31
0.0
  0
LINE
  5
703
100
AcDbEntity
  8
0
  6
CONTINUOUS
 62
               4
100
AcDbLine
 10
2.0500000000000114
 20
21.25
 30
0.0
 11
2.0500000000000114
 21
16.75
 31
0.0
  0
LINE
  5
704
100
AcDbEntity
  8
0
  6
CONTINUOUS
 62
               4
100
AcDbLine
 10
2.0500000000000114
 20
16.75
 30
0.0
 11
1.8000000000000114
 21
17.0
 31
0.0
  0
LINE
  5
705
100
AcDbEntity
  8
0
  6
CONTINUOUS
 62
               4
100
AcDbLine
 10
2.0500000000000114
 20
21.25
 30
0.0
 11
1.8000000000000114
 21
21.0
 31
0.0
  0
LINE
  5
706
100
AcDbEntity
  8
0
  6
CONTINUOUS
 62
               4
100
AcDbLine
 10
-4.0
 20
1.0999999999999943
 30
0.0
 11
-4.0
 21
0.5
 31
0.0
  0
LINE
  5
707
100
AcDbEntity
  8
0
  6
CONTINUOUS
 62
               4
100
AcDbLine
 10
4.4000000000000057
 20
22.5
 30
0.0
 11
4.4000000000000057
 21
2.0
 31
0.0
  0
LINE
  5
708
100
AcDbEntity
  8
0
  6
CONTINUOUS
 62
               4
100
AcDbLine
 10
-3.5
 20
0.0
 30
0.0
 11
5.5
 21
0.0
 31
0.0
  0
LINE
  5
709
100
AcDbEntity
  8
0
  6
CONTINUOUS
 62
               4
100
AcDbLine
 10
-3.5
 20
1.5999999999999943
 30
0.0
 11
4.0
 21
1.5999999999999943
 31
0.0
  0
LINE
  5
70A
100
AcDbEntity
  8
0
  6
CONTINUOUS
 62
               4
100
AcDbLine
 10
5.5
 20
23.0
 30
0.0
 11
4.9000000000000057
 21
23.0
 31
0.0
  0
ARC
  5
70B
100
AcDbEntity
  8
0
  6
CONTINUOUS
 62
               4
100
AcDbCircle
 10
5.5
 20
22.5
 30
0.0
 40
0.5
100
AcDbArc
 50
0.0
 51
90.0
  0
ARC
  5
70C
100
AcDbEntity
  8
0
  6
CONTINUOUS
 62
               4
100
AcDbCircle
 10
4.9000000000000057
 20
22.5
 30
0.0
 40
0.5
100
AcDbArc
 50
90.0
 51
180.0
  0
ARC
  5
70D
100
AcDbEntity
  8
0
  6
CONTINUOUS
 62
               4
100
AcDbCircle
 10
-3.5
 20
1.0999999999999943
 30
0.0
 40
0.5
100
AcDbArc
 50
90.0
 51
180.0
  0
ARC
  5
70E
100
AcDbEntity
  8
0
  6
CONTINUOUS
 62
               4
100
AcDbCircle
 10
-3.5
 20
0.5
 30
0.0
 40
0.5
100
AcDbArc
 50
180.0
 51
270.0
  0
ARC
  5
70F
100
AcDbEntity
  8
0
  6
CONTINUOUS
 62
               4
100
AcDbCircle
 10
4.0
 20
2.0
 30
0.0
 40
0.4
100
AcDbArc
 50
270.0
 51
0.0
  0
ARC
  5
710
100
AcDbEntity
  8
0
  6
CONTINUOUS
 62
               4
100
AcDbCircle
 10
5.5
 20
0.5
 30
0.0
 40
0.5
100
AcDbArc
 50
270.0
 51
0.0
  0
LINE
  5
711
100
AcDbEntity
  8
0
  6
CONTINUOUS
 62
             200
100
AcDbLine
 10
7.7000000000000171
 20
6.0
 30
0.0
 11
0.4512971541956006
 21
6.0
 31
0.0
  0
LINE
  5
712
100
AcDbEntity
  8
0
  6
CONTINUOUS
 62
             200
100
AcDbLine
 10
7.7000000000000171
 20
19.0
 30
0.0
 11
0.4512971541956006
 21
19.0
 31
0.0
  0
LINE
  5
713
100
AcDbEntity
  8
0
  6
CONTINUOUS
 62
             200
100
AcDbLine
 10
0.0
 20
-1.6999999999999886
 30
0.0
 11
0.0
 21
3.3000000000000114
 31
0.0
  0
LINE
  5
714
100
AcDbEntity
  8
0
  6
CONTINUOUS
 62
               4
100
AcDbLine
 10
6.0
 20
0.5
 30
0.0
 11
6.0
 21
1.0
 31
0.0
  0
LINE
  5
715
100
AcDbEntity
  8
0
  6
CONTINUOUS
 62
               7
100
AcDbLine
 10
9.1972803112549002
 20
58.893249674612349
 30
0.0
 11
9.1972803112549002
 21
58.800000000000011
 31
0.0
  0
ARC
  5
716
100
AcDbEntity
  8
0
  6
CONTINUOUS
 62
               7
100
AcDbCircle
 10
7.599999966987923
 20
56.757827146452314
 30
0.0
 40
2.7421728535476921
100
AcDbArc
 50
56.851904811146724
 51
123.14809518885328
  0
ARC
  5
717
100
AcDbEntity
  8
0
  6
CONTINUOUS
 62
               7
100
AcDbCircle
 10
7.6000000330120088
 20
3.7421728535498602
 30
0.0
 40
2.7421728535500236
100
AcDbArc
 50
236.85190481115438
 51
282.63882966643098
  0
LINE
  5
718
100
AcDbEntity
  8
0
  6
CONTINUOUS
 62
               7
100
AcDbLine
 10
5.9999999999999432
 20
59.5
 30
0.0
 11
18.199999999999932
 21
59.5
 31
0.0
  0
ARC
  5
719
100
AcDbEntity
  8
0
  6
CONTINUOUS
 62
               7
100
AcDbCircle
 10
7.5999999999999659
 20
27.499999972499864
 30
0.0
 40
1.5
100
AcDbArc
 50
66.421821521797213
 51
293.5781784782028
  0
LINE
  5
71A
100
AcDbEntity
  8
0
  6
CONTINUOUS
 62
               7
100
AcDbLine
 10
8.1999999999999886
 20
26.899999972499842
 30
0.0
 11
6.8928932188134127
 21
28.207106753686418
 31
0.0
  0
LINE
  5
71B
100
AcDbEntity
  8
0
  6
CONTINUOUS
 62
               7
100
AcDbLine
 10
8.1999999999999886
 20
28.099999972499887
 30
0.0
 11
6.8928932188134127
 21
26.792893191313311
 31
0.0
  0
ARC
  5
71C
100
AcDbEntity
  8
0
  6
CONTINUOUS
 62
               7
100
AcDbCircle
 10
16.599999999999966
 20
39.000000027499908
 30
0.0
 40
1.5
100
AcDbArc
 50
246.4218215217972
 51
113.57817847820279
  0
LINE
  5
71D
100
AcDbEntity
  8
0
  6
CONTINUOUS
 62
               7
100
AcDbLine
 10
17.307106781186519
 20
38.292893246313355
 30
0.0
 11
15.999999999999943
 21
39.600000027499931
 31
0.0
  0
LINE
  5
71E
100
AcDbEntity
  8
0
  6
CONTINUOUS
 62
               7
100
AcDbLine
 10
17.307106781186519
 20
39.707106808686461
 30
0.0
 11
15.999999999999943
 21
38.400000027499885
 31
0.0
  0
ARC
  5
71F
100
AcDbEntity
  8
0
  6
CONTINUOUS
 62
               7
100
AcDbCircle
 10
7.5999999999999659
 20
27.499999972499864
 30
0.0
 40
1.6999999999999993
100
AcDbArc
 50
69.332683506486546
 51
90.0
  0
ARC
  5
720
100
AcDbEntity
  8
0
  6
CONTINUOUS
 62
               7
100
AcDbCircle
 10
16.599999999999966
 20
39.000000027499908
 30
0.0
 40
1.6999999999999993
100
AcDbArc
 50
249.33268350648655
 51
270.0
  0
LINE
  5
721
100
AcDbEntity
  8
0
  6
CONTINUOUS
 62
               7
100
AcDbLine
 10
8.1999999999999886
 20
32.999999999999915
 30
0.0
 11
18.199999999999989
 21
32.999999999999915
 31
0.0
  0
CIRCLE
  5
722
100
AcDbEntity
  8
0
  6
CONTINUOUS
 62
               7
100
AcDbCircle
 10
9.6999999999999886
 20
24.499999999999915
 30
0.0
 40
1.5
  0
LINE
  5
723
100
AcDbEntity
  8
0
  6
CONTINUOUS
 62
               7
100
AcDbLine
 10
8.9928932188134354
 20
25.207106781186468
 30
0.0
 11
10.407106781186542
 21
23.792893218813361
 31
0.0
  0
LINE
  5
724
100
AcDbEntity
  8
0
  6
CONTINUOUS
 62
               7
100
AcDbLine
 10
8.9928932188134354
 20
23.792893218813361
 30
0.0
 11
10.407106781186542
 21
25.207106781186468
 31
0.0
  0
LINE
  5
725
100
AcDbEntity
  8
0
  6
CONTINUOUS
 62
               7
100
AcDbLine
 10
17.407106781186542
 20
23.792893218813361
 30
0.0
 11
15.992893218813435
 21
25.207106781186468
 31
0.0
  0
LINE
  5
726
100
AcDbEntity
  8
0
  6
CONTINUOUS
 62
               7
100
AcDbLine
 10
17.407106781186542
 20
25.207106781186468
 30
0.0
 11
15.992893218813435
 21
23.792893218813361
 31
0.0
  0
CIRCLE
  5
727
100
AcDbEntity
  8
0
  6
CONTINUOUS
 62
               7
100
AcDbCircle
 10
16.699999999999989
 20
24.499999999999915
 30
0.0
 40
1.5
  0
ARC
  5
728
100
AcDbEntity
  8
0
  6
CONTINUOUS
 62
               7
100
AcDbCircle
 10
13.199999999999989
 20
22.749999999999915
 30
0.0
 40
0.8
100
AcDbArc
 50
22.024312837042206
 51
157.97568716295788
  0
ARC
  5
729
100
AcDbEntity
  8
0
  6
CONTINUOUS
 62
               7
100
AcDbCircle
 10
13.199999999999989
 20
22.749999999999915
 30
0.0
 40
0.8
100
AcDbArc
 50
202.0243128370422
 51
337.97568716295791
  0
CIRCLE
  5
72A
100
AcDbEntity
  8
0
  6
CONTINUOUS
 62
               7
100
AcDbCircle
 10
13.199999999999989
 20
22.749999999999915
 30
0.0
 40
1.8500000000000001
  0
LINE
  5
72B
100
AcDbEntity
  8
0
  6
CONTINUOUS
 62
               7
100
AcDbLine
 10
11.37448637364713
 20
22.449999999999918
 30
0.0
 11
15.025513626352904
 21
22.449999999999918
 31
0.0
  0
LINE
  5
72C
100
AcDbEntity
  8
0
  6
CONTINUOUS
 62
               7
100
AcDbLine
 10
11.37448637364713
 20
23.049999999999912
 30
0.0
 11
15.025513626352904
 21
23.049999999999912
 31
0.0
  0
LINE
  5
72D
100
AcDbEntity
  8
0
  6
CONTINUOUS
 62
               2
100
AcDbLine
 10
14.699999999999989
 20
5.9999999999999147
 30
0.0
 11
11.699999999999989
 21
5.9999999999999147
 31
0.0
  0
LINE
  5
72E
100
AcDbEntity
  8
0
  6
CONTINUOUS
 62
               2
100
AcDbLine
 10
14.699999999999989
 20
5.9999999999999147
 30
0.0
 11
14.699999999999989
 21
0.9999999999999147
 31
0.0
  0
LINE
  5
72F
100
AcDbEntity
  8
0
  6
CONTINUOUS
 62
               2
100
AcDbLine
 10
11.699999999999989
 20
5.9999999999999147
 30
0.0
 11
11.699999999999989
 21
0.9999999999999147
 31
0.0
  0
ARC
  5
730
100
AcDbEntity
  8
0
  6
CONTINUOUS
 62
               7
100
AcDbCircle
 10
17.899999999999977
 20
1.2999999999998977
 30
0.0
 40
0.3
100
AcDbArc
 50
270.0
 51
0.0
  0
CIRCLE
  5
731
100
AcDbEntity
  8
0
  6
CONTINUOUS
 62
               7
100
AcDbCircle
 10
13.199999999999989
 20
22.749999999999915
 30
0.0
 40
1.9000000000000001
  0
LINE
  5
732
100
AcDbEntity
  8
0
  6
CONTINUOUS
 62
               7
100
AcDbLine
 10
8.1999999999999886
 20
0.9999999999999147
 30
0.0
 11
8.1999999999999886
 21
32.999999999999915
 31
0.0
  0
ARC
  5
733
100
AcDbEntity
  8
0
  6
CONTINUOUS
 62
               7
100
AcDbCircle
 10
9.6999999999999886
 20
24.499999999999915
 30
0.0
 40
1.6000000000000001
100
AcDbArc
 50
270.0
 51
90.0
  0
ARC
  5
734
100
AcDbEntity
  8
0
  6
CONTINUOUS
 62
               7
100
AcDbCircle
 10
16.699999999999989
 20
24.499999999999915
 30
0.0
 40
1.6000000000000001
100
AcDbArc
 50
90.0
 51
270.0
  0
LINE
  5
735
100
AcDbEntity
  8
0
  6
CONTINUOUS
 62
               7
100
AcDbLine
 10
18.199999999999989
 20
22.89999999999992
 30
0.0
 11
16.699999999999989
 21
22.89999999999992
 31
0.0
  0
LINE
  5
736
100
AcDbEntity
  8
0
  6
CONTINUOUS
 62
               7
100
AcDbLine
 10
16.699999999999989
 20
26.099999999999909
 30
0.0
 11
18.199999999999989
 21
26.099999999999909
 31
0.0
  0
LINE
  5
737
100
AcDbEntity
  8
0
  6
CONTINUOUS
 62
               7
100
AcDbLine
 10
8.1999999999999886
 20
26.099999999999909
 30
0.0
 11
9.6999999999999886
 21
26.099999999999909
 31
0.0
  0
LINE
  5
738
100
AcDbEntity
  8
0
  6
CONTINUOUS
 62
               7
100
AcDbLine
 10
9.6999999999999886
 20
22.89999999999992
 30
0.0
 11
8.1999999999999886
 21
22.899999999999906
 31
0.0
  0
LINE
  5
739
100
AcDbEntity
  8
0
  6
CONTINUOUS
 62
               7
100
AcDbLine
 10
18.199999999999989
 20
19.098078436969814
 30
0.0
 11
8.1999999999999886
 21
19.098078436969814
 31
0.0
  0
CIRCLE
  5
73A
100
AcDbEntity
  8
0
  6
CONTINUOUS
 62
               7
100
AcDbCircle
 10
13.199999999999989
 20
22.749999999999915
 30
0.0
 40
2.0500000000000003
  0
LINE
  5
73B
100
AcDbEntity
  8
0
  6
CONTINUOUS
 62
               7
100
AcDbLine
 10
15.850000000000023
 20
26.599999999999909
 30
0.0
 11
18.199999999999989
 21
26.599999999999909
 31
0.0
  0
LINE
  5
73C
100
AcDbEntity
  8
0
  6
CONTINUOUS
 62
               7
100
AcDbLine
 10
14.600000000000023
 20
25.349999999999909
 30
0.0
 11
11.799999999999955
 21
25.349999999999909
 31
0.0
  0
LINE
  5
73D
100
AcDbEntity
  8
0
  6
CONTINUOUS
 62
               7
100
AcDbLine
 10
10.549999999999955
 20
26.599999999999909
 30
0.0
 11
11.799999999999955
 21
25.349999999999909
 31
0.0
  0
LINE
  5
73E
100
AcDbEntity
  8
0
  6
CONTINUOUS
 62
               7
100
AcDbLine
 10
8.1999999999999602
 20
26.599999999999923
 30
0.0
 11
10.549999999999955
 21
26.599999999999909
 31
0.0
  0
LINE
  5
73F
100
AcDbEntity
  8
0
  6
CONTINUOUS
 62
               7
100
AcDbLine
 10
14.344370406123858
 20
25.790817451771076
 30
0.0
 11
12.05562959387612
 21
25.790817451771076
 31
0.0
  0
LINE
  5
740
100
AcDbEntity
  8
0
  6
CONTINUOUS
 62
               7
100
AcDbLine
 10
15.594370406123858
 20
27.040817451771076
 30
0.0
 11
18.199999999999989
 21
27.040817451771076
 31
0.0
  0
LINE
  5
741
100
AcDbEntity
  8
0
  6
CONTINUOUS
 62
               7
100
AcDbLine
 10
8.1999999999999886
 20
27.040817451771076
 30
0.0
 11
10.80562959387612
 21
27.040817451771076
 31
0.0
  0
LINE
  5
742
100
AcDbEntity
  8
0
  6
CONTINUOUS
 62
               7
100
AcDbLine
 10
12.05562959387612
 20
25.790817451771076
 30
0.0
 11
10.80562959387612
 21
27.040817451771076
 31
0.0
  0
LINE
  5
743
100
AcDbEntity
  8
0
  6
CONTINUOUS
 62
               7
100
AcDbLine
 10
8.1999999999999886
 20
19.909182548228742
 30
0.0
 11
18.199999999999989
 21
19.909182548228756
 31
0.0
  0
LINE
  5
744
100
AcDbEntity
  8
0
  6
CONTINUOUS
 62
               7
100
AcDbLine
 10
12.05562959387612
 20
25.790817451771076
 30
0.0
 11
11.799999999999955
 21
25.349999999999909
 31
0.0
  0
LINE
  5
745
100
AcDbEntity
  8
0
  6
CONTINUOUS
 62
               7
100
AcDbLine
 10
14.344370406123858
 20
25.790817451771076
 30
0.0
 11
15.594370406123858
 21
27.040817451771076
 31
0.0
  0
LINE
  5
746
100
AcDbEntity
  8
0
  6
CONTINUOUS
 62
               7
100
AcDbLine
 10
15.850000000000023
 20
26.599999999999909
 30
0.0
 11
14.600000000000023
 21
25.349999999999909
 31
0.0
  0
LINE
  5
747
100
AcDbEntity
  8
0
  6
CONTINUOUS
 62
               7
100
AcDbLine
 10
14.344370406123858
 20
25.790817451771076
 30
0.0
 11
14.600000000000023
 21
25.349999999999909
 31
0.0
  0
LINE
  5
748
100
AcDbEntity
  8
0
  6
CONTINUOUS
 62
               7
100
AcDbLine
 10
10.549999999999955
 20
26.599999999999909
 30
0.0
 11
10.80562959387612
 21
27.040817451771076
 31
0.0
  0
LINE
  5
749
100
AcDbEntity
  8
0
  6
CONTINUOUS
 62
               7
100
AcDbLine
 10
15.594370406123858
 20
27.040817451771076
 30
0.0
 11
15.850000000000023
 21
26.599999999999909
 31
0.0
  0
LINE
  5
74A
100
AcDbEntity
  8
0
  6
CONTINUOUS
 62
               7
100
AcDbLine
 10
15.999999999999943
 20
33.499999999999915
 30
0.0
 11
5.9999999999999432
 21
33.499999999999915
 31
0.0
  0
CIRCLE
  5
74B
100
AcDbEntity
  8
0
  6
CONTINUOUS
 62
               7
100
AcDbCircle
 10
14.499999999999943
 20
41.999999999999915
 30
0.0
 40
1.5
  0
LINE
  5
74C
100
AcDbEntity
  8
0
  6
CONTINUOUS
 62
               7
100
AcDbLine
 10
15.207106781186496
 20
41.292893218813361
 30
0.0
 11
13.79289321881339
 21
42.707106781186468
 31
0.0
  0
LINE
  5
74D
100
AcDbEntity
  8
0
  6
CONTINUOUS
 62
               7
100
AcDbLine
 10
15.207106781186496
 20
42.707106781186468
 30
0.0
 11
13.79289321881339
 21
41.292893218813376
 31
0.0
  0
LINE
  5
74E
100
AcDbEntity
  8
0
  6
CONTINUOUS
 62
               7
100
AcDbLine
 10
6.7928932188133899
 20
42.707106781186468
 30
0.0
 11
8.2071067811864964
 21
41.292893218813376
 31
0.0
  0
LINE
  5
74F
100
AcDbEntity
  8
0
  6
CONTINUOUS
 62
               7
100
AcDbLine
 10
6.7928932188133899
 20
41.292893218813376
 30
0.0
 11
8.2071067811864964
 21
42.707106781186468
 31
0.0
  0
CIRCLE
  5
750
100
AcDbEntity
  8
0
  6
CONTINUOUS
 62
               7
100
AcDbCircle
 10
7.4999999999999432
 20
41.999999999999915
 30
0.0
 40
1.5
  0
LINE
  5
751
100
AcDbEntity
  8
0
  6
CONTINUOUS
 62
               7
100
AcDbLine
 10
15.999999999999943
 20
46.999999999999915
 30
0.0
 11
15.999999999999943
 21
33.499999999999915
 31
0.0
  0
ARC
  5
752
100
AcDbEntity
  8
0
  6
CONTINUOUS
 62
               7
100
AcDbCircle
 10
14.499999999999943
 20
41.999999999999915
 30
0.0
 40
1.6000000000000001
100
AcDbArc
 50
90.0
 51
270.0
  0
ARC
  5
753
100
AcDbEntity
  8
0
  6
CONTINUOUS
 62
               7
100
AcDbCircle
 10
7.4999999999999432
 20
41.999999999999915
 30
0.0
 40
1.6000000000000001
100
AcDbArc
 50
270.0
 51
90.0
  0
LINE
  5
754
100
AcDbEntity
  8
0
  6
CONTINUOUS
 62
               7
100
AcDbLine
 10
5.9999999999999432
 20
43.599999999999923
 30
0.0
 11
7.4999999999999432
 21
43.599999999999923
 31
0.0
  0
LINE
  5
755
100
AcDbEntity
  8
0
  6
CONTINUOUS
 62
               7
100
AcDbLine
 10
7.4999999999999432
 20
40.39999999999992
 30
0.0
 11
5.9999999999999432
 21
40.39999999999992
 31
0.0
  0
LINE
  5
756
100
AcDbEntity
  8
0
  6
CONTINUOUS
 62
               7
100
AcDbLine
 10
15.999999999999943
 20
40.39999999999992
 30
0.0
 11
14.499999999999943
 21
40.39999999999992
 31
0.0
  0
LINE
  5
757
100
AcDbEntity
  8
0
  6
CONTINUOUS
 62
               7
100
AcDbLine
 10
14.499999999999943
 20
43.599999999999909
 30
0.0
 11
15.999999999999943
 21
43.599999999999923
 31
0.0
  0
LINE
  5
758
100
AcDbEntity
  8
0
  6
CONTINUOUS
 62
               7
100
AcDbLine
 10
18.199999999999932
 20
68.0
 30
0.0
 11
18.199999999999932
 21
1.0
 31
0.0
  0
LINE
  5
759
100
AcDbEntity
  8
0
  6
CONTINUOUS
 62
               7
100
AcDbLine
 10
5.9999999999999432
 20
1.0
 30
0.0
 11
28.199999999999932
 21
1.0
 31
0.0
  0
LINE
  5
75A
100
AcDbEntity
  8
0
  6
CONTINUOUS
 62
               7
100
AcDbLine
 10
8.1999999999999886
 20
9.4999999999999716
 30
0.0
 11
5.9999999999999716
 21
9.4999999999999716
 31
0.0
  0
LINE
  5
75B
100
AcDbEntity
  8
0
  6
CONTINUOUS
 62
               7
100
AcDbLine
 10
6.0
 20
25.799999972499876
 30
0.0
 11
7.5999999999999659
 21
25.799999972499876
 31
0.0
  0
LINE
  5
75C
100
AcDbEntity
  8
0
  6
CONTINUOUS
 62
               7
100
AcDbLine
 10
7.5999999999999659
 20
29.19999997249991
 30
0.0
 11
6.0
 21
29.19999997249991
 31
0.0
  0
LINE
  5
75D
100
AcDbEntity
  8
0
  6
CONTINUOUS
 62
               7
100
AcDbLine
 10
18.199999999999932
 20
50.999999999999915
 30
0.0
 11
5.9999999999999432
 21
50.999999999999915
 31
0.0
  0
LINE
  5
75E
100
AcDbEntity
  8
0
  6
CONTINUOUS
 62
               7
100
AcDbLine
 10
18.199999999999932
 20
40.700000027499954
 30
0.0
 11
16.599999999999966
 21
40.700000027499954
 31
0.0
  0
LINE
  5
75F
100
AcDbEntity
  8
0
  6
CONTINUOUS
 62
               7
100
AcDbLine
 10
16.599999999999966
 20
37.300000027499919
 30
0.0
 11
18.199999999999932
 21
37.300000027499919
 31
0.0
  0
ARC
  5
760
100
AcDbEntity
  8
0
  6
CONTINUOUS
 62
               7
100
AcDbCircle
 10
7.5999999999999659
 20
27.499999972499864
 30
0.0
 40
1.6999999999999993
100
AcDbArc
 50
270.0
 51
290.66731649351345
  0
ARC
  5
761
100
AcDbEntity
  8
0
  6
CONTINUOUS
 62
               7
100
AcDbCircle
 10
16.599999999999966
 20
39.000000027499908
 30
0.0
 40
1.6999999999999993
100
AcDbArc
 50
90.0
 51
110.66731649351347
  0
LINE
  5
762
100
AcDbEntity
  8
0
  6
CONTINUOUS
 62
               7
100
AcDbLine
 10
5.9999999999999432
 20
59.5
 30
0.0
 11
6.0
 21
1.0
 31
0.0
  0
LINE
  5
763
100
AcDbEntity
  8
0
  6
CONTINUOUS
 62
               7
100
AcDbLine
 10
5.9999999999999432
 20
46.999999999999915
 30
0.0
 11
15.999999999999943
 21
46.999999999999915
 31
0.0
  0
LINE
  5
764
100
AcDbEntity
  8
0
  6
CONTINUOUS
 62
               7
100
AcDbLine
 10
17.349999999999966
 20
59.5
 30
0.0
 11
17.349999999999966
 21
62.219220935761101
 31
0.0
  0
LINE
  5
765
100
AcDbEntity
  8
0
  6
CONTINUOUS
 62
               7
100
AcDbLine
 10
16.849999999999966
 20
62.719220935761115
 30
0.0
 11
11.349999999999966
 21
62.719220935761115
 31
0.0
  0
LINE
  5
766
100
AcDbEntity
  8
0
  6
CONTINUOUS
 62
               7
100
AcDbLine
 10
10.849999999999966
 20
62.219220935761101
 30
0.0
 11
17.349999999999966
 21
62.219220935761101
 31
0.0
  0
LINE
  5
767
100
AcDbEntity
  8
0
  6
CONTINUOUS
 62
               7
100
AcDbLine
 10
17.349999999999966
 20
62.219220935761101
 30
0.0
 11
16.849999999999966
 21
62.719220935761115
 31
0.0
  0
LINE
  5
768
100
AcDbEntity
  8
0
  6
CONTINUOUS
 62
               7
100
AcDbLine
 10
10.849999999999966
 20
59.519220935761112
 30
0.0
 11
10.849999999999966
 21
62.219220935761101
 31
0.0
  0
LINE
  5
769
100
AcDbEntity
  8
0
  6
CONTINUOUS
 62
               7
100
AcDbLine
 10
10.849999999999966
 20
62.219220935761101
 30
0.0
 11
11.349999999999966
 21
62.719220935761115
 31
0.0
  0
ARC
  5
76A
100
AcDbEntity
  8
0
  6
CONTINUOUS
 62
               7
100
AcDbCircle
 10
8.5000000330119576
 20
1.3000000000000682
 30
0.0
 40
0.3
100
AcDbArc
 50
180.0
 51
270.0
  0
ARC
  5
76B
100
AcDbEntity
  8
0
  6
CONTINUOUS
 62
               7
100
AcDbCircle
 10
6.2023797317775688
 20
1.6184065347142109
 30
0.0
 40
0.2
100
AcDbArc
 50
183.34115129169879
 51
239.39828617920105
  0
ARC
  5
76C
100
AcDbEntity
  8
0
  6
CONTINUOUS
 62
               7
100
AcDbCircle
 10
7.6000000330120656
 20
1.7000000000000455
 30
0.0
 40
1.6000000000000001
100
AcDbArc
 50
180.0
 51
183.34115129169891
  0
LINE
  5
76D
100
AcDbEntity
  8
0
  6
CONTINUOUS
 62
               7
100
AcDbLine
 10
7.6000000330120656
 20
1.7000000000000455
 30
0.0
 11
6.0000000330120429
 21
1.7000000000000739
 31
0.0
  0
LINE
  5
76E
100
AcDbEntity
  8
0
  6
CONTINUOUS
 62
               7
100
AcDbLine
 10
8.2000000330119747
 20
1.7000000000000455
 30
0.0
 11
7.6000000330120656
 21
1.7000000000000455
 31
0.0
  0
ARC
  5
76F
100
AcDbEntity
  8
0
  6
CONTINUOUS
 62
               7
100
AcDbCircle
 10
6.2023796657544494
 20
58.881593465285789
 30
0.0
 40
0.2
100
AcDbArc
 50
120.60171382079891
 51
176.65884870829913
  0
ARC
  5
770
100
AcDbEntity
  8
0
  6
CONTINUOUS
 62
               7
100
AcDbCircle
 10
16.600000033011099
 20
58.799999999999983
 30
0.0
 40
1.6000000000000001
100
AcDbArc
 50
0.0
 51
3.3411512916990844
  0
LINE
  5
771
100
AcDbEntity
  8
0
  6
CONTINUOUS
 62
               7
100
AcDbLine
 10
7.599999966987923
 20
58.800000000000011
 30
0.0
 11
5.9999999669879003
 21
58.800000000000011
 31
0.0
  0
LINE
  5
772
100
AcDbEntity
  8
0
  6
CONTINUOUS
 62
               7
100
AcDbLine
 10
9.3000000000000114
 20
58.800000000000011
 30
0.0
 11
7.599999966987923
 21
58.800000000000011
 31
0.0
  0
ARC
  5
773
100
AcDbEntity
  8
0
  6
CONTINUOUS
 62
               7
100
AcDbCircle
 10
8.9976202682213966
 20
58.881593465285789
 30
0.0
 40
0.2
100
AcDbArc
 50
3.3411512917008754
 51
59.398286179201087
  0
LINE
  5
774
100
AcDbEntity
  8
0
  6
CONTINUOUS
 62
               7
100
AcDbLine
 10
9.3000000000000114
 20
58.800000000000011
 30
0.0
 11
9.3000000000000114
 21
59.5
 31
0.0
  0
LINE
  5
775
100
AcDbEntity
  8
0
  6
CONTINUOUS
 62
               7
100
AcDbLine
 10
18.199999999999932
 20
15.0
 30
0.0
 11
28.199999999999932
 21
15.0
 31
0.0
  0
LINE
  5
776
100
AcDbEntity
  8
0
  6
CONTINUOUS
 62
               2
100
AcDbLine
 10
14.099999999999966
 20
64.219220935761115
 30
0.0
 11
14.099999999999966
 21
58.0
 31
0.0
  0
ENDBLK
  5
777
100
AcDbEntity
  8
0
100
AcDbBlockEnd
  0
BLOCK
  5
779
100
AcDbEntity
  8
0
  6
ByBlock
 62
               0
100
AcDbBlockBegin
  2
_OPEN30
 70
               2
 10
0.0
 20
0.0
 30
0.0
  3
_OPEN30
  1

  0
LINE
  5
77A
100
AcDbEntity
  8
0
  6
ByBlock
 62
               0
100
AcDbLine
 10
-1.0
 20
0.267949
 30
0.0
 11
0.0
 21
0.0
 31
0.0
  0
LINE
  5
77B
100
AcDbEntity
  8
0
  6
ByBlock
 62
               0
100
AcDbLine
 10
0.0
 20
0.0
 30
0.0
 11
-1.0
 21
-0.267949
 31
0.0
  0
LINE
  5
77C
100
AcDbEntity
  8
0
  6
ByBlock
 62
               0
100
AcDbLine
 10
0.0
 20
0.0
 30
0.0
 11
-1.0
 21
0.0
 31
0.0
  0
ENDBLK
  5
77D
100
AcDbEntity
  8
0
  6
ByBlock
 62
               0
100
AcDbBlockEnd
  0
ENDSEC
  0
SECTION
  2
ENTITIES
  0
LEADER
  5
77E
100
AcDbEntity
  8
0
  6
CONTINUOUS
 62
               2
100
AcDbLeader
  3
MXDIMSTYLE
 73
               3
 74
               0
 75
               0
 40
0.0
 76
               3
 10
147.6749267578125
 20
-130.0
 30
0.0
 10
135.17816727950606
 20
-151.64502234639494
 30
0.0
 10
111.32453125312361
 20
-151.64502234639494
 30
0.0
 77
               2
1001
ACAD
1000
DSTYLE
1002
{
1070
               6
1000
_OPEN30
1070
               7
1000
_OPEN30
1070
              41
1040
2.77
1070
             173
1070
               1
1070
             341
1005
778
1002
}
  0
MTEXT
  5
77F
100
AcDbEntity
  8
0
  6
CONTINUOUS
 62
               2
100
AcDbMText
 10
111.32453125312361
 20
-146.98877258481352
 30
0.0
 40
4.5
 41
0.0
 71
               4
 72
               1
  1
\W0.938;\A1;MV-21
  0
LEADER
  5
780
100
AcDbEntity
  8
0
  6
CONTINUOUS
 62
               2
100
AcDbLeader
  3
MXDIMSTYLE
 73
               3
 74
               0
 75
               0
 40
0.0
 76
               3
 10
-139.0
 20
-130.0
 30
0.0
 10
-151.49675947830644
 20
-151.64502234639494
 30
0.0
 10
-175.35039550468889
 20
-151.64502234639494
 30
0.0
 77
               2
1001
ACAD
1000
DSTYLE
1002
{
1070
               6
1000
_OPEN30
1070
               7
1000
_OPEN30
1070
              41
1040
2.77
1070
             173
1070
               1
1070
             341
1005
778
1002
}
  0
MTEXT
  5
781
100
AcDbEntity
  8
0
  6
CONTINUOUS
 62
               2
100
AcDbMText
 10
-175.35039550468889
 20
-146.98877258481352
 30
0.0
 40
4.5
 41
0.0
 71
               4
 72
               1
  1
\W0.938;\A1;MV-21
  0
INSERT
  5
782
100
AcDbEntity
  8
0
  6
ByBlock
100
AcDbBlockReference
  2
MV180-05-DA-F-10
 10
246.6749267578125
 20
-130.0
 30
0.0
  0
INSERT
  5
783
100
AcDbEntity
  8
0
  6
ByBlock
100
AcDbBlockReference
  2
MV180-05-DA-F-9
 10
131.67492675781247
 20
10.0
 30
0.0
  0
INSERT
  5
784
100
AcDbEntity
  8
0
  6
ByBlock
100
AcDbBlockReference
  2
MV180-05-DA-F-8
 10
151.6749267578125
 20
-130.0
 30
0.0
  0
INSERT
  5
785
100
AcDbEntity
  8
0
  6
ByBlock
100
AcDbBlockReference
  2
MV180-05-DA-F-7
 10
91.6749267578125
 20
-130.0
 30
0.0
  0
INSERT
  5
786
100
AcDbEntity
  8
0
  6
ByBlock
100
AcDbBlockReference
  2
MV180-05-DA-F-6
 10
131.6749267578125
 20
-130.0
 30
0.0
  0
INSERT
  5
787
100
AcDbEntity
  8
0
  6
ByBlock
100
AcDbBlockReference
  2
MV180-05-DA-F-5
 10
-35.0
 20
-130.0
 30
0.0
  0
INSERT
  5
788
100
AcDbEntity
  8
0
  6
ByBlock
100
AcDbBlockReference
  2
MV180-05-DA-F-4
 10
-150.00000000000003
 20
10.0
 30
0.0
  0
INSERT
  5
789
100
AcDbEntity
  8
0
  6
ByBlock
100
AcDbBlockReference
  2
MV180-05-DA-F-3
 10
-135.0
 20
-130.0
 30
0.0
  0
INSERT
  5
78A
100
AcDbEntity
  8
0
  6
ByBlock
100
AcDbBlockReference
  2
MV180-05-DA-F-2
 10
-190.0
 20
-130.0
 30
0.0
  0
INSERT
  5
78B
100
AcDbEntity
  8
0
  6
ByBlock
100
AcDbBlockReference
  2
MV180-05-DA-F-1
 10
-150.0
 20
-130.0
 30
0.0
  0
MTEXT
  5
78C
100
AcDbEntity
  8
0
  6
CONTINUOUS
 62
               7
100
AcDbMText
 10
51.152559416737006
 20
150.5
 30
0.0
 40
6.3000001907348633
 41
0.0
 71
               4
 72
               1
  1
\W1.026;\A1;MV180-06-DA-F
  0
MTEXT
  5
78D
100
AcDbEntity
  8
0
  6
CONTINUOUS
 62
               7
100
AcDbMText
 10
13.383260027498558
 20
160.5
 30
0.0
 40
6.3000001907348633
 41
0.0
 71
               4
 72
               1
  1
\W1.056;\A1;MODEL:MV180-05-DA-F
  0
MTEXT
  5
78E
100
AcDbEntity
  8
0
  6
CONTINUOUS
 62
               7
100
AcDbMText
 10
-230.49473576306858
 20
150.5
 30
0.0
 40
6.3000001907348633
 41
0.0
 71
               4
 72
               1
  1
\W1.053;\A1;MV180-06-DA-F-PL(ML)
  0
MTEXT
  5
78F
100
AcDbEntity
  8
0
  6
CONTINUOUS
 62
               7
100
AcDbMText
 10
-268.27808225638796
 20
160.5
 30
0.0
 40
6.3000001907348633
 41
0.0
 71
               4
 72
               1
  1
\W1.068;\A1;MODEL:MV180-05-DA-F-PL(ML)
  0
MTEXT
  5
790
100
AcDbEntity
  8
0
  6
CONTINUOUS
 62
               7
100
AcDbMText
 10
-268.96972511542015
 20
188.65000009536743
 30
0.0
 40
6.3000001907348633
 41
0.0
 71
               1
 72
               1
  1
\W0.916;\A1;VACUUM VALVE UNIT
  0
LINE
  5
791
100
AcDbEntity
  8
0
  6
CONTINUOUS
 62
               7
100
AcDbLine
 10
-281.25
 20
175.5
 30
0.0
 11
-161.25
 21
175.5
 31
0.0
  0
LINE
  5
792
100
AcDbEntity
  8
0
  6
CONTINUOUS
 62
               7
100
AcDbLine
 10
-161.25
 20
195.5
 30
0.0
 11
-161.25
 21
175.5
 31
0.0
  0
LINE
  5
793
100
AcDbEntity
  8
0
  6
CONTINUOUS
 62
               7
100
AcDbLine
 10
162.0999755859375
 20
-175.0
 30
0.0
 11
162.0999755859375
 21
-195.0
 31
0.0
  0
LINE
  5
794
100
AcDbEntity
  8
0
  6
CONTINUOUS
 62
               7
100
AcDbLine
 10
162.0999755859375
 20
-175.0
 30
0.0
 11
282.099853515625
 21
-175.0
 31
0.0
  0
MTEXT
  5
795
100
AcDbEntity
  8
0
  6
CONTINUOUS
 62
               7
100
AcDbMText
 10
170.28101006437726
 20
-185.0
 30
0.0
 40
9.0
 41
0.0
 71
               4
 72
               1
  1
\W1.121;\A1;KOGANEI CORP.
  0
MTEXT
  5
796
100
AcDbEntity
  8
0
  6
CONTINUOUS
 62
               7
100
AcDbMText
 10
198.2770240315611
 20
185.5
 30
0.0
 40
6.3000001907348633
 41
0.0
 71
               4
 72
               1
  1
\W1.311;\A1;Ver. 1.0
  0
LINE
  5
797
100
AcDbEntity
  8
0
  6
CONTINUOUS
 62
               7
100
AcDbLine
 10
162.0999755859375
 20
175.5
 30
0.0
 11
282.099853515625
 21
175.5
 31
0.0
  0
LINE
  5
798
100
AcDbEntity
  8
0
  6
CONTINUOUS
 62
               7
100
AcDbLine
 10
162.0999755859375
 20
195.5
 30
0.0
 11
162.0999755859375
 21
175.5
 31
0.0
  0
LINE
  5
799
100
AcDbEntity
  8
0
  6
CONTINUOUS
 62
               7
100
AcDbLine
 10
282.099853515625
 20
195.5
 30
0.0
 11
282.099853515625
 21
-195.0
 31
0.0
  0
LINE
  5
79A
100
AcDbEntity
  8
0
  6
CONTINUOUS
 62
               7
100
AcDbLine
 10
-281.25
 20
195.5
 30
0.0
 11
282.099853515625
 21
195.5
 31
0.0
  0
LINE
  5
79B
100
AcDbEntity
  8
0
  6
CONTINUOUS
 62
               7
100
AcDbLine
 10
-281.25
 20
195.5
 30
0.0
 11
-281.25
 21
-195.0
 31
0.0
  0
LINE
  5
79C
100
AcDbEntity
  8
0
  6
CONTINUOUS
 62
               7
100
AcDbLine
 10
-281.25
 20
-195.0
 30
0.0
 11
282.099853515625
 21
-195.0
 31
0.0
  0
LINE
  5
79E
100
AcDbEntity
  8
0
  6
DASHED
 62
               2
100
AcDbLine
 10
0.4249267578125
 20
195.5
 30
0.0
 11
0.4249267578125
 21
-195.0
 31
0.0
  0
ENDSEC
  0
SECTION
  2
OBJECTS
  0
DICTIONARY
  5
19
100
AcDbDictionary
  3
ACAD_GROUP
350
1A
  3
ACAD_MLINESTYLE
350
1B
  0
DICTIONARY
  5
1A
102
{ACAD_REACTORS
330
19
102
}
100
AcDbDictionary
  0
DICTIONARY
  5
1B
102
{ACAD_REACTORS
330
19
102
}
100
AcDbDictionary
  3
STANDARD
350
1C
  0
MLINESTYLE
  5
1C
102
{ACAD_REACTORS
330
1B
102
}
100
AcDbMlineStyle
  2
Standard
 70
               0
  3

 62
               0
 51
90.0
 52
90.0
 71
               2
 49
0.5
 62
             256
  6
ByLayer
 49
-0.5
 62
             256
  6
ByLayer
  0
ENDSEC
  0
EOF
