  0
SECTION
  2
HEADER
  9
$ACADVER
  1
AC1012
  9
$DWGCODEPAGE
  3
dos932
  9
$INSBASE
 10
0.0
 20
0.0
 30
0.0
  9
$EXTMIN
 10
-138.4094391564276
 20
-94.80677969792248
 30
-0.0015258207003583
  9
$EXTMAX
 10
138.3594524451544
 20
94.50677747942865
 30
0.0000000349246037
  9
$LIMMIN
 10
-138.400994
 20
-94.8010031
  9
$LIMMAX
 10
138.351006
 20
94.501
  9
$ORTHOMODE
 70
     0
  9
$REGENMODE
 70
     1
  9
$FILLMODE
 70
     1
  9
$QTEXTMODE
 70
     0
  9
$MIRRTEXT
 70
     1
  9
$DRAGMODE
 70
     2
  9
$LTSCALE
 40
4.612499999999999
  9
$OSMODE
 70
    37
  9
$ATTMODE
 70
     1
  9
$TEXTSIZE
 40
0.2
  9
$TRACEWID
 40
0.05
  9
$TEXTSTYLE
  7
STANDARD
  9
$CLAYER
  8
0
  9
$CELTYPE
  6
CONTINUOUS
  9
$CECOLOR
 62
   256
  9
$CELTSCALE
 40
1.0
  9
$DELOBJ
 70
     1
  9
$DISPSILH
 70
     0
  9
$DIMSCALE
 40
1.0
  9
$DIMASZ
 40
0.18
  9
$DIMEXO
 40
0.0625
  9
$DIMDLI
 40
0.38
  9
$DIMRND
 40
0.0
  9
$DIMDLE
 40
0.0
  9
$DIMEXE
 40
0.18
  9
$DIMTP
 40
0.0
  9
$DIMTM
 40
0.0
  9
$DIMTXT
 40
0.18
  9
$DIMCEN
 40
0.09
  9
$DIMTSZ
 40
0.0
  9
$DIMTOL
 70
     0
  9
$DIMLIM
 70
     0
  9
$DIMTIH
 70
     1
  9
$DIMTOH
 70
     1
  9
$DIMSE1
 70
     0
  9
$DIMSE2
 70
     0
  9
$DIMTAD
 70
     0
  9
$DIMZIN
 70
     0
  9
$DIMBLK
  1

  9
$DIMASO
 70
     1
  9
$DIMSHO
 70
     1
  9
$DIMPOST
  1

  9
$DIMAPOST
  1

  9
$DIMALT
 70
     0
  9
$DIMALTD
 70
     2
  9
$DIMALTF
 40
25.4
  9
$DIMLFAC
 40
1.0
  9
$DIMTOFL
 70
     0
  9
$DIMTVP
 40
0.0
  9
$DIMTIX
 70
     0
  9
$DIMSOXD
 70
     0
  9
$DIMSAH
 70
     0
  9
$DIMBLK1
  1

  9
$DIMBLK2
  1

  9
$DIMSTYLE
  2
STANDARD
  9
$DIMCLRD
 70
     0
  9
$DIMCLRE
 70
     0
  9
$DIMCLRT
 70
     0
  9
$DIMTFAC
 40
1.0
  9
$DIMGAP
 40
0.09
  9
$DIMJUST
 70
     0
  9
$DIMSD1
 70
     0
  9
$DIMSD2
 70
     0
  9
$DIMTOLJ
 70
     1
  9
$DIMTZIN
 70
     0
  9
$DIMALTZ
 70
     0
  9
$DIMALTTZ
 70
     0
  9
$DIMFIT
 70
     3
  9
$DIMUPT
 70
     0
  9
$DIMUNIT
 70
     2
  9
$DIMDEC
 70
     4
  9
$DIMTDEC
 70
     4
  9
$DIMALTU
 70
     2
  9
$DIMALTTD
 70
     2
  9
$DIMTXSTY
  7
STANDARD
  9
$DIMAUNIT
 70
     0
  9
$LUNITS
 70
     2
  9
$LUPREC
 70
     4
  9
$SKETCHINC
 40
0.1
  9
$FILLETRAD
 40
0.0
  9
$AUNITS
 70
     0
  9
$AUPREC
 70
     0
  9
$MENU
  1
.
  9
$ELEVATION
 40
0.0
  9
$PELEVATION
 40
0.0
  9
$THICKNESS
 40
0.0
  9
$LIMCHECK
 70
     0
  9
$BLIPMODE
 70
     0
  9
$CHAMFERA
 40
0.0
  9
$CHAMFERB
 40
0.0
  9
$CHAMFERC
 40
0.0
  9
$CHAMFERD
 40
0.0
  9
$SKPOLY
 70
     0
  9
$TDCREATE
 40
2451967.780898958
  9
$TDUPDATE
 40
2451967.780915069
  9
$TDINDWG
 40
0.0000165741
  9
$TDUSRTIMER
 40
0.0000165741
  9
$USRTIMER
 70
     1
  9
$ANGBASE
 50
0.0
  9
$ANGDIR
 70
     0
  9
$PDMODE
 70
     0
  9
$PDSIZE
 40
0.0
  9
$PLINEWID
 40
0.0
  9
$COORDS
 70
     0
  9
$SPLFRAME
 70
     0
  9
$SPLINETYPE
 70
     6
  9
$SPLINESEGS
 70
     8
  9
$ATTDIA
 70
     0
  9
$ATTREQ
 70
     1
  9
$HANDLING
 70
 10241
  9
$HANDSEED
  5
1E9
  9
$SURFTAB1
 70
     6
  9
$SURFTAB2
 70
     6
  9
$SURFTYPE
 70
     6
  9
$SURFU
 70
     6
  9
$SURFV
 70
     6
  9
$UCSNAME
  2

  9
$UCSORG
 10
0.0
 20
0.0
 30
0.0
  9
$UCSXDIR
 10
1.0
 20
0.0
 30
0.0
  9
$UCSYDIR
 10
0.0
 20
1.0
 30
0.0
  9
$PUCSNAME
  2

  9
$PUCSORG
 10
0.0
 20
0.0
 30
0.0
  9
$PUCSXDIR
 10
1.0
 20
0.0
 30
0.0
  9
$PUCSYDIR
 10
0.0
 20
1.0
 30
0.0
  9
$USERI1
 70
     0
  9
$USERI2
 70
     0
  9
$USERI3
 70
     0
  9
$USERI4
 70
     0
  9
$USERI5
 70
     0
  9
$USERR1
 40
0.0
  9
$USERR2
 40
0.0
  9
$USERR3
 40
0.0
  9
$USERR4
 40
0.0
  9
$USERR5
 40
0.0
  9
$WORLDVIEW
 70
     1
  9
$SHADEDGE
 70
     3
  9
$SHADEDIF
 70
    70
  9
$TILEMODE
 70
     1
  9
$MAXACTVP
 70
    64
  9
$PINSBASE
 10
0.0
 20
0.0
 30
0.0
  9
$PLIMCHECK
 70
     0
  9
$PEXTMIN
 10
1.000000000000000E+20
 20
1.000000000000000E+20
 30
1.000000000000000E+20
  9
$PEXTMAX
 10
-1.000000000000000E+20
 20
-1.000000000000000E+20
 30
-1.000000000000000E+20
  9
$PLIMMIN
 10
0.0
 20
0.0
  9
$PLIMMAX
 10
12.0
 20
9.0
  9
$UNITMODE
 70
     0
  9
$VISRETAIN
 70
     1
  9
$PLINEGEN
 70
     0
  9
$PSLTSCALE
 70
     1
  9
$TREEDEPTH
 70
  3020
  9
$PICKSTYLE
 70
     1
  9
$CMLSTYLE
  2
STANDARD
  9
$CMLJUST
 70
     0
  9
$CMLSCALE
 40
1.0
  9
$SAVEIMAGES
 70
     1
  0
ENDSEC
  0
SECTION
  2
CLASSES
  0
CLASS
  1
ACDBDICTIONARYWDFLT
  2
AcDbDictionaryWithDefault
  3
AutoCAD 2000
 90
    32768
280
     0
281
     0
  0
CLASS
  1
ACDBPLACEHOLDER
  2
AcDbPlaceHolder
  3
AutoCAD 2000
 90
    32768
280
     0
281
     0
  0
CLASS
  1
LAYOUT
  2
AcDbLayout
  3
AutoCAD 2000
 90
    32768
280
     0
281
     0
  0
CLASS
  1
LONG_TRANSACTION
  2
AcDbLongTransaction
  3
AutoCAD 2000
 90
    32768
280
     0
281
     0
  0
CLASS
  1
LWPOLYLINE
  2
AcDbPolyline
  3
AutoCAD 2000
 90
    32768
280
     0
281
     1
  0
CLASS
  1
HATCH
  2
AcDbHatch
  3
AutoCAD 2000
 90
    32768
280
     0
281
     1
  0
CLASS
  1
XRECORD
  2
AcDbXrecord
  3
AutoCAD 2000
 90
    32768
280
     0
281
     0
  0
ENDSEC
  0
SECTION
  2
TABLES
  0
TABLE
  2
VPORT
  5
8
330
0
100
AcDbSymbolTable
 70
     3
  0
VPORT
  5
1E4
330
8
100
AcDbSymbolTableRecord
100
AcDbViewportTableRecord
  2
*ACTIVE
 70
     0
 10
0.0
 20
0.0
 11
1.0
 21
1.0
 12
-0.0249933556365818
 22
-0.1500011092469151
 13
0.0
 23
0.0
 14
1.0
 24
1.0
 15
0.0
 25
0.0
 16
0.0
 26
0.0
 36
1.0
 17
0.0
 27
0.0
 37
0.0
 40
192.00521912774
 41
2.011876484560569
 42
50.0
 43
0.0
 44
0.0
 50
0.0
 51
0.0
 71
     0
 72
   100
 73
     1
 74
     1
 75
     0
 76
     0
 77
     0
 78
     0
  0
ENDTAB
  0
TABLE
  2
LTYPE
  5
5
330
0
100
AcDbSymbolTable
 70
     5
  0
LTYPE
  5
13
330
5
100
AcDbSymbolTableRecord
100
AcDbLinetypeTableRecord
  2
BYBLOCK
 70
     0
  3

 72
    65
 73
     0
 40
0.0
  0
LTYPE
  5
14
330
5
100
AcDbSymbolTableRecord
100
AcDbLinetypeTableRecord
  2
BYLAYER
 70
     0
  3

 72
    65
 73
     0
 40
0.0
  0
LTYPE
  5
15
330
5
100
AcDbSymbolTableRecord
100
AcDbLinetypeTableRecord
  2
CONTINUOUS
 70
     0
  3
Solid-Line
 72
    65
 73
     0
 40
0.0
  0
LTYPE
  5
22
330
5
100
AcDbSymbolTableRecord
100
AcDbLinetypeTableRecord
  2
DASHED
 70
     0
  3
DASHED
 72
    65
 73
     2
 40
0.75
 49
0.5
 74
     0
 49
-0.25
 74
     0
  0
LTYPE
  5
23
330
5
100
AcDbSymbolTableRecord
100
AcDbLinetypeTableRecord
  2
HIDDEN
 70
     0
  3
HIDDEN
 72
    65
 73
     2
 40
0.375
 49
0.25
 74
     0
 49
-0.125
 74
     0
  0
LTYPE
  5
24
330
5
100
AcDbSymbolTableRecord
100
AcDbLinetypeTableRecord
  2
CENTER
 70
     0
  3
CENTER
 72
    65
 73
     4
 40
2.0
 49
1.25
 74
     0
 49
-0.25
 74
     0
 49
0.25
 74
     0
 49
-0.25
 74
     0
  0
LTYPE
  5
25
330
5
100
AcDbSymbolTableRecord
100
AcDbLinetypeTableRecord
  2
PHANTOM
 70
     0
  3
PHANTOM
 72
    65
 73
     6
 40
2.5
 49
1.25
 74
     0
 49
-0.25
 74
     0
 49
0.25
 74
     0
 49
-0.25
 74
     0
 49
0.25
 74
     0
 49
-0.25
 74
     0
  0
ENDTAB
  0
TABLE
  2
LAYER
  5
2
330
0
100
AcDbSymbolTable
 70
     1
  0
LAYER
  5
10
330
2
100
AcDbSymbolTableRecord
100
AcDbLayerTableRecord
  2
0
 70
     0
 62
     7
  6
CONTINUOUS
  0
ENDTAB
  0
TABLE
  2
STYLE
  5
3
330
0
100
AcDbSymbolTable
 70
     3
  0
STYLE
  5
11
330
3
100
AcDbSymbolTableRecord
100
AcDbTextStyleTableRecord
  2
STANDARD
 70
     0
 40
0.0
 41
1.0
 50
0.0
 71
     0
 42
0.2
  3
txt
  4

  0
STYLE
  5
26
330
3
100
AcDbSymbolTableRecord
100
AcDbTextStyleTableRecord
  2
MONOTXT
 70
     0
 40
0.0
 41
1.0
 50
0.0
 71
     0
 42
0.2
  3
monotxt
  4

  0
STYLE
  5
27
330
3
100
AcDbSymbolTableRecord
100
AcDbTextStyleTableRecord
  2
BIGFONT
 70
     0
 40
0.0
 41
1.0
 50
0.0
 71
     0
 42
0.2
  3
txt
  4
bigfont
  0
ENDTAB
  0
TABLE
  2
VIEW
  5
6
330
0
100
AcDbSymbolTable
 70
     0
  0
ENDTAB
  0
TABLE
  2
UCS
  5
7
330
0
100
AcDbSymbolTable
 70
     0
  0
ENDTAB
  0
TABLE
  2
APPID
  5
9
330
0
100
AcDbSymbolTable
 70
     1
  0
APPID
  5
12
330
9
100
AcDbSymbolTableRecord
100
AcDbRegAppTableRecord
  2
ACAD
 70
     0
  0
ENDTAB
  0
TABLE
  2
DIMSTYLE
  5
A
330
0
100
AcDbSymbolTable
 70
     1
  0
DIMSTYLE
105
1AD
330
A
100
AcDbSymbolTableRecord
100
AcDbDimStyleTableRecord
  2
STANDARD
 70
     0
  3

  4

  5

  6

  7

 40
1.0
 41
0.18
 42
0.0625
 43
0.38
 44
0.18
 45
0.0
 46
0.0
 47
0.0
 48
0.0
140
0.18
141
0.09
142
0.0
143
25.4
144
1.0
145
0.0
146
1.0
147
0.09
 71
     0
 72
     0
 73
     1
 74
     1
 75
     0
 76
     0
 77
     0
 78
     0
170
     0
171
     2
172
     0
173
     0
174
     0
175
     0
176
     0
177
     0
178
     0
270
     2
271
     4
272
     4
273
     2
274
     2
340
11
275
     0
280
     0
281
     0
282
     0
283
     1
284
     0
285
     0
286
     0
287
     3
288
     0
  0
ENDTAB
  0
TABLE
  2
BLOCK_RECORD
  5
1
330
0
100
AcDbSymbolTable
 70
     0
  0
BLOCK_RECORD
  5
1E
102
{ACAD_XDICTIONARY
360
1E7
102
}
330
1
100
AcDbSymbolTableRecord
100
AcDbBlockTableRecord
  2
*MODEL_SPACE
  0
BLOCK_RECORD
  5
1A
102
{ACAD_XDICTIONARY
360
1E5
102
}
330
1
100
AcDbSymbolTableRecord
100
AcDbBlockTableRecord
  2
*PAPER_SPACE
  0
ENDTAB
  0
ENDSEC
  0
SECTION
  2
BLOCKS
  0
BLOCK
  5
1F
330
1E
100
AcDbEntity
  8
0
100
AcDbBlockBegin
  2
*MODEL_SPACE
 70
     0
 10
0.0
 20
0.0
 30
0.0
  3
*MODEL_SPACE
  1

  0
ENDBLK
  5
20
330
1E
100
AcDbEntity
  8
0
100
AcDbBlockEnd
  0
BLOCK
  5
1B
330
1A
100
AcDbEntity
 67
     1
  8
0
100
AcDbBlockBegin
  2
*PAPER_SPACE
 70
     0
 10
0.0
 20
0.0
 30
0.0
  3
*PAPER_SPACE
  1

  0
ENDBLK
  5
1C
330
1A
100
AcDbEntity
 67
     1
  8
0
100
AcDbBlockEnd
  0
ENDSEC
  0
SECTION
  2
ENTITIES
  0
LINE
  5
2C
330
1E
100
AcDbEntity
  8
0
  6
CENTER
 62
     2
100
AcDbLine
 10
-30.0249939
 20
-59.29980129999999
 30
0.0
 11
-30.0249939
 21
5.9885007
 31
0.0
  0
LINE
  5
2D
330
1E
100
AcDbEntity
  8
0
 62
     7
100
AcDbLine
 10
-38.02499389999999
 20
-13.6500015
 30
0.0
 11
-22.02499389999999
 21
-13.6500015
 31
0.0
  0
LINE
  5
2E
330
1E
100
AcDbEntity
  8
0
 62
     7
100
AcDbLine
 10
-36.2749939
 20
-13.6500015
 30
0.0
 11
-36.2749939
 21
-10.95000149999999
 31
0.0
  0
LINE
  5
2F
330
1E
100
AcDbEntity
  8
0
 62
     7
100
AcDbLine
 10
-23.7749939
 20
-13.6500015
 30
0.0
 11
-23.7749939
 21
-10.95000149999999
 31
0.0
  0
LINE
  5
30
330
1E
100
AcDbEntity
  8
0
 62
     7
100
AcDbLine
 10
-21.97499389999999
 20
-10.95000149999999
 30
0.0
 11
-38.0749939
 21
-10.95000149999999
 31
0.0
  0
LINE
  5
31
330
1E
100
AcDbEntity
  8
0
 62
     7
100
AcDbLine
 10
-21.77499389999999
 20
-10.75000149999999
 30
0.0
 11
-21.97499389999999
 21
-10.95000149999999
 31
0.0
  0
LINE
  5
32
330
1E
100
AcDbEntity
  8
0
 62
     7
100
AcDbLine
 10
-36.75816649999999
 20
4.04999847
 30
0.0
 11
-23.3286372
 21
4.04999847
 31
0.0
  0
LINE
  5
33
330
1E
100
AcDbEntity
  8
0
 62
     7
100
AcDbLine
 10
-38.27499389999999
 20
-10.75000149999999
 30
0.0
 11
-38.0749939
 21
-10.95000149999999
 31
0.0
  0
LINE
  5
34
330
1E
100
AcDbEntity
  8
0
 62
     7
100
AcDbLine
 10
-38.27499389999999
 20
-10.75000149999999
 30
0.0
 11
-37.79435089999999
 21
3.01381412
 31
0.0
  0
LINE
  5
35
330
1E
100
AcDbEntity
  8
0
 62
     7
100
AcDbLine
 10
-21.77499389999999
 20
-10.75000149999999
 30
0.0
 11
-22.2569218
 21
3.050607649999999
 31
0.0
  0
LINE
  5
36
330
1E
100
AcDbEntity
  8
0
 62
     7
100
AcDbLine
 10
-22.2569218
 20
3.050607649999999
 30
0.0
 11
-23.3286372
 21
4.04999847
 31
0.0
  0
LINE
  5
37
330
1E
100
AcDbEntity
  8
0
 62
     7
100
AcDbLine
 10
-36.75816649999999
 20
4.04999847
 30
0.0
 11
-37.79435089999999
 21
3.01381412
 31
0.0
  0
LINE
  5
38
330
1E
100
AcDbEntity
  8
0
 62
     7
100
AcDbLine
 10
-41.5249939
 20
-22.6500015
 30
0.0
 11
-18.5249939
 21
-22.6500015
 31
0.0
  0
ARC
  5
39
330
1E
100
AcDbEntity
  8
0
 62
     7
100
AcDbCircle
 10
-40.5249939
 20
-22.1500015
 30
0.0
 40
1.0
100
AcDbArc
 50
90.00000020000001
 51
180.0
  0
LINE
  5
3A
330
1E
100
AcDbEntity
  8
0
 62
     7
100
AcDbLine
 10
-40.5249939
 20
-21.1500015
 30
0.0
 11
-19.52499389999999
 21
-21.1500015
 31
0.0
  0
ARC
  5
3B
330
1E
100
AcDbEntity
  8
0
 62
     7
100
AcDbCircle
 10
-19.52499389999999
 20
-22.1500015
 30
0.0
 40
1.0
100
AcDbArc
 50
0.0
 51
90.00000020000001
  0
LINE
  5
3C
330
1E
100
AcDbEntity
  8
0
 62
     7
100
AcDbLine
 10
-41.5249939
 20
-46.3500015
 30
0.0
 11
-41.5249939
 21
-22.6500015
 31
0.0
  0
LINE
  5
3D
330
1E
100
AcDbEntity
  8
0
 62
     7
100
AcDbLine
 10
-18.5249939
 20
-46.3500015
 30
0.0
 11
-18.5249939
 21
-22.6500015
 31
0.0
  0
LINE
  5
3E
330
1E
100
AcDbEntity
  8
0
 62
     7
100
AcDbLine
 10
-38.02499389999999
 20
-14.1500015
 30
0.0
 11
-22.02499389999999
 21
-14.1500015
 31
0.0
  0
LINE
  5
3F
330
1E
100
AcDbEntity
  8
0
 62
     7
100
AcDbLine
 10
-38.02499389999999
 20
-20.6500015
 30
0.0
 11
-22.02499389999999
 21
-20.6500015
 31
0.0
  0
LINE
  5
40
330
1E
100
AcDbEntity
  8
0
 62
     7
100
AcDbLine
 10
-18.5249939
 20
-22.6500015
 30
0.0
 11
-18.5249939
 21
-22.1500015
 31
0.0
  0
LINE
  5
41
330
1E
100
AcDbEntity
  8
0
 62
     7
100
AcDbLine
 10
-41.5249939
 20
-22.6500015
 30
0.0
 11
-41.5249939
 21
-22.1500015
 31
0.0
  0
LINE
  5
42
330
1E
100
AcDbEntity
  8
0
 62
     7
100
AcDbLine
 10
-30.0249939
 20
-25.6500015
 30
0.0
 11
-33.5249939
 21
-25.9562118
 31
0.0
  0
LINE
  5
43
330
1E
100
AcDbEntity
  8
0
 62
     7
100
AcDbLine
 10
-26.5249939
 20
-28.6500015
 30
0.0
 11
-26.5249939
 21
-25.6500015
 31
0.0
  0
LINE
  5
44
330
1E
100
AcDbEntity
  8
0
 62
     7
100
AcDbLine
 10
-33.5249939
 20
-28.6500015
 30
0.0
 11
-33.5249939
 21
-25.9562118
 31
0.0
  0
LINE
  5
45
330
1E
100
AcDbEntity
  8
0
 62
     7
100
AcDbLine
 10
-33.62499389999999
 20
-29.0500015
 30
0.0
 11
-33.62499389999999
 21
-25.6500015
 31
0.0
  0
LINE
  5
46
330
1E
100
AcDbEntity
  8
0
 62
     7
100
AcDbLine
 10
-24.72499389999999
 20
-29.0500015
 30
0.0
 11
-24.72499389999999
 21
-25.6500015
 31
0.0
  0
LINE
  5
47
330
1E
100
AcDbEntity
  8
0
 62
     7
100
AcDbLine
 10
-33.62499389999999
 20
-25.6500015
 30
0.0
 11
-24.72499389999999
 21
-25.6500015
 31
0.0
  0
LINE
  5
48
330
1E
100
AcDbEntity
  8
0
 62
     7
100
AcDbLine
 10
-33.5249939
 20
-28.6500015
 30
0.0
 11
-26.5249939
 21
-28.6500015
 31
0.0
  0
LINE
  5
49
330
1E
100
AcDbEntity
  8
0
 62
     7
100
AcDbLine
 10
-24.72499389999999
 20
-29.0500015
 30
0.0
 11
-33.62499389999999
 21
-29.0500015
 31
0.0
  0
LINE
  5
4A
330
1E
100
AcDbEntity
  8
0
 62
     7
100
AcDbLine
 10
-31.2249938
 20
-9.450001529999999
 30
0.0
 11
-31.2249938
 21
3.89604169
 31
0.0
  0
LINE
  5
4B
330
1E
100
AcDbEntity
  8
0
 62
     7
100
AcDbLine
 10
-28.8249938
 20
-9.450001529999999
 30
0.0
 11
-28.8249938
 21
3.89604169
 31
0.0
  0
LINE
  5
4C
330
1E
100
AcDbEntity
  8
0
 62
     7
100
AcDbLine
 10
-31.2249938
 20
3.896041659999999
 30
0.0
 11
-28.8249938
 21
3.896041659999999
 31
0.0
  0
LINE
  5
4D
330
1E
100
AcDbEntity
  8
0
 62
     7
100
AcDbLine
 10
-35.82280479999999
 20
3.01381412
 30
0.0
 11
-31.650368
 21
3.01381412
 31
0.0
  0
LINE
  5
4E
330
1E
100
AcDbEntity
  8
0
 62
     7
100
AcDbLine
 10
-31.2249938
 20
3.896041659999999
 30
0.0
 11
-31.650368
 21
3.01381412
 31
0.0
  0
LINE
  5
4F
330
1E
100
AcDbEntity
  8
0
 62
     7
100
AcDbLine
 10
-31.8708236
 20
-10.25427929999999
 30
0.0
 11
-28.1791641
 21
-10.25427929999999
 31
0.0
  0
LINE
  5
50
330
1E
100
AcDbEntity
  8
0
 62
     7
100
AcDbLine
 10
-31.650368
 20
3.01381412
 30
0.0
 11
-31.8708236
 21
-10.25427929999999
 31
0.0
  0
LINE
  5
51
330
1E
100
AcDbEntity
  8
0
 62
     7
100
AcDbLine
 10
-28.8249938
 20
3.89604169
 30
0.0
 11
-28.3996197
 21
3.01381412
 31
0.0
  0
LINE
  5
52
330
1E
100
AcDbEntity
  8
0
 62
     7
100
AcDbLine
 10
-28.3996197
 20
3.01381412
 30
0.0
 11
-28.1791641
 21
-10.25427929999999
 31
0.0
  0
LINE
  5
53
330
1E
100
AcDbEntity
  8
0
 62
     7
100
AcDbLine
 10
-31.2249938
 20
-9.450001529999999
 30
0.0
 11
-28.8249938
 21
-9.450001529999999
 31
0.0
  0
LINE
  5
54
330
1E
100
AcDbEntity
  8
0
 62
     7
100
AcDbLine
 10
-36.5974306
 20
3.896041659999999
 30
0.0
 11
-35.39743060000001
 21
3.896041659999999
 31
0.0
  0
LINE
  5
55
330
1E
100
AcDbEntity
  8
0
 62
     7
100
AcDbLine
 10
-36.5974306
 20
3.896041659999999
 30
0.0
 11
-37.4481789
 21
3.01381412
 31
0.0
  0
LINE
  5
56
330
1E
100
AcDbEntity
  8
0
 62
     7
100
AcDbLine
 10
-35.39743060000001
 20
3.896041659999999
 30
0.0
 11
-35.8228047
 21
3.01381412
 31
0.0
  0
LINE
  5
57
330
1E
100
AcDbEntity
  8
0
 62
     7
100
AcDbLine
 10
-37.8890901
 20
-10.25427929999999
 30
0.0
 11
-36.04326029999999
 21
-10.25427929999999
 31
0.0
  0
LINE
  5
58
330
1E
100
AcDbEntity
  8
0
 62
     7
100
AcDbLine
 10
-36.96613389999999
 20
-9.450001529999999
 30
0.0
 11
-36.02989689999999
 21
-9.450001529999999
 31
0.0
  0
LINE
  5
59
330
1E
100
AcDbEntity
  8
0
 62
     7
100
AcDbLine
 10
-35.8228047
 20
3.01381412
 30
0.0
 11
-36.04326029999999
 21
-10.25427929999999
 31
0.0
  0
LINE
  5
5A
330
1E
100
AcDbEntity
  8
0
 62
     7
100
AcDbLine
 10
-37.4481789
 20
3.01381412
 30
0.0
 11
-37.8890901
 21
-10.25427929999999
 31
0.0
  0
LINE
  5
5B
330
1E
100
AcDbEntity
  8
0
 62
     7
100
AcDbLine
 10
-36.5974306
 20
3.896041659999999
 30
0.0
 11
-36.96613389999999
 21
-9.450001529999999
 31
0.0
  0
LINE
  5
5C
330
1E
100
AcDbEntity
  8
0
 62
     7
100
AcDbLine
 10
-37.79435089999999
 20
3.01381412
 30
0.0
 11
-37.4481789
 21
3.01381412
 31
0.0
  0
LINE
  5
5D
330
1E
100
AcDbEntity
  8
0
 62
     7
100
AcDbLine
 10
-24.227183
 20
3.01381412
 30
0.0
 11
-28.3996198
 21
3.01381412
 31
0.0
  0
LINE
  5
5E
330
1E
100
AcDbEntity
  8
0
 62
     7
100
AcDbLine
 10
-23.45255719999999
 20
3.896041659999999
 30
0.0
 11
-22.60180889999999
 21
3.01381412
 31
0.0
  0
LINE
  5
5F
330
1E
100
AcDbEntity
  8
0
 62
     7
100
AcDbLine
 10
-24.6525572
 20
3.896041659999999
 30
0.0
 11
-24.2271831
 21
3.01381412
 31
0.0
  0
LINE
  5
60
330
1E
100
AcDbEntity
  8
0
 62
     7
100
AcDbLine
 10
-22.16089769999999
 20
-10.25427929999999
 30
0.0
 11
-24.0067275
 21
-10.25427929999999
 31
0.0
  0
LINE
  5
61
330
1E
100
AcDbEntity
  8
0
 62
     7
100
AcDbLine
 10
-22.60180889999999
 20
3.01381412
 30
0.0
 11
-22.16089769999999
 21
-10.25427929999999
 31
0.0
  0
LINE
  5
62
330
1E
100
AcDbEntity
  8
0
 62
     7
100
AcDbLine
 10
-23.45255719999999
 20
3.896041659999999
 30
0.0
 11
-23.08385389999999
 21
-9.450001529999999
 31
0.0
  0
LINE
  5
63
330
1E
100
AcDbEntity
  8
0
 62
     7
100
AcDbLine
 10
-22.25563689999999
 20
3.01381412
 30
0.0
 11
-22.60180889999999
 21
3.01381412
 31
0.0
  0
LINE
  5
64
330
1E
100
AcDbEntity
  8
0
 62
     7
100
AcDbLine
 10
-24.2271831
 20
3.01381412
 30
0.0
 11
-24.0067275
 21
-10.25427929999999
 31
0.0
  0
LINE
  5
65
330
1E
100
AcDbEntity
  8
0
 62
     7
100
AcDbLine
 10
-23.08385389999999
 20
-9.450001529999999
 30
0.0
 11
-24.02009089999999
 21
-9.450001529999999
 31
0.0
  0
LINE
  5
66
330
1E
100
AcDbEntity
  8
0
 62
     7
100
AcDbLine
 10
-23.45255719999999
 20
3.896041659999999
 30
0.0
 11
-24.6525572
 21
3.896041659999999
 31
0.0
  0
LINE
  5
67
330
1E
100
AcDbEntity
  8
0
 62
     7
100
AcDbLine
 10
-38.27499389999999
 20
-10.75000149999999
 30
0.0
 11
-21.77499389999999
 21
-10.75000149999999
 31
0.0
  0
LINE
  5
68
330
1E
100
AcDbEntity
  8
0
  6
CENTER
 62
     2
100
AcDbLine
 10
-24.52499389999999
 20
-58.1059787
 30
0.0
 11
-24.52499389999999
 21
-46.434709
 31
0.0
  0
LINE
  5
69
330
1E
100
AcDbEntity
  8
0
  6
CENTER
 62
     2
100
AcDbLine
 10
-35.8576251
 20
-36.3500015
 30
0.0
 11
-42.1747343
 21
-36.3500015
 31
0.0
  0
CIRCLE
  5
6A
330
1E
100
AcDbEntity
  8
0
 62
     7
100
AcDbCircle
 10
-39.0249939
 20
-36.3500015
 30
0.0
 40
1.3
  0
CIRCLE
  5
6B
330
1E
100
AcDbEntity
  8
0
 62
     7
100
AcDbCircle
 10
-21.02499389999999
 20
-36.3500015
 30
0.0
 40
1.3
  0
LINE
  5
6C
330
1E
100
AcDbEntity
  8
0
  6
CENTER
 62
     2
100
AcDbLine
 10
-21.02499389999999
 20
-39.9261723
 30
0.0
 11
-21.02499389999999
 21
-32.9390666
 31
0.0
  0
LINE
  5
6D
330
1E
100
AcDbEntity
  8
0
  6
CENTER
 62
     2
100
AcDbLine
 10
-39.0249939
 20
-39.73474470000001
 30
0.0
 11
-39.0249939
 21
-32.7476391
 31
0.0
  0
LINE
  5
6E
330
1E
100
AcDbEntity
  8
0
  6
CENTER
 62
     2
100
AcDbLine
 10
-17.9112922
 20
-36.3500015
 30
0.0
 11
-24.5155427
 21
-36.3500015
 31
0.0
  0
LINE
  5
6F
330
1E
100
AcDbEntity
  8
0
 62
     7
100
AcDbLine
 10
-19.52499389999999
 20
-47.3500015
 30
0.0
 11
-40.5249939
 21
-47.3500015
 31
0.0
  0
ARC
  5
70
330
1E
100
AcDbEntity
  8
0
 62
     7
100
AcDbCircle
 10
-19.52499389999999
 20
-46.3500015
 30
0.0
 40
1.0
100
AcDbArc
 50
270.0
 51
0.0
  0
ARC
  5
71
330
1E
100
AcDbEntity
  8
0
 62
     7
100
AcDbCircle
 10
-40.5249939
 20
-46.3500015
 30
0.0
 40
1.0
100
AcDbArc
 50
180.0
 51
270.0
  0
ARC
  5
72
330
1E
100
AcDbEntity
  8
0
 62
     7
100
AcDbCircle
 10
-19.8249939
 20
-56.5500015
 30
0.0
 40
0.2
100
AcDbArc
 50
270.0
 51
0.0
  0
ARC
  5
73
330
1E
100
AcDbEntity
  8
0
 62
     7
100
AcDbCircle
 10
-29.2249939
 20
-56.5500015
 30
0.0
 40
0.2
100
AcDbArc
 50
180.0
 51
270.0
  0
LINE
  5
74
330
1E
100
AcDbEntity
  8
0
  6
DASHED
 62
     2
100
AcDbLine
 10
-21.5249939
 20
-56.7500015
 30
0.0
 11
-21.5249939
 21
-53.6500015
 31
0.0
  0
LINE
  5
75
330
1E
100
AcDbEntity
  8
0
  6
DASHED
 62
     2
100
AcDbLine
 10
-27.5249939
 20
-56.7500015
 30
0.0
 11
-27.5249939
 21
-53.6500015
 31
0.0
  0
LINE
  5
76
330
1E
100
AcDbEntity
  8
0
 62
     7
100
AcDbLine
 10
-19.97499389999999
 20
-54.6500015
 30
0.0
 11
-19.57499389999999
 21
-53.9571812
 31
0.0
  0
LINE
  5
77
330
1E
100
AcDbEntity
  8
0
 62
     7
100
AcDbLine
 10
-29.0749939
 20
-54.6500015
 30
0.0
 11
-29.4749939
 21
-53.9571812
 31
0.0
  0
LINE
  5
78
330
1E
100
AcDbEntity
  8
0
 62
     7
100
AcDbLine
 10
-29.2249939
 20
-56.7500015
 30
0.0
 11
-19.8249939
 21
-56.7500015
 31
0.0
  0
LINE
  5
79
330
1E
100
AcDbEntity
  8
0
 62
     7
100
AcDbLine
 10
-19.57499389999999
 20
-53.9571812
 30
0.0
 11
-19.57499389999999
 21
-47.3500015
 31
0.0
  0
LINE
  5
7A
330
1E
100
AcDbEntity
  8
0
 62
     7
100
AcDbLine
 10
-19.62499389999999
 20
-56.5500015
 30
0.0
 11
-19.62499389999999
 21
-55.75000150000001
 31
0.0
  0
LINE
  5
7B
330
1E
100
AcDbEntity
  8
0
 62
     7
100
AcDbLine
 10
-19.62499389999999
 20
-55.75000150000001
 30
0.0
 11
-20.4910193
 21
-55.2500015
 31
0.0
  0
LINE
  5
7C
330
1E
100
AcDbEntity
  8
0
 62
     7
100
AcDbLine
 10
-21.02499389999999
 20
-55.2500015
 30
0.0
 11
-21.02499389999999
 21
-54.6500015
 31
0.0
  0
LINE
  5
7D
330
1E
100
AcDbEntity
  8
0
 62
     7
100
AcDbLine
 10
-19.62499389999999
 20
-55.75000150000001
 30
0.0
 11
-29.4249939
 21
-55.75000150000001
 31
0.0
  0
LINE
  5
7E
330
1E
100
AcDbEntity
  8
0
 62
     7
100
AcDbLine
 10
-20.4910193
 20
-55.2500015
 30
0.0
 11
-28.5589685
 21
-55.2500015
 31
0.0
  0
LINE
  5
7F
330
1E
100
AcDbEntity
  8
0
 62
     7
100
AcDbLine
 10
-19.97499389999999
 20
-54.6500015
 30
0.0
 11
-29.0749939
 21
-54.6500015
 31
0.0
  0
LINE
  5
80
330
1E
100
AcDbEntity
  8
0
 62
     7
100
AcDbLine
 10
-28.0249939
 20
-55.2500015
 30
0.0
 11
-28.0249939
 21
-54.6500015
 31
0.0
  0
LINE
  5
81
330
1E
100
AcDbEntity
  8
0
 62
     7
100
AcDbLine
 10
-29.4249939
 20
-55.75000150000001
 30
0.0
 11
-28.5589685
 21
-55.2500015
 31
0.0
  0
LINE
  5
82
330
1E
100
AcDbEntity
  8
0
 62
     7
100
AcDbLine
 10
-29.4249939
 20
-56.5500015
 30
0.0
 11
-29.4249939
 21
-55.75000150000001
 31
0.0
  0
LINE
  5
83
330
1E
100
AcDbEntity
  8
0
 62
     7
100
AcDbLine
 10
-29.4749939
 20
-53.9571812
 30
0.0
 11
-29.4749939
 21
-47.3500015
 31
0.0
  0
LINE
  5
84
330
1E
100
AcDbEntity
  8
0
  6
CENTER
 62
     2
100
AcDbLine
 10
-23.2697986
 20
-40.1500015
 30
0.0
 11
-36.8259946
 21
-40.1500015
 31
0.0
  0
CIRCLE
  5
85
330
1E
100
AcDbEntity
  8
0
 62
     7
100
AcDbCircle
 10
-30.0249939
 20
-40.1500015
 30
0.0
 40
3.0
  0
CIRCLE
  5
86
330
1E
100
AcDbEntity
  8
0
 62
     2
100
AcDbCircle
 10
-30.0249939
 20
-40.1500015
 30
0.0
 40
4.86399937
  0
CIRCLE
  5
87
330
1E
100
AcDbEntity
  8
0
 62
     7
100
AcDbCircle
 10
-30.0249939
 20
-40.1500015
 30
0.0
 40
4.27799988
  0
ARC
  5
88
330
1E
100
AcDbEntity
  8
0
 62
     7
100
AcDbCircle
 10
-39.0249939
 20
-36.3500015
 30
0.0
 40
2.75
100
AcDbArc
 50
270.0
 51
90.00000020000001
  0
ARC
  5
89
330
1E
100
AcDbEntity
  8
0
 62
     7
100
AcDbCircle
 10
-21.02499389999999
 20
-36.3500015
 30
0.0
 40
2.75
100
AcDbArc
 50
90.00000020000001
 51
270.0
  0
LINE
  5
8A
330
1E
100
AcDbEntity
  8
0
 62
     7
100
AcDbLine
 10
-21.02499389999999
 20
-33.6000015
 30
0.0
 11
-18.82499389999999
 21
-33.6000015
 31
0.0
  0
LINE
  5
8B
330
1E
100
AcDbEntity
  8
0
 62
     7
100
AcDbLine
 10
-21.02499389999999
 20
-39.1000015
 30
0.0
 11
-18.82499389999999
 21
-39.1000015
 31
0.0
  0
LINE
  5
8C
330
1E
100
AcDbEntity
  8
0
 62
     7
100
AcDbLine
 10
-39.0249939
 20
-33.6000015
 30
0.0
 11
-41.2249939
 21
-33.6000015
 31
0.0
  0
LINE
  5
8D
330
1E
100
AcDbEntity
  8
0
 62
     7
100
AcDbLine
 10
-39.0249939
 20
-39.1000015
 30
0.0
 11
-41.2249939
 21
-39.1000015
 31
0.0
  0
ARC
  5
8E
330
1E
100
AcDbEntity
  8
0
 62
     7
100
AcDbCircle
 10
-18.82499389999999
 20
-33.3000015
 30
0.0
 40
0.3
100
AcDbArc
 50
270.0
 51
0.0
  0
ARC
  5
8F
330
1E
100
AcDbEntity
  8
0
 62
     7
100
AcDbCircle
 10
-18.82499389999999
 20
-39.4000015
 30
0.0
 40
0.3
100
AcDbArc
 50
0.0
 51
90.00000020000001
  0
ARC
  5
90
330
1E
100
AcDbEntity
  8
0
 62
     7
100
AcDbCircle
 10
-41.2249939
 20
-39.4000015
 30
0.0
 40
0.3
100
AcDbArc
 50
90.00000020000001
 51
180.0
  0
ARC
  5
91
330
1E
100
AcDbEntity
  8
0
 62
     7
100
AcDbCircle
 10
-41.2249939
 20
-33.3000015
 30
0.0
 40
0.3
100
AcDbArc
 50
180.0
 51
270.0
  0
CIRCLE
  5
92
330
1E
100
AcDbEntity
  8
0
 62
     7
100
AcDbCircle
 10
-35.52499389999999
 20
-44.8500015
 30
0.0
 40
1.5
  0
CIRCLE
  5
93
330
1E
100
AcDbEntity
  8
0
 62
     7
100
AcDbCircle
 10
-24.52499389999999
 20
-44.8500015
 30
0.0
 40
1.5
  0
LINE
  5
94
330
1E
100
AcDbEntity
  8
0
 62
     7
100
AcDbLine
 10
-35.52499389999999
 20
-43.6000015
 30
0.0
 11
-34.44246210000001
 21
-45.4750015
 31
0.0
  0
LINE
  5
95
330
1E
100
AcDbEntity
  8
0
 62
     7
100
AcDbLine
 10
-35.52499389999999
 20
-43.6000015
 30
0.0
 11
-36.6075257
 21
-45.4750015
 31
0.0
  0
LINE
  5
96
330
1E
100
AcDbEntity
  8
0
 62
     7
100
AcDbLine
 10
-24.52499389999999
 20
-46.1000015
 30
0.0
 11
-23.4424621
 21
-44.2250015
 31
0.0
  0
LINE
  5
97
330
1E
100
AcDbEntity
  8
0
 62
     7
100
AcDbLine
 10
-24.52499389999999
 20
-46.1000015
 30
0.0
 11
-25.6075257
 21
-44.2250015
 31
0.0
  0
LINE
  5
98
330
1E
100
AcDbEntity
  8
0
 62
     7
100
AcDbLine
 10
-23.4424621
 20
-44.2250015
 30
0.0
 11
-25.6075257
 21
-44.2250015
 31
0.0
  0
LINE
  5
99
330
1E
100
AcDbEntity
  8
0
 62
     7
100
AcDbLine
 10
-34.44246210000001
 20
-45.4750015
 30
0.0
 11
-36.6075257
 21
-45.4750015
 31
0.0
  0
LINE
  5
9A
330
1E
100
AcDbEntity
  8
0
 62
     7
100
AcDbLine
 10
-23.08385389999999
 20
-9.450001529999999
 30
0.0
 11
-22.16089769999999
 21
-10.25427929999999
 31
0.0
  0
LINE
  5
9B
330
1E
100
AcDbEntity
  8
0
 62
     7
100
AcDbLine
 10
-28.8249938
 20
-9.450001529999999
 30
0.0
 11
-28.1791641
 21
-10.25427929999999
 31
0.0
  0
LINE
  5
9C
330
1E
100
AcDbEntity
  8
0
 62
     7
100
AcDbLine
 10
-31.2249938
 20
-9.450001529999999
 30
0.0
 11
-31.8708236
 21
-10.25427929999999
 31
0.0
  0
LINE
  5
9D
330
1E
100
AcDbEntity
  8
0
 62
     7
100
AcDbLine
 10
-36.96613389999999
 20
-9.450001529999999
 30
0.0
 11
-37.8890901
 21
-10.25427929999999
 31
0.0
  0
ARC
  5
9E
330
1E
100
AcDbEntity
  8
0
  6
DASHED
 62
     2
100
AcDbCircle
 10
-30.0249939
 20
-37.8500015
 30
0.0
 40
1.5
100
AcDbArc
 50
228.1896849999999
 51
131.810315
  0
LINE
  5
9F
330
1E
100
AcDbEntity
  8
0
  6
DASHED
 62
     2
100
AcDbLine
 10
-31.0249939
 20
-38.96803549999999
 30
0.0
 11
-31.0249939
 21
-36.73196749999999
 31
0.0
  0
LINE
  5
A0
330
1E
100
AcDbEntity
  8
0
  6
CENTER
 62
     2
100
AcDbLine
 10
-32.5249939
 20
-37.8500015
 30
0.0
 11
-27.5249939
 21
-37.8500015
 31
0.0
  0
LINE
  5
A1
330
1E
100
AcDbEntity
  8
0
 62
     7
100
AcDbLine
 10
-22.02499389999999
 20
-21.1500015
 30
0.0
 11
-22.02499389999999
 21
-13.6500015
 31
0.0
  0
LINE
  5
A2
330
1E
100
AcDbEntity
  8
0
 62
     7
100
AcDbLine
 10
-38.02499389999999
 20
-21.1500015
 30
0.0
 11
-38.02499389999999
 21
-13.6500015
 31
0.0
  0
LINE
  5
A3
330
1E
100
AcDbEntity
  8
0
 62
     7
100
AcDbLine
 10
76.7430995
 20
4.04999847
 30
0.0
 11
77.7430995
 21
3.049998469999999
 31
0.0
  0
LINE
  5
A4
330
1E
100
AcDbEntity
  8
0
 62
     7
100
AcDbLine
 10
62.2081094
 20
3.084267909999999
 30
0.0
 11
63.2437287
 21
4.04999847
 31
0.0
  0
LINE
  5
A5
330
1E
100
AcDbEntity
  8
0
 62
     7
100
AcDbLine
 10
78.2250061
 20
-10.75000149999999
 30
0.0
 11
77.7430995
 21
3.049998469999999
 31
0.0
  0
LINE
  5
A6
330
1E
100
AcDbEntity
  8
0
 62
     7
100
AcDbLine
 10
61.7250061
 20
-10.75000149999999
 30
0.0
 11
62.2081094
 21
3.084267909999999
 31
0.0
  0
LINE
  5
A7
330
1E
100
AcDbEntity
  8
0
 62
     7
100
AcDbLine
 10
61.7250061
 20
-10.75000149999999
 30
0.0
 11
61.92500609999999
 21
-10.95000149999999
 31
0.0
  0
LINE
  5
A8
330
1E
100
AcDbEntity
  8
0
 62
     7
100
AcDbLine
 10
63.2437287
 20
4.04999847
 30
0.0
 11
76.7430995
 21
4.04999847
 31
0.0
  0
LINE
  5
A9
330
1E
100
AcDbEntity
  8
0
 62
     7
100
AcDbLine
 10
78.2250061
 20
-10.75000149999999
 30
0.0
 11
78.0250061
 21
-10.95000149999999
 31
0.0
  0
LINE
  5
AA
330
1E
100
AcDbEntity
  8
0
 62
     7
100
AcDbLine
 10
61.92500609999999
 20
-10.95000149999999
 30
0.0
 11
78.0250061
 21
-10.95000149999999
 31
0.0
  0
LINE
  5
AB
330
1E
100
AcDbEntity
  8
0
 62
     7
100
AcDbLine
 10
76.2250061
 20
-13.6500015
 30
0.0
 11
76.2250061
 21
-10.95000149999999
 31
0.0
  0
LINE
  5
AC
330
1E
100
AcDbEntity
  8
0
 62
     7
100
AcDbLine
 10
63.7250061
 20
-13.6500015
 30
0.0
 11
63.7250061
 21
-10.95000149999999
 31
0.0
  0
LINE
  5
AD
330
1E
100
AcDbEntity
  8
0
 62
     7
100
AcDbLine
 10
78.4750061
 20
-13.6500015
 30
0.0
 11
78.9750061
 21
-14.1500015
 31
0.0
  0
LINE
  5
AE
330
1E
100
AcDbEntity
  8
0
 62
     7
100
AcDbLine
 10
78.9750061
 20
-21.1500015
 30
0.0
 11
78.9750061
 21
-14.1500015
 31
0.0
  0
LINE
  5
AF
330
1E
100
AcDbEntity
  8
0
 62
     7
100
AcDbLine
 10
78.9750061
 20
-21.1500015
 30
0.0
 11
78.4750061
 21
-20.6500015
 31
0.0
  0
LINE
  5
B0
330
1E
100
AcDbEntity
  8
0
 62
     7
100
AcDbLine
 10
60.9750061
 20
-21.1500015
 30
0.0
 11
60.9750061
 21
-14.1500015
 31
0.0
  0
LINE
  5
B1
330
1E
100
AcDbEntity
  8
0
 62
     7
100
AcDbLine
 10
61.4750061
 20
-13.6500015
 30
0.0
 11
78.4750061
 21
-13.6500015
 31
0.0
  0
LINE
  5
B2
330
1E
100
AcDbEntity
  8
0
 62
     7
100
AcDbLine
 10
61.4750061
 20
-13.6500015
 30
0.0
 11
60.9750061
 21
-14.1500015
 31
0.0
  0
LINE
  5
B3
330
1E
100
AcDbEntity
  8
0
 62
     7
100
AcDbLine
 10
60.9750061
 20
-21.1500015
 30
0.0
 11
61.4750061
 21
-20.6500015
 31
0.0
  0
LINE
  5
B4
330
1E
100
AcDbEntity
  8
0
 62
     7
100
AcDbLine
 10
60.9750061
 20
-14.1500015
 30
0.0
 11
65.8519005
 21
-14.1500015
 31
0.0
  0
LINE
  5
B5
330
1E
100
AcDbEntity
  8
0
 62
     2
100
AcDbLine
 10
78.4750061
 20
-20.6500015
 30
0.0
 11
78.4750061
 21
-13.6500015
 31
0.0
  0
LINE
  5
B6
330
1E
100
AcDbEntity
  8
0
 62
     2
100
AcDbLine
 10
61.4750061
 20
-20.6500015
 30
0.0
 11
61.4750061
 21
-13.6500015
 31
0.0
  0
LINE
  5
B7
330
1E
100
AcDbEntity
  8
0
 62
     7
100
AcDbLine
 10
61.4750061
 20
-20.6500015
 30
0.0
 11
65.8519005
 21
-20.6500015
 31
0.0
  0
LINE
  5
B8
330
1E
100
AcDbEntity
  8
0
 62
     7
100
AcDbLine
 10
65.27066689999999
 20
-9.450001529999999
 30
0.0
 11
67.34912790000001
 21
-9.450001529999999
 31
0.0
  0
LINE
  5
B9
330
1E
100
AcDbEntity
  8
0
 62
     7
100
AcDbLine
 10
65.50515779999999
 20
3.896041659999999
 30
0.0
 11
65.27066689999999
 21
-9.450001529999999
 31
0.0
  0
LINE
  5
BA
330
1E
100
AcDbEntity
  8
0
 62
     7
100
AcDbLine
 10
67.58361879999999
 20
3.896041659999999
 30
0.0
 11
67.568118
 21
3.01381412
 31
0.0
  0
LINE
  5
BB
330
1E
100
AcDbEntity
  8
0
 62
     7
100
AcDbLine
 10
65.50515779999999
 20
3.896041659999999
 30
0.0
 11
67.58361879999999
 21
3.896041659999999
 31
0.0
  0
LINE
  5
BC
330
1E
100
AcDbEntity
  8
0
 62
     7
100
AcDbLine
 10
64.3616123
 20
-10.25427929999999
 30
0.0
 11
67.56604870000001
 21
-10.25427929999999
 31
0.0
  0
LINE
  5
BD
330
1E
100
AcDbEntity
  8
0
 62
     7
100
AcDbLine
 10
67.56604870000001
 20
-10.25427929999999
 30
0.0
 11
67.56604870000001
 21
3.01381412
 31
0.0
  0
LINE
  5
BE
330
1E
100
AcDbEntity
  8
0
 62
     7
100
AcDbLine
 10
64.78254320000001
 20
3.01381412
 30
0.0
 11
64.3616123
 21
-10.25427929999999
 31
0.0
  0
LINE
  5
BF
330
1E
100
AcDbEntity
  8
0
 62
     7
100
AcDbLine
 10
75.167469
 20
3.01381412
 30
0.0
 11
75.58839990000001
 21
-10.25427929999999
 31
0.0
  0
LINE
  5
C0
330
1E
100
AcDbEntity
  8
0
 62
     7
100
AcDbLine
 10
72.38396350000001
 20
-10.25427929999999
 30
0.0
 11
72.38396350000001
 21
3.01381412
 31
0.0
  0
LINE
  5
C1
330
1E
100
AcDbEntity
  8
0
 62
     7
100
AcDbLine
 10
75.58839990000001
 20
-10.25427929999999
 30
0.0
 11
72.38396350000001
 21
-10.25427929999999
 31
0.0
  0
LINE
  5
C2
330
1E
100
AcDbEntity
  8
0
 62
     7
100
AcDbLine
 10
74.44485440000001
 20
3.896041659999999
 30
0.0
 11
72.3663934
 21
3.896041659999999
 31
0.0
  0
LINE
  5
C3
330
1E
100
AcDbEntity
  8
0
 62
     7
100
AcDbLine
 10
72.3663934
 20
3.896041659999999
 30
0.0
 11
72.38189420000001
 21
3.01381412
 31
0.0
  0
LINE
  5
C4
330
1E
100
AcDbEntity
  8
0
 62
     7
100
AcDbLine
 10
74.44485440000001
 20
3.896041659999999
 30
0.0
 11
74.67934529999999
 21
-9.450001529999999
 31
0.0
  0
LINE
  5
C5
330
1E
100
AcDbEntity
  8
0
 62
     7
100
AcDbLine
 10
74.67934529999999
 20
-9.450001529999999
 30
0.0
 11
72.6008843
 21
-9.450001529999999
 31
0.0
  0
LINE
  5
C6
330
1E
100
AcDbEntity
  8
0
 62
     7
100
AcDbLine
 10
67.56604870000001
 20
3.01381412
 30
0.0
 11
72.38396350000001
 21
3.01381412
 31
0.0
  0
LINE
  5
C7
330
1E
100
AcDbEntity
  8
0
 62
     7
100
AcDbLine
 10
61.7250061
 20
-10.75000149999999
 30
0.0
 11
78.2250061
 21
-10.75000149999999
 31
0.0
  0
LINE
  5
C8
330
1E
100
AcDbEntity
  8
0
 62
     7
100
AcDbLine
 10
61.95420849999999
 20
-10.25427929999999
 30
0.0
 11
62.3668934
 21
3.01381412
 31
0.0
  0
LINE
  5
C9
330
1E
100
AcDbEntity
  8
0
 62
     7
100
AcDbLine
 10
64.78254320000001
 20
3.01381412
 30
0.0
 11
62.3668934
 21
3.01381412
 31
0.0
  0
LINE
  5
CA
330
1E
100
AcDbEntity
  8
0
 62
     7
100
AcDbLine
 10
62.9950393
 20
3.81809186
 30
0.0
 11
63.0786302
 21
3.81809186
 31
0.0
  0
LINE
  5
CB
330
1E
100
AcDbEntity
  8
0
 62
     7
100
AcDbLine
 10
75.167469
 20
3.01381412
 30
0.0
 11
77.58311879999999
 21
3.01381412
 31
0.0
  0
LINE
  5
CC
330
1E
100
AcDbEntity
  8
0
 62
     7
100
AcDbLine
 10
76.9549729
 20
3.81809186
 30
0.0
 11
76.87138199999999
 21
3.81809186
 31
0.0
  0
LINE
  5
CD
330
1E
100
AcDbEntity
  8
0
 62
     7
100
AcDbLine
 10
77.9958037
 20
-10.25427929999999
 30
0.0
 11
77.58311879999999
 21
3.01381412
 31
0.0
  0
LINE
  5
CE
330
1E
100
AcDbEntity
  8
0
 62
     7
100
AcDbLine
 10
75.167469
 20
3.01381412
 30
0.0
 11
74.44485440000001
 21
3.896041659999999
 31
0.0
  0
LINE
  5
CF
330
1E
100
AcDbEntity
  8
0
 62
     7
100
AcDbLine
 10
77.58311879999999
 20
3.01381412
 30
0.0
 11
76.87138199999999
 21
3.81809186
 31
0.0
  0
LINE
  5
D0
330
1E
100
AcDbEntity
  8
0
 62
     7
100
AcDbLine
 10
62.3668934
 20
3.01381412
 30
0.0
 11
63.0786302
 21
3.81809186
 31
0.0
  0
LINE
  5
D1
330
1E
100
AcDbEntity
  8
0
 62
     7
100
AcDbLine
 10
64.78254320000001
 20
3.01381412
 30
0.0
 11
65.50515779999999
 21
3.896041659999999
 31
0.0
  0
LINE
  5
D2
330
1E
100
AcDbEntity
  8
0
 62
     7
100
AcDbLine
 10
67.56604870000001
 20
2.896042369999999
 30
0.0
 11
67.34912790000001
 21
-9.450001529999999
 31
0.0
  0
LINE
  5
D3
330
1E
100
AcDbEntity
  8
0
 62
     7
100
AcDbLine
 10
72.38396350000001
 20
2.896042369999999
 30
0.0
 11
72.6008843
 21
-9.450001529999999
 31
0.0
  0
LINE
  5
D4
330
1E
100
AcDbEntity
  8
0
 62
     7
100
AcDbLine
 10
72.38396350000001
 20
3.01381412
 30
0.0
 11
72.3663934
 21
3.896041659999999
 31
0.0
  0
LINE
  5
D5
330
1E
100
AcDbEntity
  8
0
 62
     7
100
AcDbLine
 10
67.56604870000001
 20
3.01381412
 30
0.0
 11
67.58361879999999
 21
3.896041659999999
 31
0.0
  0
LINE
  5
D6
330
1E
100
AcDbEntity
  8
0
 62
     7
100
AcDbLine
 10
75.2750061
 20
-29.0500015
 30
0.0
 11
66.3750061
 21
-29.0500015
 31
0.0
  0
LINE
  5
D7
330
1E
100
AcDbEntity
  8
0
 62
     7
100
AcDbLine
 10
66.4750061
 20
-28.6500015
 30
0.0
 11
73.4750061
 21
-28.6500015
 31
0.0
  0
LINE
  5
D8
330
1E
100
AcDbEntity
  8
0
 62
     7
100
AcDbLine
 10
66.3750061
 20
-25.6500015
 30
0.0
 11
75.2750061
 21
-25.6500015
 31
0.0
  0
LINE
  5
D9
330
1E
100
AcDbEntity
  8
0
 62
     7
100
AcDbLine
 10
58.4750061
 20
-22.6500015
 30
0.0
 11
81.47500609999999
 21
-22.6500015
 31
0.0
  0
LINE
  5
DA
330
1E
100
AcDbEntity
  8
0
 62
     7
100
AcDbLine
 10
58.4750061
 20
-46.3500015
 30
0.0
 11
58.4750061
 21
-22.6500015
 31
0.0
  0
ARC
  5
DB
330
1E
100
AcDbEntity
  8
0
 62
     7
100
AcDbCircle
 10
59.4750061
 20
-22.1500015
 30
0.0
 40
1.0
100
AcDbArc
 50
90.00000020000001
 51
180.0
  0
LINE
  5
DC
330
1E
100
AcDbEntity
  8
0
 62
     7
100
AcDbLine
 10
59.4750061
 20
-21.1500015
 30
0.0
 11
80.4750061
 21
-21.1500015
 31
0.0
  0
LINE
  5
DD
330
1E
100
AcDbEntity
  8
0
 62
     7
100
AcDbLine
 10
81.47500609999999
 20
-46.3500015
 30
0.0
 11
81.47500609999999
 21
-22.6500015
 31
0.0
  0
ARC
  5
DE
330
1E
100
AcDbEntity
  8
0
 62
     7
100
AcDbCircle
 10
80.4750061
 20
-22.1500015
 30
0.0
 40
1.0
100
AcDbArc
 50
0.0
 51
90.00000020000001
  0
LINE
  5
DF
330
1E
100
AcDbEntity
  8
0
 62
     7
100
AcDbLine
 10
58.4750061
 20
-22.6500015
 30
0.0
 11
58.4750061
 21
-22.1500015
 31
0.0
  0
LINE
  5
E0
330
1E
100
AcDbEntity
  8
0
 62
     7
100
AcDbLine
 10
81.47500609999999
 20
-22.6500015
 30
0.0
 11
81.47500609999999
 21
-22.1500015
 31
0.0
  0
LINE
  5
E1
330
1E
100
AcDbEntity
  8
0
 62
     7
100
AcDbLine
 10
75.2750061
 20
-29.0500015
 30
0.0
 11
75.2750061
 21
-25.6500015
 31
0.0
  0
LINE
  5
E2
330
1E
100
AcDbEntity
  8
0
 62
     7
100
AcDbLine
 10
66.3750061
 20
-29.0500015
 30
0.0
 11
66.3750061
 21
-25.6500015
 31
0.0
  0
LINE
  5
E3
330
1E
100
AcDbEntity
  8
0
 62
     7
100
AcDbLine
 10
66.4750061
 20
-28.6500015
 30
0.0
 11
66.4750061
 21
-25.9562118
 31
0.0
  0
LINE
  5
E4
330
1E
100
AcDbEntity
  8
0
 62
     7
100
AcDbLine
 10
73.4750061
 20
-28.6500015
 30
0.0
 11
73.4750061
 21
-25.6500015
 31
0.0
  0
LINE
  5
E5
330
1E
100
AcDbEntity
  8
0
 62
     7
100
AcDbLine
 10
69.9750061
 20
-25.6500015
 30
0.0
 11
66.4750061
 21
-25.9562118
 31
0.0
  0
LINE
  5
E6
330
1E
100
AcDbEntity
  8
0
 62
     7
100
AcDbLine
 10
59.4750061
 20
-47.3500015
 30
0.0
 11
80.4750061
 21
-47.3500015
 31
0.0
  0
ARC
  5
E7
330
1E
100
AcDbEntity
  8
0
 62
     7
100
AcDbCircle
 10
59.4750061
 20
-46.3500015
 30
0.0
 40
1.0
100
AcDbArc
 50
180.0
 51
270.0
  0
ARC
  5
E8
330
1E
100
AcDbEntity
  8
0
 62
     7
100
AcDbCircle
 10
80.4750061
 20
-46.3500015
 30
0.0
 40
1.0
100
AcDbArc
 50
270.0
 51
0.0
  0
LINE
  5
E9
330
1E
100
AcDbEntity
  8
0
  6
CENTER
 62
     2
100
AcDbLine
 10
71.4750061
 20
-58.1059787
 30
0.0
 11
71.4750061
 21
-46.34913710000001
 31
0.0
  0
LINE
  5
EA
330
1E
100
AcDbEntity
  8
0
 62
     7
100
AcDbLine
 10
76.4250061
 20
-53.9571812
 30
0.0
 11
76.4250061
 21
-47.3500015
 31
0.0
  0
LINE
  5
EB
330
1E
100
AcDbEntity
  8
0
 62
     7
100
AcDbLine
 10
66.5250061
 20
-53.9571812
 30
0.0
 11
66.5250061
 21
-47.3500015
 31
0.0
  0
LINE
  5
EC
330
1E
100
AcDbEntity
  8
0
 62
     7
100
AcDbLine
 10
66.57500609999999
 20
-56.5500015
 30
0.0
 11
66.57500609999999
 21
-55.75000150000001
 31
0.0
  0
LINE
  5
ED
330
1E
100
AcDbEntity
  8
0
 62
     7
100
AcDbLine
 10
66.57500609999999
 20
-55.75000150000001
 30
0.0
 11
67.44103149999999
 21
-55.2500015
 31
0.0
  0
LINE
  5
EE
330
1E
100
AcDbEntity
  8
0
 62
     7
100
AcDbLine
 10
67.9750061
 20
-55.2500015
 30
0.0
 11
67.9750061
 21
-54.6500015
 31
0.0
  0
LINE
  5
EF
330
1E
100
AcDbEntity
  8
0
 62
     7
100
AcDbLine
 10
76.02500609999999
 20
-54.6500015
 30
0.0
 11
66.9250061
 21
-54.6500015
 31
0.0
  0
LINE
  5
F0
330
1E
100
AcDbEntity
  8
0
 62
     7
100
AcDbLine
 10
75.50898070000001
 20
-55.2500015
 30
0.0
 11
67.44103149999999
 21
-55.2500015
 31
0.0
  0
LINE
  5
F1
330
1E
100
AcDbEntity
  8
0
 62
     7
100
AcDbLine
 10
76.3750061
 20
-55.75000150000001
 30
0.0
 11
66.57500609999999
 21
-55.75000150000001
 31
0.0
  0
LINE
  5
F2
330
1E
100
AcDbEntity
  8
0
 62
     7
100
AcDbLine
 10
74.9750061
 20
-55.2500015
 30
0.0
 11
74.9750061
 21
-54.6500015
 31
0.0
  0
LINE
  5
F3
330
1E
100
AcDbEntity
  8
0
 62
     7
100
AcDbLine
 10
76.3750061
 20
-55.75000150000001
 30
0.0
 11
75.50898070000001
 21
-55.2500015
 31
0.0
  0
LINE
  5
F4
330
1E
100
AcDbEntity
  8
0
 62
     7
100
AcDbLine
 10
76.3750061
 20
-56.5500015
 30
0.0
 11
76.3750061
 21
-55.75000150000001
 31
0.0
  0
LINE
  5
F5
330
1E
100
AcDbEntity
  8
0
 62
     7
100
AcDbLine
 10
66.7750061
 20
-56.7500015
 30
0.0
 11
76.1750061
 21
-56.7500015
 31
0.0
  0
LINE
  5
F6
330
1E
100
AcDbEntity
  8
0
 62
     7
100
AcDbLine
 10
66.9250061
 20
-54.6500015
 30
0.0
 11
66.5250061
 21
-53.9571812
 31
0.0
  0
LINE
  5
F7
330
1E
100
AcDbEntity
  8
0
 62
     7
100
AcDbLine
 10
76.02500609999999
 20
-54.6500015
 30
0.0
 11
76.4250061
 21
-53.9571812
 31
0.0
  0
LINE
  5
F8
330
1E
100
AcDbEntity
  8
0
  6
DASHED
 62
     2
100
AcDbLine
 10
68.4750061
 20
-56.7500015
 30
0.0
 11
68.4750061
 21
-53.6500015
 31
0.0
  0
LINE
  5
F9
330
1E
100
AcDbEntity
  8
0
  6
DASHED
 62
     2
100
AcDbLine
 10
74.4750061
 20
-56.7500015
 30
0.0
 11
74.4750061
 21
-53.6500015
 31
0.0
  0
ARC
  5
FA
330
1E
100
AcDbEntity
  8
0
 62
     7
100
AcDbCircle
 10
66.7750061
 20
-56.5500015
 30
0.0
 40
0.2
100
AcDbArc
 50
180.0
 51
270.0
  0
ARC
  5
FB
330
1E
100
AcDbEntity
  8
0
 62
     7
100
AcDbCircle
 10
76.1750061
 20
-56.5500015
 30
0.0
 40
0.2
100
AcDbArc
 50
270.0
 51
0.0
  0
LINE
  5
FC
330
1E
100
AcDbEntity
  8
0
 62
     7
100
AcDbLine
 10
77.9958037
 20
-10.25427929999999
 30
0.0
 11
78.20769509999999
 21
-10.25427929999999
 31
0.0
  0
LINE
  5
FD
330
1E
100
AcDbEntity
  8
0
 62
     7
100
AcDbLine
 10
61.95420849999999
 20
-10.25427929999999
 30
0.0
 11
61.74231709999999
 21
-10.25427929999999
 31
0.0
  0
LINE
  5
FE
330
1E
100
AcDbEntity
  8
0
 62
     7
100
AcDbLine
 10
74.67934529999999
 20
-9.450001529999999
 30
0.0
 11
75.58839990000001
 21
-10.25427929999999
 31
0.0
  0
LINE
  5
FF
330
1E
100
AcDbEntity
  8
0
 62
     7
100
AcDbLine
 10
72.6008843
 20
-9.450001529999999
 30
0.0
 11
72.38396350000001
 21
-10.25427929999999
 31
0.0
  0
LINE
  5
100
330
1E
100
AcDbEntity
  8
0
 62
     7
100
AcDbLine
 10
67.34912790000001
 20
-9.450001529999999
 30
0.0
 11
67.56604870000001
 21
-10.25427929999999
 31
0.0
  0
LINE
  5
101
330
1E
100
AcDbEntity
  8
0
 62
     7
100
AcDbLine
 10
65.27066689999999
 20
-9.450001529999999
 30
0.0
 11
64.3616123
 21
-10.25427929999999
 31
0.0
  0
LINE
  5
102
330
1E
100
AcDbEntity
  8
0
 62
     7
100
AcDbLine
 10
73.4750061
 20
-45.1500015
 30
0.0
 11
64.4750061
 21
-45.1500015
 31
0.0
  0
LINE
  5
103
330
1E
100
AcDbEntity
  8
0
 62
     7
100
AcDbLine
 10
73.4750061
 20
-43.8500015
 30
0.0
 11
64.4750061
 21
-43.8500015
 31
0.0
  0
LINE
  5
104
330
1E
100
AcDbEntity
  8
0
 62
     7
100
AcDbLine
 10
73.4750061
 20
-45.1500015
 30
0.0
 11
73.4750061
 21
-43.8500015
 31
0.0
  0
LINE
  5
105
330
1E
100
AcDbEntity
  8
0
 62
     7
100
AcDbLine
 10
65.4310061
 20
-45.1500015
 30
0.0
 11
65.4310061
 21
-43.8500015
 31
0.0
  0
LINE
  5
106
330
1E
100
AcDbEntity
  8
0
 62
     7
100
AcDbLine
 10
64.4750061
 20
-45.1500015
 30
0.0
 11
64.4750061
 21
-43.8500015
 31
0.0
  0
LINE
  5
107
330
1E
100
AcDbEntity
  8
0
 62
     7
100
AcDbLine
 10
81.47500609999999
 20
-45.1500015
 30
0.0
 11
80.4750061
 21
-45.1500015
 31
0.0
  0
LINE
  5
108
330
1E
100
AcDbEntity
  8
0
 62
     7
100
AcDbLine
 10
81.47500609999999
 20
-43.8500015
 30
0.0
 11
80.4750061
 21
-43.8500015
 31
0.0
  0
LINE
  5
109
330
1E
100
AcDbEntity
  8
0
 62
     7
100
AcDbLine
 10
80.4750061
 20
-45.1500015
 30
0.0
 11
80.4750061
 21
-43.8500015
 31
0.0
  0
LINE
  5
10A
330
1E
100
AcDbEntity
  8
0
  6
CENTER
 62
     2
100
AcDbLine
 10
70.96513090000001
 20
-37.8500015
 30
0.0
 11
84.0663785
 21
-37.8500015
 31
0.0
  0
LINE
  5
10B
330
1E
100
AcDbEntity
  8
0
  6
DASHED
 62
     2
100
AcDbLine
 10
81.47500609999999
 20
-39.3500015
 30
0.0
 11
74.04777740000001
 21
-39.3500015
 31
0.0
  0
LINE
  5
10C
330
1E
100
AcDbEntity
  8
0
  6
DASHED
 62
     2
100
AcDbLine
 10
81.47500609999999
 20
-36.3500015
 30
0.0
 11
74.04777740000001
 21
-36.3500015
 31
0.0
  0
LINE
  5
10D
330
1E
100
AcDbEntity
  8
0
 62
     7
100
AcDbLine
 10
72.84728740000002
 20
-13.6500015
 30
0.0
 11
74.09811170000001
 21
-14.1500015
 31
0.0
  0
LINE
  5
10E
330
1E
100
AcDbEntity
  8
0
 62
     7
100
AcDbLine
 10
74.09811170000001
 20
-21.1500015
 30
0.0
 11
74.09811170000001
 21
-14.1500015
 31
0.0
  0
LINE
  5
10F
330
1E
100
AcDbEntity
  8
0
 62
     7
100
AcDbLine
 10
67.1027248
 20
-13.6500015
 30
0.0
 11
65.8519005
 21
-14.1500015
 31
0.0
  0
LINE
  5
110
330
1E
100
AcDbEntity
  8
0
 62
     7
100
AcDbLine
 10
65.8519005
 20
-21.1500015
 30
0.0
 11
65.8519005
 21
-14.1500015
 31
0.0
  0
LINE
  5
111
330
1E
100
AcDbEntity
  8
0
 62
     7
100
AcDbLine
 10
74.09811170000001
 20
-14.1500015
 30
0.0
 11
78.9750061
 21
-14.1500015
 31
0.0
  0
LINE
  5
112
330
1E
100
AcDbEntity
  8
0
 62
     7
100
AcDbLine
 10
74.09811170000001
 20
-20.6500015
 30
0.0
 11
78.4750061
 21
-20.6500015
 31
0.0
  0
LINE
  5
113
330
1E
100
AcDbEntity
  8
0
 62
     2
100
AcDbLine
 10
65.8519005
 20
-14.1500015
 30
0.0
 11
74.09811170000001
 21
-21.1500015
 31
0.0
  0
LINE
  5
114
330
1E
100
AcDbEntity
  8
0
 62
     2
100
AcDbLine
 10
74.09811170000001
 20
-14.1500015
 30
0.0
 11
65.8519005
 21
-21.1500015
 31
0.0
  0
LINE
  5
115
330
1E
100
AcDbEntity
  8
0
 62
     7
100
AcDbLine
 10
58.7750061
 20
-33.6000015
 30
0.0
 11
61.6750061
 21
-33.6000015
 31
0.0
  0
LINE
  5
116
330
1E
100
AcDbEntity
  8
0
 62
     7
100
AcDbLine
 10
61.9750061
 20
-33.9000015
 30
0.0
 11
61.9750061
 21
-38.8000015
 31
0.0
  0
LINE
  5
117
330
1E
100
AcDbEntity
  8
0
 62
     7
100
AcDbLine
 10
58.7750061
 20
-39.1000015
 30
0.0
 11
61.6750061
 21
-39.1000015
 31
0.0
  0
ARC
  5
118
330
1E
100
AcDbEntity
  8
0
 62
     7
100
AcDbCircle
 10
61.6750061
 20
-33.9000015
 30
0.0
 40
0.3
100
AcDbArc
 50
0.0
 51
90.00000020000001
  0
ARC
  5
119
330
1E
100
AcDbEntity
  8
0
 62
     7
100
AcDbCircle
 10
61.6750061
 20
-38.8000015
 30
0.0
 40
0.3
100
AcDbArc
 50
270.0
 51
0.0
  0
ARC
  5
11A
330
1E
100
AcDbEntity
  8
0
 62
     7
100
AcDbCircle
 10
58.7750061
 20
-39.4000015
 30
0.0
 40
0.3
100
AcDbArc
 50
90.00000020000001
 51
180.0
  0
ARC
  5
11B
330
1E
100
AcDbEntity
  8
0
 62
     7
100
AcDbCircle
 10
58.7750061
 20
-33.3000015
 30
0.0
 40
0.3
100
AcDbArc
 50
180.0
 51
270.0
  0
LINE
  5
11C
330
1E
100
AcDbEntity
  8
0
  6
CENTER
 62
     6
100
AcDbLine
 10
37.031267
 20
-40.1500015
 30
0.0
 11
60.86283869999999
 21
-40.1500015
 31
0.0
  0
LINE
  5
11D
330
1E
100
AcDbEntity
  8
0
  6
PHANTOM
 62
     6
100
AcDbLine
 10
53.9505282
 20
-35.1439002
 30
0.0
 11
58.4750061
 21
-35.2852912
 31
0.0
  0
LINE
  5
11E
330
1E
100
AcDbEntity
  8
0
  6
PHANTOM
 62
     6
100
AcDbLine
 10
55.4750061
 20
-35.7774835
 30
0.0
 11
58.4750061
 21
-35.8712342
 31
0.0
  0
LINE
  5
11F
330
1E
100
AcDbEntity
  8
0
  6
PHANTOM
 62
     6
100
AcDbLine
 10
55.4750061
 20
-44.5226869
 30
0.0
 11
58.4750061
 21
-44.42893759999999
 31
0.0
  0
LINE
  5
120
330
1E
100
AcDbEntity
  8
0
  6
PHANTOM
 62
     6
100
AcDbLine
 10
53.97500459999999
 20
-45.1555637
 30
0.0
 11
58.4750061
 21
-45.0149398
 31
0.0
  0
LINE
  5
121
330
1E
100
AcDbEntity
  8
0
  6
CENTER
 62
     2
100
AcDbLine
 10
57.6755253
 20
-36.3500015
 30
0.0
 11
63.0461939
 21
-36.3500015
 31
0.0
  0
LINE
  5
122
330
1E
100
AcDbEntity
  8
0
  6
PHANTOM
 62
     6
100
AcDbLine
 10
52.9750061
 20
-49.1500015
 30
0.0
 11
42.76175739999999
 21
-49.1500015
 31
0.0
  0
ARC
  5
123
330
1E
100
AcDbEntity
  8
0
  6
PHANTOM
 62
     6
100
AcDbCircle
 10
42.76175739999999
 20
-48.1500015
 30
0.0
 40
1.0
100
AcDbArc
 50
210.0
 51
270.0
  0
LINE
  5
124
330
1E
100
AcDbEntity
  8
0
  6
PHANTOM
 62
     6
100
AcDbLine
 10
40.0089807
 20
-45.38205229999999
 30
0.0
 11
41.895732
 21
-48.6500015
 31
0.0
  0
ARC
  5
125
330
1E
100
AcDbEntity
  8
0
  6
PHANTOM
 62
     6
100
AcDbCircle
 10
40.8750061
 20
-44.8820523
 30
0.0
 40
1.0
100
AcDbArc
 50
180.0
 51
210.0
  0
LINE
  5
126
330
1E
100
AcDbEntity
  8
0
  6
PHANTOM
 62
     6
100
AcDbLine
 10
52.9750061
 20
-45.01665189999999
 30
0.0
 11
48.9750061
 21
-45.01665189999999
 31
0.0
  0
LINE
  5
127
330
1E
100
AcDbEntity
  8
0
  6
PHANTOM
 62
     6
100
AcDbLine
 10
52.9750061
 20
-44.2731072
 30
0.0
 11
48.9750061
 21
-44.2731072
 31
0.0
  0
LINE
  5
128
330
1E
100
AcDbEntity
  8
0
  6
PHANTOM
 62
     6
100
AcDbLine
 10
48.9750061
 20
-45.01665189999999
 30
0.0
 11
48.9750061
 21
-49.1500015
 31
0.0
  0
LINE
  5
129
330
1E
100
AcDbEntity
  8
0
  6
PHANTOM
 62
     6
100
AcDbLine
 10
55.4750061
 20
-44.5226869
 30
0.0
 11
53.97500459999999
 21
-45.1555637
 31
0.0
  0
ARC
  5
12A
330
1E
100
AcDbEntity
  8
0
  6
PHANTOM
 62
     6
100
AcDbCircle
 10
53.4750061
 20
-45.6561029
 30
0.0
 40
0.5
100
AcDbArc
 50
90.00000020000001
 51
180.0
  0
LINE
  5
12B
330
1E
100
AcDbEntity
  8
0
  6
PHANTOM
 62
     6
100
AcDbLine
 10
53.9505282
 20
-45.1561029
 30
0.0
 11
53.4750061
 21
-45.1561029
 31
0.0
  0
LINE
  5
12C
330
1E
100
AcDbEntity
  8
0
  6
PHANTOM
 62
     6
100
AcDbLine
 10
52.9750061
 20
-31.1500015
 30
0.0
 11
42.76175739999999
 21
-31.1500015
 31
0.0
  0
LINE
  5
12D
330
1E
100
AcDbEntity
  8
0
  6
PHANTOM
 62
     6
100
AcDbLine
 10
40.0089807
 20
-34.9179507
 30
0.0
 11
41.895732
 21
-31.6500015
 31
0.0
  0
ARC
  5
12E
330
1E
100
AcDbEntity
  8
0
  6
PHANTOM
 62
     6
100
AcDbCircle
 10
42.76175739999999
 20
-32.1500015
 30
0.0
 40
1.0
100
AcDbArc
 50
90.00000020000001
 51
150.0
  0
ARC
  5
12F
330
1E
100
AcDbEntity
  8
0
  6
PHANTOM
 62
     6
100
AcDbCircle
 10
40.8750061
 20
-35.4179507
 30
0.0
 40
1.0
100
AcDbArc
 50
150.0
 51
180.0
  0
LINE
  5
130
330
1E
100
AcDbEntity
  8
0
  6
PHANTOM
 62
     6
100
AcDbLine
 10
39.9912507
 20
-35.1136338
 30
0.0
 11
39.9912507
 21
-34.9747153
 31
0.0
  0
LINE
  5
131
330
1E
100
AcDbEntity
  8
0
  6
PHANTOM
 62
     6
100
AcDbLine
 10
52.9750061
 20
-35.28335109999999
 30
0.0
 11
48.9750061
 21
-35.28335109999999
 31
0.0
  0
LINE
  5
132
330
1E
100
AcDbEntity
  8
0
  6
PHANTOM
 62
     6
100
AcDbLine
 10
52.9750061
 20
-36.0268959
 30
0.0
 11
48.9750061
 21
-36.0268959
 31
0.0
  0
LINE
  5
133
330
1E
100
AcDbEntity
  8
0
  6
PHANTOM
 62
     6
100
AcDbLine
 10
48.9750061
 20
-35.28335109999999
 30
0.0
 11
48.9750061
 21
-31.1500015
 31
0.0
  0
LINE
  5
134
330
1E
100
AcDbEntity
  8
0
  6
PHANTOM
 62
     6
100
AcDbLine
 10
55.4750061
 20
-35.7774835
 30
0.0
 11
53.9505282
 21
-35.1439002
 31
0.0
  0
LINE
  5
135
330
1E
100
AcDbEntity
  8
0
  6
PHANTOM
 62
     6
100
AcDbLine
 10
53.9505282
 20
-35.1439002
 30
0.0
 11
53.4750061
 21
-35.1439002
 31
0.0
  0
ARC
  5
136
330
1E
100
AcDbEntity
  8
0
  6
PHANTOM
 62
     6
100
AcDbCircle
 10
53.4750061
 20
-34.6439002
 30
0.0
 40
0.5
100
AcDbArc
 50
180.0
 51
270.0
  0
LINE
  5
137
330
1E
100
AcDbEntity
  8
0
  6
PHANTOM
 62
     6
100
AcDbLine
 10
55.4750061
 20
-35.2071648
 30
0.0
 11
55.4750061
 21
-45.0930634
 31
0.0
  0
LINE
  5
138
330
1E
100
AcDbEntity
  8
0
  6
PHANTOM
 62
     6
100
AcDbLine
 10
48.4750061
 20
-49.1500015
 30
0.0
 11
48.4750061
 21
-31.1500015
 31
0.0
  0
LINE
  5
139
330
1E
100
AcDbEntity
  8
0
  6
PHANTOM
 62
     6
100
AcDbLine
 10
48.9750061
 20
-44.2731072
 30
0.0
 11
48.9750061
 21
-36.0268959
 31
0.0
  0
LINE
  5
13A
330
1E
100
AcDbEntity
  8
0
  6
PHANTOM
 62
     6
100
AcDbLine
 10
39.8750061
 20
-44.8820523
 30
0.0
 11
39.8750061
 21
-35.4179507
 31
0.0
  0
LINE
  5
13B
330
1E
100
AcDbEntity
  8
0
  6
PHANTOM
 62
     6
100
AcDbLine
 10
52.9750061
 20
-49.1500015
 30
0.0
 11
52.9750061
 21
-31.1500015
 31
0.0
  0
LINE
  5
13C
330
1E
100
AcDbEntity
  8
0
  6
CENTER
 62
     2
100
AcDbLine
 10
69.9750061
 20
-49.1099906
 30
0.0
 11
69.9750061
 21
10.19040039999999
 31
0.0
  0
LINE
  5
13D
330
1E
100
AcDbEntity
  8
0
  6
CENTER
 62
     2
100
AcDbLine
 10
-21.02499389999999
 20
47.81578779999999
 30
0.0
 11
-21.02499389999999
 21
54.8028935
 31
0.0
  0
LINE
  5
13E
330
1E
100
AcDbEntity
  8
0
  6
CENTER
 62
     2
100
AcDbLine
 10
-39.0249939
 20
48.0072154
 30
0.0
 11
-39.0249939
 21
54.99432099999999
 31
0.0
  0
LINE
  5
13F
330
1E
100
AcDbEntity
  8
0
  6
CENTER
 62
     2
100
AcDbLine
 10
-43.9773692
 20
39.84999849999999
 30
0.0
 11
-15.5811945
 21
39.84999849999999
 31
0.0
  0
ARC
  5
140
330
1E
100
AcDbEntity
  8
0
 62
     7
100
AcDbCircle
 10
-30.0249939
 20
39.8499984
 30
0.0
 40
8.145386999999999
100
AcDbArc
 50
317.202216
 51
342.797785
  0
LINE
  5
141
330
1E
100
AcDbEntity
  8
0
 62
     7
100
AcDbLine
 10
-24.3529199
 20
35.1895844
 30
0.0
 11
-24.0482661
 21
34.3159172
 31
0.0
  0
LINE
  5
142
330
1E
100
AcDbEntity
  8
0
 62
     7
100
AcDbLine
 10
-24.6525571
 20
35.3625801
 30
0.0
 11
-24.0482661
 21
34.3159172
 31
0.0
  0
LINE
  5
143
330
1E
100
AcDbEntity
  8
0
 62
     7
100
AcDbLine
 10
-24.6525571
 20
35.3625801
 30
0.0
 11
-24.3529199
 21
35.1895844
 31
0.0
  0
ARC
  5
144
330
1E
100
AcDbEntity
  8
0
 62
     7
100
AcDbCircle
 10
-30.0249939
 20
39.8499984
 30
0.0
 40
7.0
100
AcDbArc
 50
320.1291109999999
 51
339.8708899999999
  0
ARC
  5
145
330
1E
100
AcDbEntity
  8
0
 62
     7
100
AcDbCircle
 10
-30.0249939
 20
39.8499984
 30
0.0
 40
7.341109
100
AcDbArc
 50
320.59204
 51
339.4079619999999
  0
LINE
  5
146
330
1E
100
AcDbEntity
  8
0
 62
     7
100
AcDbLine
 10
-23.4525571
 20
37.4410411
 30
0.0
 11
-23.15291989999999
 21
37.26804539999999
 31
0.0
  0
LINE
  5
147
330
1E
100
AcDbEntity
  8
0
 62
     7
100
AcDbLine
 10
-23.4525571
 20
37.4410411
 30
0.0
 11
-22.24397499999999
 21
37.44104099999999
 31
0.0
  0
LINE
  5
148
330
1E
100
AcDbEntity
  8
0
 62
     7
100
AcDbLine
 10
-23.15291989999999
 20
37.26804539999999
 30
0.0
 11
-22.24397499999999
 21
37.44104099999999
 31
0.0
  0
ARC
  5
149
330
1E
100
AcDbEntity
  8
0
 62
     7
100
AcDbCircle
 10
-30.0249939
 20
39.8499984
 30
0.0
 40
8.145386999999999
100
AcDbArc
 50
257.202216
 51
282.797785
  0
LINE
  5
14A
330
1E
100
AcDbEntity
  8
0
 62
     7
100
AcDbLine
 10
-31.2249938
 20
32.6076313
 30
0.0
 11
-31.8292849
 21
31.9069597
 31
0.0
  0
LINE
  5
14B
330
1E
100
AcDbEntity
  8
0
 62
     7
100
AcDbLine
 10
-31.2249938
 20
32.95362249999999
 30
0.0
 11
-31.8292849
 21
31.9069597
 31
0.0
  0
LINE
  5
14C
330
1E
100
AcDbEntity
  8
0
 62
     7
100
AcDbLine
 10
-31.2249938
 20
32.95362249999999
 30
0.0
 11
-31.2249938
 21
32.6076313
 31
0.0
  0
ARC
  5
14D
330
1E
100
AcDbEntity
  8
0
 62
     7
100
AcDbCircle
 10
-30.0249939
 20
39.8499984
 30
0.0
 40
7.0
100
AcDbArc
 50
260.1291109999999
 51
279.870891
  0
ARC
  5
14E
330
1E
100
AcDbEntity
  8
0
 62
     7
100
AcDbCircle
 10
-30.0249939
 20
39.8499984
 30
0.0
 40
7.341109
100
AcDbArc
 50
260.59204
 51
279.407962
  0
LINE
  5
14F
330
1E
100
AcDbEntity
  8
0
 62
     7
100
AcDbLine
 10
-28.8249938
 20
32.9536226
 30
0.0
 11
-28.8249938
 21
32.6076313
 31
0.0
  0
LINE
  5
150
330
1E
100
AcDbEntity
  8
0
 62
     7
100
AcDbLine
 10
-28.8249938
 20
32.9536226
 30
0.0
 11
-28.2207028
 21
31.9069598
 31
0.0
  0
LINE
  5
151
330
1E
100
AcDbEntity
  8
0
 62
     7
100
AcDbLine
 10
-28.8249938
 20
32.6076313
 30
0.0
 11
-28.2207028
 21
31.9069598
 31
0.0
  0
ARC
  5
152
330
1E
100
AcDbEntity
  8
0
 62
     7
100
AcDbCircle
 10
-30.024994
 20
39.84999849999999
 30
0.0
 40
8.145386999999999
100
AcDbArc
 50
197.202216
 51
222.797785
  0
LINE
  5
153
330
1E
100
AcDbEntity
  8
0
 62
     7
100
AcDbLine
 10
-36.8970679
 20
37.26804529999999
 30
0.0
 11
-37.80601279999999
 21
37.44104099999999
 31
0.0
  0
LINE
  5
154
330
1E
100
AcDbEntity
  8
0
 62
     7
100
AcDbLine
 10
-36.5974306
 20
37.44104099999999
 30
0.0
 11
-37.80601279999999
 21
37.44104099999999
 31
0.0
  0
LINE
  5
155
330
1E
100
AcDbEntity
  8
0
 62
     7
100
AcDbLine
 10
-36.5974306
 20
37.44104099999999
 30
0.0
 11
-36.8970679
 21
37.26804529999999
 31
0.0
  0
ARC
  5
156
330
1E
100
AcDbEntity
  8
0
 62
     7
100
AcDbCircle
 10
-30.024994
 20
39.84999849999999
 30
0.0
 40
7.0
100
AcDbArc
 50
200.129111
 51
219.8708899999999
  0
ARC
  5
157
330
1E
100
AcDbEntity
  8
0
 62
     7
100
AcDbCircle
 10
-30.024994
 20
39.84999849999999
 30
0.0
 40
7.341109
100
AcDbArc
 50
200.5920399999999
 51
219.407962
  0
LINE
  5
158
330
1E
100
AcDbEntity
  8
0
 62
     7
100
AcDbLine
 10
-35.39743060000001
 20
35.36258
 30
0.0
 11
-35.69706779999999
 21
35.1895844
 31
0.0
  0
LINE
  5
159
330
1E
100
AcDbEntity
  8
0
 62
     7
100
AcDbLine
 10
-35.39743060000001
 20
35.36258
 30
0.0
 11
-36.0017217
 21
34.3159172
 31
0.0
  0
LINE
  5
15A
330
1E
100
AcDbEntity
  8
0
 62
     7
100
AcDbLine
 10
-35.69706779999999
 20
35.1895844
 30
0.0
 11
-36.0017217
 21
34.3159172
 31
0.0
  0
ARC
  5
15B
330
1E
100
AcDbEntity
  8
0
 62
     7
100
AcDbCircle
 10
-30.0249939
 20
39.8499986
 30
0.0
 40
8.145386999999999
100
AcDbArc
 50
137.2022169999999
 51
162.797785
  0
LINE
  5
15C
330
1E
100
AcDbEntity
  8
0
 62
     7
100
AcDbLine
 10
-35.6970679
 20
44.5104125
 30
0.0
 11
-36.0017217
 21
45.3840797
 31
0.0
  0
LINE
  5
15D
330
1E
100
AcDbEntity
  8
0
 62
     7
100
AcDbLine
 10
-35.3974307
 20
44.3374169
 30
0.0
 11
-36.0017217
 21
45.3840797
 31
0.0
  0
LINE
  5
15E
330
1E
100
AcDbEntity
  8
0
 62
     7
100
AcDbLine
 10
-35.3974307
 20
44.3374169
 30
0.0
 11
-35.6970679
 21
44.5104125
 31
0.0
  0
ARC
  5
15F
330
1E
100
AcDbEntity
  8
0
 62
     7
100
AcDbCircle
 10
-30.0249939
 20
39.84999849999999
 30
0.0
 40
7.0
100
AcDbArc
 50
140.129111
 51
159.87089
  0
ARC
  5
160
330
1E
100
AcDbEntity
  8
0
 62
     7
100
AcDbCircle
 10
-30.0249939
 20
39.8499986
 30
0.0
 40
7.341109
100
AcDbArc
 50
140.592039
 51
159.407962
  0
LINE
  5
161
330
1E
100
AcDbEntity
  8
0
 62
     7
100
AcDbLine
 10
-36.5974306
 20
42.2589559
 30
0.0
 11
-36.8970679
 21
42.4319515
 31
0.0
  0
LINE
  5
162
330
1E
100
AcDbEntity
  8
0
 62
     7
100
AcDbLine
 10
-36.5974306
 20
42.2589559
 30
0.0
 11
-37.80601279999999
 21
42.2589559
 31
0.0
  0
LINE
  5
163
330
1E
100
AcDbEntity
  8
0
 62
     7
100
AcDbLine
 10
-36.8970679
 20
42.4319515
 30
0.0
 11
-37.80601279999999
 21
42.2589559
 31
0.0
  0
ARC
  5
164
330
1E
100
AcDbEntity
  8
0
 62
     7
100
AcDbCircle
 10
-30.0249939
 20
39.8499986
 30
0.0
 40
8.145386999999999
100
AcDbArc
 50
77.20221659999999
 51
102.797785
  0
LINE
  5
165
330
1E
100
AcDbEntity
  8
0
 62
     7
100
AcDbLine
 10
-28.8249939
 20
47.0923657
 30
0.0
 11
-28.2207029
 21
47.7930372
 31
0.0
  0
LINE
  5
166
330
1E
100
AcDbEntity
  8
0
 62
     7
100
AcDbLine
 10
-28.8249939
 20
46.7463744
 30
0.0
 11
-28.2207029
 21
47.7930372
 31
0.0
  0
LINE
  5
167
330
1E
100
AcDbEntity
  8
0
 62
     7
100
AcDbLine
 10
-28.8249939
 20
46.7463744
 30
0.0
 11
-28.8249939
 21
47.0923657
 31
0.0
  0
ARC
  5
168
330
1E
100
AcDbEntity
  8
0
 62
     7
100
AcDbCircle
 10
-30.0249939
 20
39.84999849999999
 30
0.0
 40
7.0
100
AcDbArc
 50
80.1291108
 51
99.8708901
  0
ARC
  5
169
330
1E
100
AcDbEntity
  8
0
 62
     7
100
AcDbCircle
 10
-30.0249939
 20
39.8499986
 30
0.0
 40
7.341109
100
AcDbArc
 50
80.5920395
 51
99.40796150000002
  0
LINE
  5
16A
330
1E
100
AcDbEntity
  8
0
 62
     7
100
AcDbLine
 10
-31.2249939
 20
46.7463744
 30
0.0
 11
-31.2249939
 21
47.09236559999999
 31
0.0
  0
LINE
  5
16B
330
1E
100
AcDbEntity
  8
0
 62
     7
100
AcDbLine
 10
-31.2249939
 20
46.7463744
 30
0.0
 11
-31.829285
 21
47.7930372
 31
0.0
  0
LINE
  5
16C
330
1E
100
AcDbEntity
  8
0
 62
     7
100
AcDbLine
 10
-31.2249939
 20
47.09236559999999
 30
0.0
 11
-31.829285
 21
47.7930372
 31
0.0
  0
LINE
  5
16D
330
1E
100
AcDbEntity
  8
0
 62
     7
100
AcDbLine
 10
-23.15291989999999
 20
42.43195159999999
 30
0.0
 11
-22.24397499999999
 21
42.258956
 31
0.0
  0
LINE
  5
16E
330
1E
100
AcDbEntity
  8
0
 62
     7
100
AcDbLine
 10
-24.35292
 20
44.5104126
 30
0.0
 11
-24.0482661
 21
45.38407979999999
 31
0.0
  0
ARC
  5
16F
330
1E
100
AcDbEntity
  8
0
 62
     7
100
AcDbCircle
 10
-30.0249938
 20
39.84999849999999
 30
0.0
 40
8.145386999999999
100
AcDbArc
 50
17.2022165
 51
42.7977847
  0
ARC
  5
170
330
1E
100
AcDbEntity
  8
0
 62
     7
100
AcDbCircle
 10
-30.0249938
 20
39.84999849999999
 30
0.0
 40
7.341109
100
AcDbArc
 50
20.59203969999999
 51
39.4079617
  0
LINE
  5
171
330
1E
100
AcDbEntity
  8
0
 62
     7
100
AcDbLine
 10
-33.4890955
 20
41.84999849999999
 30
0.0
 11
-33.27258909999999
 21
41.7249985
 31
0.0
  0
LINE
  5
172
330
1E
100
AcDbEntity
  8
0
 62
     7
100
AcDbLine
 10
-33.4890955
 20
37.8499985
 30
0.0
 11
-33.27258909999999
 21
37.97499849999999
 31
0.0
  0
LINE
  5
173
330
1E
100
AcDbEntity
  8
0
 62
     7
100
AcDbLine
 10
-34.1386145
 20
37.4749985
 30
0.0
 11
-33.9221082
 21
37.59999849999999
 31
0.0
  0
LINE
  5
174
330
1E
100
AcDbEntity
  8
0
 62
     7
100
AcDbLine
 10
-34.1386145
 20
42.2249985
 30
0.0
 11
-33.9221081
 21
42.09999849999999
 31
0.0
  0
LINE
  5
175
330
1E
100
AcDbEntity
  8
0
 62
     7
100
AcDbLine
 10
-33.0301977
 20
36.8447947
 30
0.0
 11
-34.1386145
 21
37.4749985
 31
0.0
  0
LINE
  5
176
330
1E
100
AcDbEntity
  8
0
 62
     7
100
AcDbLine
 10
-33.0301977
 20
36.8447947
 30
0.0
 11
-33.27258909999999
 21
37.97499849999999
 31
0.0
  0
LINE
  5
177
330
1E
100
AcDbEntity
  8
0
 62
     7
100
AcDbLine
 10
-33.0301976
 20
42.8552023
 30
0.0
 11
-33.27258909999999
 21
41.7249985
 31
0.0
  0
LINE
  5
178
330
1E
100
AcDbEntity
  8
0
 62
     7
100
AcDbLine
 10
-33.0301976
 20
42.8552023
 30
0.0
 11
-34.1386145
 21
42.2249985
 31
0.0
  0
ARC
  5
179
330
1E
100
AcDbEntity
  8
0
 62
     7
100
AcDbCircle
 10
-30.0249938
 20
39.84999849999999
 30
0.0
 40
4.5
100
AcDbArc
 50
150.0
 51
209.999999
  0
ARC
  5
17A
330
1E
100
AcDbEntity
  8
0
 62
     7
100
AcDbCircle
 10
-30.0249939
 20
39.84999849999999
 30
0.0
 40
4.0
100
AcDbArc
 50
150.0
 51
209.999999
  0
ARC
  5
17B
330
1E
100
AcDbEntity
  8
0
 62
     7
100
AcDbCircle
 10
-30.0249939
 20
39.84999849999999
 30
0.0
 40
7.804277779999999
100
AcDbArc
 50
342.020818
 51
17.9791824
  0
ARC
  5
17C
330
1E
100
AcDbEntity
  8
0
 62
     7
100
AcDbCircle
 10
-30.0249939
 20
39.84999849999999
 30
0.0
 40
7.804277779999999
100
AcDbArc
 50
282.020818
 51
317.979183
  0
ARC
  5
17D
330
1E
100
AcDbEntity
  8
0
 62
     7
100
AcDbCircle
 10
-30.0249939
 20
39.84999849999999
 30
0.0
 40
7.804277779999999
100
AcDbArc
 50
222.020818
 51
257.979182
  0
ARC
  5
17E
330
1E
100
AcDbEntity
  8
0
 62
     7
100
AcDbCircle
 10
-30.0249939
 20
39.84999849999999
 30
0.0
 40
7.804277779999999
100
AcDbArc
 50
162.0208189999999
 51
197.979182
  0
ARC
  5
17F
330
1E
100
AcDbEntity
  8
0
 62
     7
100
AcDbCircle
 10
-30.0249939
 20
39.84999849999999
 30
0.0
 40
7.804277779999999
100
AcDbArc
 50
102.020818
 51
137.979182
  0
ARC
  5
180
330
1E
100
AcDbEntity
  8
0
 62
     7
100
AcDbCircle
 10
-30.0249939
 20
39.84999849999999
 30
0.0
 40
7.804277779999999
100
AcDbArc
 50
42.0208183
 51
77.97918229999999
  0
LINE
  5
181
330
1E
100
AcDbEntity
  8
0
 62
     7
100
AcDbLine
 10
-23.45255719999999
 20
42.258956
 30
0.0
 11
-22.24397499999999
 21
42.258956
 31
0.0
  0
LINE
  5
182
330
1E
100
AcDbEntity
  8
0
 62
     7
100
AcDbLine
 10
-24.6525572
 20
44.33741699999999
 30
0.0
 11
-24.0482661
 21
45.38407979999999
 31
0.0
  0
LINE
  5
183
330
1E
100
AcDbEntity
  8
0
 62
     7
100
AcDbLine
 10
-23.45255719999999
 20
42.258956
 30
0.0
 11
-23.15291989999999
 21
42.43195159999999
 31
0.0
  0
LINE
  5
184
330
1E
100
AcDbEntity
  8
0
 62
     7
100
AcDbLine
 10
-24.6525572
 20
44.33741699999999
 30
0.0
 11
-24.35292
 21
44.5104126
 31
0.0
  0
ARC
  5
185
330
1E
100
AcDbEntity
  8
0
 62
     7
100
AcDbCircle
 10
-30.0249938
 20
39.84999849999999
 30
0.0
 40
7.0
100
AcDbArc
 50
20.12911099999999
 51
39.87089029999999
  0
CIRCLE
  5
186
330
1E
100
AcDbEntity
  8
0
 62
     7
100
AcDbCircle
 10
-30.0249939
 20
39.84999849999999
 30
0.0
 40
6.768093379999999
  0
CIRCLE
  5
187
330
1E
100
AcDbEntity
  8
0
 62
     7
100
AcDbCircle
 10
-30.0249939
 20
39.84999849999999
 30
0.0
 40
6.0
  0
CIRCLE
  5
188
330
1E
100
AcDbEntity
  8
0
 62
     7
100
AcDbCircle
 10
-30.0249939
 20
39.84999849999999
 30
0.0
 40
8.25
  0
LINE
  5
189
330
1E
100
AcDbEntity
  8
0
 62
     7
100
AcDbLine
 10
-38.5249939
 20
51.34999849999999
 30
0.0
 11
-21.5249939
 21
51.34999849999999
 31
0.0
  0
LINE
  5
18A
330
1E
100
AcDbEntity
  8
0
 62
     7
100
AcDbLine
 10
-38.5249939
 20
28.34999849999999
 30
0.0
 11
-21.5249939
 21
28.34999849999999
 31
0.0
  0
LINE
  5
18B
330
1E
100
AcDbEntity
  8
0
 62
     7
100
AcDbLine
 10
-41.5249939
 20
31.34999849999999
 30
0.0
 11
-41.5249939
 21
48.34999849999999
 31
0.0
  0
LINE
  5
18C
330
1E
100
AcDbEntity
  8
0
 62
     7
100
AcDbLine
 10
-18.5249939
 20
31.34999849999999
 30
0.0
 11
-18.5249939
 21
48.34999849999999
 31
0.0
  0
ARC
  5
18D
330
1E
100
AcDbEntity
  8
0
 62
     7
100
AcDbCircle
 10
-38.5249939
 20
31.34999849999999
 30
0.0
 40
3.0
100
AcDbArc
 50
180.0
 51
270.0
  0
ARC
  5
18E
330
1E
100
AcDbEntity
  8
0
 62
     7
100
AcDbCircle
 10
-21.5249939
 20
31.34999849999999
 30
0.0
 40
3.0
100
AcDbArc
 50
270.0
 51
0.0
  0
ARC
  5
18F
330
1E
100
AcDbEntity
  8
0
 62
     7
100
AcDbCircle
 10
-21.5249939
 20
48.34999849999999
 30
0.0
 40
3.0
100
AcDbArc
 50
0.0
 51
90.00000020000001
  0
ARC
  5
190
330
1E
100
AcDbEntity
  8
0
 62
     7
100
AcDbCircle
 10
-38.5249939
 20
48.34999849999999
 30
0.0
 40
3.0
100
AcDbArc
 50
90.00000020000001
 51
180.0
  0
LINE
  5
191
330
1E
100
AcDbEntity
  8
0
  6
DASHED
 62
     2
100
AcDbLine
 10
-31.0249939
 20
51.34999849999999
 30
0.0
 11
-31.0249939
 21
45.24299929999999
 31
0.0
  0
LINE
  5
192
330
1E
100
AcDbEntity
  8
0
  6
DASHED
 62
     2
100
AcDbLine
 10
-28.5249939
 20
51.34999849999999
 30
0.0
 11
-28.5249939
 21
45.24299929999999
 31
0.0
  0
ARC
  5
193
330
1E
100
AcDbEntity
  8
0
 62
     2
100
AcDbCircle
 10
-30.0249939
 20
39.84999849999999
 30
0.0
 40
8.5
100
AcDbArc
 50
19.7499228
 51
160.2500769999999
  0
ARC
  5
194
330
1E
100
AcDbEntity
  8
0
 62
     7
100
AcDbCircle
 10
-30.0249939
 20
39.84999849999999
 30
0.0
 40
9.0
100
AcDbArc
 50
27.2660445
 51
152.733955
  0
LINE
  5
195
330
1E
100
AcDbEntity
  8
0
 62
     7
100
AcDbLine
 10
-22.02499389999999
 20
41.8655631
 30
0.0
 11
-22.02499389999999
 21
43.9731041
 31
0.0
  0
LINE
  5
196
330
1E
100
AcDbEntity
  8
0
 62
     7
100
AcDbLine
 10
-22.02499389999999
 20
37.8344339
 30
0.0
 11
-22.02499389999999
 21
35.72689279999999
 31
0.0
  0
ARC
  5
197
330
1E
100
AcDbEntity
  8
0
 62
     2
100
AcDbCircle
 10
-30.0249939
 20
39.84999849999999
 30
0.0
 40
8.5
100
AcDbArc
 50
199.749923
 51
340.2500769999999
  0
ARC
  5
198
330
1E
100
AcDbEntity
  8
0
 62
     7
100
AcDbCircle
 10
-30.0249939
 20
39.84999849999999
 30
0.0
 40
9.0
100
AcDbArc
 50
207.2660439999999
 51
332.7339559999999
  0
LINE
  5
199
330
1E
100
AcDbEntity
  8
0
 62
     7
100
AcDbLine
 10
-38.02499389999999
 20
37.8344339
 30
0.0
 11
-38.02499389999999
 21
35.72689279999999
 31
0.0
  0
LINE
  5
19A
330
1E
100
AcDbEntity
  8
0
 62
     7
100
AcDbLine
 10
-38.02499389999999
 20
41.8655631
 30
0.0
 11
-38.02499389999999
 21
43.9731041
 31
0.0
  0
LINE
  5
19B
330
1E
100
AcDbEntity
  8
0
  6
CENTER
 62
     2
100
AcDbLine
 10
-30.0249939
 20
26.8828212
 30
0.0
 11
-30.0249939
 21
52.4860666
 31
0.0
  0
LINE
  5
19C
330
1E
100
AcDbEntity
  8
0
 62
     7
100
AcDbLine
 10
-67.9999939
 20
94.50000000000001
 30
0.0
 11
-67.9999939
 21
84.50000000000001
 31
0.0
  0
TEXT
  5
19D
330
1E
100
AcDbEntity
  8
0
 62
     7
100
AcDbText
 10
-109.885995
 20
62.9000001
 30
0.0
 40
3.19999981
  1
MRN110-J6(J4)
  7
MONOTXT
100
AcDbText
  0
TEXT
  5
19E
330
1E
100
AcDbEntity
  8
0
 62
     7
100
AcDbText
 10
-109.885995
 20
57.9000001
 30
0.0
 40
3.19999981
  1
MRN111-J6(J4)
  7
MONOTXT
100
AcDbText
  0
TEXT
  5
19F
330
1E
100
AcDbEntity
  8
0
 62
     7
100
AcDbText
 10
-109.885995
 20
67.90000009999999
 30
0.0
 40
3.19999981
  1
MRN101-J6(J4)
  7
MONOTXT
100
AcDbText
  0
LINE
  5
1A0
330
1E
100
AcDbEntity
  8
0
 62
     7
100
AcDbLine
 10
-138.399994
 20
94.50000000000001
 30
0.0
 11
138.350006
 21
94.50000000000001
 31
0.0
  0
LINE
  5
1A1
330
1E
100
AcDbEntity
  8
0
 62
     7
100
AcDbLine
 10
138.350006
 20
94.50000000000001
 30
0.0
 11
138.350006
 21
-94.80000309999999
 31
0.0
  0
LINE
  5
1A2
330
1E
100
AcDbEntity
  8
0
 62
     7
100
AcDbLine
 10
-138.399994
 20
-94.80000309999999
 30
0.0
 11
138.350006
 21
-94.80000309999999
 31
0.0
  0
LINE
  5
1A3
330
1E
100
AcDbEntity
  8
0
 62
     7
100
AcDbLine
 10
-138.399994
 20
94.50000000000001
 30
0.0
 11
-138.399994
 21
-94.80000309999999
 31
0.0
  0
LINE
  5
1A4
330
1E
100
AcDbEntity
  8
0
 62
     7
100
AcDbLine
 10
73.3500061
 20
-84.80000309999999
 30
0.0
 11
138.350006
 21
-84.80000309999999
 31
0.0
  0
LINE
  5
1A5
330
1E
100
AcDbEntity
  8
0
 62
     7
100
AcDbLine
 10
-138.399994
 20
84.50000000000001
 30
0.0
 11
-67.9999939
 21
84.50000000000001
 31
0.0
  0
LINE
  5
1A6
330
1E
100
AcDbEntity
  8
0
 62
     7
100
AcDbLine
 10
73.3500061
 20
84.50000000000001
 30
0.0
 11
138.350006
 21
84.50000000000001
 31
0.0
  0
LINE
  5
1A7
330
1E
100
AcDbEntity
  8
0
 62
     7
100
AcDbLine
 10
73.3500061
 20
-84.80000309999999
 30
0.0
 11
73.3500061
 21
-94.80000309999999
 31
0.0
  0
LINE
  5
1A8
330
1E
100
AcDbEntity
  8
0
 62
     7
100
AcDbLine
 10
73.3500061
 20
94.50000000000001
 30
0.0
 11
73.3500061
 21
84.50000000000001
 31
0.0
  0
TEXT
  5
1A9
330
1E
100
AcDbEntity
  8
0
 62
     7
100
AcDbText
 10
77.2426624
 20
-92.0500031
 30
0.0
 40
4.5
  1
KOGANEI CORP.
 41
1.0483871
  7
MONOTXT
100
AcDbText
  0
TEXT
  5
1AA
330
1E
100
AcDbEntity
  8
0
 62
     7
100
AcDbText
 10
93.5071493
 20
87.90000009999999
 30
0.0
 40
3.19999981
  1
Ver. 1.0
 41
1.081081079999999
  7
MONOTXT
100
AcDbText
  0
TEXT
  5
1AB
330
1E
100
AcDbEntity
  8
0
 62
     7
100
AcDbText
 10
-136.3428499999999
 20
87.90000009999999
 30
0.0
 40
3.19999981
  1
SMALL-SIZED FR SERIES
 41
1.06060606
  7
MONOTXT
100
AcDbText
  0
TEXT
  5
1AC
330
1E
100
AcDbEntity
  8
0
 62
     7
100
AcDbText
 10
-129.085994
 20
72.90000009999999
 30
0.0
 40
3.19999981
  1
MODEL:MRN100-J6(J4)
  7
MONOTXT
100
AcDbText
  0
ENDSEC
  0
SECTION
  2
OBJECTS
  0
DICTIONARY
  5
C
330
0
100
AcDbDictionary
  3
ACAD_GROUP
350
D
  3
ACAD_MLINESTYLE
350
16
  3
ACAD_PLOTSETTINGS
350
18
  3
ACAD_LAYOUT
350
19
1001
ACAD
1000
TREAT_AS_HARD
1070
     0
  0
DICTIONARY
  5
1E7
330
1E
100
AcDbDictionary
  3
ACAD_LAYOUTSELFREF
350
1E8
  0
DICTIONARY
  5
1E5
330
1A
100
AcDbDictionary
  3
ACAD_LAYOUTSELFREF
350
1E6
  0
DICTIONARY
  5
D
102
{ACAD_REACTORS
330
C
102
}
330
C
100
AcDbDictionary
1001
ACAD
1000
TREAT_AS_HARD
1070
     0
  0
DICTIONARY
  5
16
102
{ACAD_REACTORS
330
C
102
}
330
C
100
AcDbDictionary
  3
STANDARD
350
17
1001
ACAD
1000
TREAT_AS_HARD
1070
     0
  0
DICTIONARY
  5
18
102
{ACAD_REACTORS
330
C
102
}
330
C
100
AcDbDictionary
1001
ACAD
1000
TREAT_AS_HARD
1070
     0
  0
DICTIONARY
  5
19
102
{ACAD_REACTORS
330
C
102
}
330
C
100
AcDbDictionary
1001
ACAD
1000
TREAT_AS_HARD
1070
     0
  0
XRECORD
  5
1E8
102
{ACAD_REACTORS
330
1E7
102
}
330
1E7
100
AcDbXrecord
340
1E
  0
XRECORD
  5
1E6
102
{ACAD_REACTORS
330
1E5
102
}
330
1E5
100
AcDbXrecord
340
1A
  0
MLINESTYLE
  5
17
102
{ACAD_REACTORS
330
16
102
}
330
16
100
AcDbMlineStyle
  2
STANDARD
 70
     0
  3

 62
   256
 51
90.0
 52
90.0
 71
     2
 49
0.5
 62
   256
  6
BYLAYER
 49
-0.5
 62
   256
  6
BYLAYER
  0
ENDSEC
  0
EOF
