  0
SECTION
  2
HEADER
  9
$ACADVER
  1
AC1012
  9
$DWGCODEPAGE
  3
dos932
  9
$INSBASE
 10
0.0
 20
0.0
 30
0.0
  9
$EXTMIN
 10
-281.25
 20
-195.0
 30
0.0
  9
$EXTMAX
 10
285.6319057062413
 20
195.5
 30
0.0
  9
$LIMMIN
 10
-281.25
 20
-195.0
  9
$LIMMAX
 10
285.6319057062413
 20
195.5
  9
$ORTHOMODE
 70
               0
  9
$REGENMODE
 70
               1
  9
$FILLMODE
 70
               1
  9
$QTEXTMODE
 70
               0
  9
$MIRRTEXT
 70
               1
  9
$DRAGMODE
 70
               2
  9
$LTSCALE
 40
1.0
  9
$OSMODE
 70
               0
  9
$ATTMODE
 70
               1
  9
$TEXTSIZE
 40
3.2000000476837158
  9
$TRACEWID
 40
0.05
  9
$TEXTSTYLE
  7
MX_NOTE_STANDARD
  9
$CLAYER
  8
0
  9
$CELTYPE
  6
CONTINUOUS
  9
$CECOLOR
 62
             256
  9
$CELTSCALE
 40
1.0
  9
$DELOBJ
 70
               1
  9
$DISPSILH
 70
               0
  9
$DIMSCALE
 40
1.0
  9
$DIMASZ
 40
2.5
  9
$DIMEXO
 40
1.5
  9
$DIMDLI
 40
3.75
  9
$DIMRND
 40
0.0
  9
$DIMDLE
 40
0.0
  9
$DIMEXE
 40
1.5
  9
$DIMTP
 40
0.0
  9
$DIMTM
 40
0.0
  9
$DIMTXT
 40
3.2000000476837158
  9
$DIMCEN
 40
2.5
  9
$DIMTSZ
 40
0.0
  9
$DIMTOL
 70
               0
  9
$DIMLIM
 70
               0
  9
$DIMTIH
 70
               0
  9
$DIMTOH
 70
               0
  9
$DIMSE1
 70
               0
  9
$DIMSE2
 70
               0
  9
$DIMTAD
 70
               1
  9
$DIMZIN
 70
               8
  9
$DIMBLK
  1

  9
$DIMASO
 70
               1
  9
$DIMSHO
 70
               1
  9
$DIMPOST
  1

  9
$DIMAPOST
  1

  9
$DIMALT
 70
               0
  9
$DIMALTD
 70
               4
  9
$DIMALTF
 40
0.03937007874016
  9
$DIMLFAC
 40
1.0
  9
$DIMTOFL
 70
               1
  9
$DIMTVP
 40
0.0
  9
$DIMTIX
 70
               0
  9
$DIMSOXD
 70
               0
  9
$DIMSAH
 70
               0
  9
$DIMBLK1
  1

  9
$DIMBLK2
  1

  9
$DIMSTYLE
  2
MXDIMSTYLE
  9
$DIMCLRD
 70
               0
  9
$DIMCLRE
 70
               0
  9
$DIMCLRT
 70
               0
  9
$DIMTFAC
 40
1.0
  9
$DIMGAP
 40
1.0
  9
$DIMJUST
 70
               0
  9
$DIMSD1
 70
               0
  9
$DIMSD2
 70
               0
  9
$DIMTOLJ
 70
               1
  9
$DIMTZIN
 70
               0
  9
$DIMALTZ
 70
               0
  9
$DIMALTTZ
 70
               0
  9
$DIMFIT
 70
               3
  9
$DIMUPT
 70
               1
  9
$DIMUNIT
 70
               2
  9
$DIMDEC
 70
               4
  9
$DIMTDEC
 70
               4
  9
$DIMALTU
 70
               2
  9
$DIMALTTD
 70
               4
  9
$DIMTXSTY
  7
MX_NOTE_STANDARD
  9
$DIMAUNIT
 70
               0
  9
$LUNITS
 70
               2
  9
$LUPREC
 70
               4
  9
$SKETCHINC
 40
0.1
  9
$FILLETRAD
 40
0.0
  9
$AUNITS
 70
               0
  9
$AUPREC
 70
               0
  9
$MENU
  1
acad
  9
$ELEVATION
 40
0.0
  9
$PELEVATION
 40
0.0
  9
$THICKNESS
 40
0.0
  9
$LIMCHECK
 70
               0
  9
$BLIPMODE
 70
               1
  9
$CHAMFERA
 40
0.0
  9
$CHAMFERB
 40
0.0
  9
$CHAMFERC
 40
0.0
  9
$CHAMFERD
 40
0.0
  9
$SKPOLY
 70
               0
  9
$TDCREATE
 40
2453378.356759260
  9
$TDUPDATE
 40
2453378.356759260
  9
$TDINDWG
 40
0.0000000000
  9
$TDUSRTIMER
 40
0.0000000000
  9
$USRTIMER
 70
               1
  9
$ANGBASE
 50
0.0
  9
$ANGDIR
 70
               0
  9
$PDMODE
 70
               0
  9
$PDSIZE
 40
0.0
  9
$PLINEWID
 40
0.0
  9
$COORDS
 70
               1
  9
$SPLFRAME
 70
               0
  9
$SPLINETYPE
 70
               6
  9
$SPLINESEGS
 70
               8
  9
$ATTDIA
 70
               0
  9
$ATTREQ
 70
               1
  9
$HANDLING
 70
               1
  9
$HANDSEED
  5
66E
  9
$SURFTAB1
 70
               6
  9
$SURFTAB2
 70
               6
  9
$SURFTYPE
 70
               6
  9
$SURFU
 70
               6
  9
$SURFV
 70
               6
  9
$UCSNAME
  2

  9
$UCSORG
 10
0.0
 20
0.0
 30
0.0
  9
$UCSXDIR
 10
1.0
 20
0.0
 30
0.0
  9
$UCSYDIR
 10
0.0
 20
1.0
 30
0.0
  9
$PUCSNAME
  2

  9
$PUCSORG
 10
0.0
 20
0.0
 30
0.0
  9
$PUCSXDIR
 10
1.0
 20
0.0
 30
0.0
  9
$PUCSYDIR
 10
0.0
 20
1.0
 30
0.0
  9
$USERI1
 70
               0
  9
$USERI2
 70
               0
  9
$USERI3
 70
               0
  9
$USERI4
 70
               0
  9
$USERI5
 70
               0
  9
$USERR1
 40
0.0
  9
$USERR2
 40
0.0
  9
$USERR3
 40
0.0
  9
$USERR4
 40
0.0
  9
$USERR5
 40
0.0
  9
$WORLDVIEW
 70
               1
  9
$SHADEDGE
 70
               3
  9
$SHADEDIF
 70
              70
  9
$TILEMODE
 70
               1
  9
$MAXACTVP
 70
              16
  9
$PINSBASE
 10
0.0
 20
0.0
 30
0.0
  9
$PLIMCHECK
 70
               0
  9
$PEXTMIN
 10
1.0000000000000000E+20
 20
1.0000000000000000E+20
 30
1.0000000000000000E+20
  9
$PEXTMAX
 10
-1.0000000000000000E+20
 20
-1.0000000000000000E+20
 30
-1.0000000000000000E+20
  9
$PLIMMIN
 10
0.0
 20
0.0
  9
$PLIMMAX
 10
12.0
 20
9.0
  9
$UNITMODE
 70
               0
  9
$VISRETAIN
 70
               0
  9
$PLINEGEN
 70
               1
  9
$PSLTSCALE
 70
               0
  9
$TREEDEPTH
 70
            3020
  9
$PICKSTYLE
 70
               1
  9
$CMLSTYLE
  2
Standard
  9
$CMLJUST
 70
               0
  9
$CMLSCALE
 40
1.0
  9
$SAVEIMAGES
 70
               0
  0
ENDSEC
  0
SECTION
  2
CLASSES
  0
CLASS
  1
LWPOLYLINE
  2
AcDbPolyline
  3
"AutoCAD"
 90
        0
280
               0
281
               1
  0
CLASS
  1
IMAGE
  2
AcDbRasterImage
  3
ISM
 90
      127
280
               0
281
               1
  0
CLASS
  1
OLE2FRAME
  2
AcDbOle2Frame
  3
""
 90
        0
280
               0
281
               1
  0
CLASS
  1
HATCH
  2
AcDbHatch
  3
"ACAD_SEDONA"
 90
        0
280
               0
281
               1
  0
CLASS
  1
DICTIONARYVAR
  2
AcDbDictionaryVar
  3
"AutoCAD"
 90
        0
280
               0
281
               0
  0
CLASS
  1
RASTERVARIABLES
  2
AcDbRasterVariables
  3
ISM
 90
        0
280
               0
281
               0
  0
CLASS
  1
IMAGEDEF
  2
AcDbRasterImageDef
  3
ISM
 90
        0
280
               0
281
               0
  0
CLASS
  1
IMAGEDEF_REACTOR
  2
AcDbRasterImageDefReactor
  3
ISM
 90
        1
280
               0
281
               0
  0
CLASS
  1
IDBUFFER
  2
AcDbIdBuffer
  3
"Acad"
 90
        0
280
               0
281
               0
  0
CLASS
  1
SPATIAL_FILTER
  2
AcDbSpatialFilter
  3
"Acad"
 90
        0
280
               0
281
               0
  0
CLASS
  1
XRECORD
  2
AcDbXrecord
  3
"<Built In>"
 90
        0
280
               0
281
               0
  0
CLASS
  1
SORTENTSTABLE
  2
AcDbSortentsTable
  3
"AutoCAD"
 90
        0
280
               0
281
               0
  0
CLASS
  1
LAYER_INDEX
  2
AcDbLayerIndex
  3
"Acad"
 90
        0
280
               0
281
               0
  0
CLASS
  1
SPATIAL_INDEX
  2
AcDbSpatialIndex
  3
"Acad"
 90
        0
280
               0
281
               0
  0
CLASS
  1
OBJECT_PTR
  2
CAseDLPNTableRecord
  3
"ASE-LPNTableRecord"
 90
        1
280
               0
281
               0
  0
CLASS
  1
LAYOUT
  2
AcDbLayout
  3
"AutoCAD 2000"
 90
        1
280
               0
281
               0
  0
CLASS
  1
PLOTSETTINGS
  2
AcDbPlotSettings
  3
"AutoCAD 2000"
 90
        1
280
               0
281
               0
  0
CLASS
  1
ACDBDICTIONARYWDFLT
  2
AcDbDictionaryWithDefault
  3
"AutoCAD 2000"
 90
        1
280
               0
281
               0
  0
CLASS
  1
ACDBPLACEHOLDER
  2
AcDbPlaceHolder
  3
"AutoCAD 2000"
 90
        1
280
               0
281
               0
  0
ENDSEC
  0
SECTION
  2
TABLES
  0
TABLE
  2
VPORT
  5
7
100
AcDbSymbolTable
 70
               1
  0
VPORT
  5
15
100
AcDbSymbolTableRecord
100
AcDbViewportTableRecord
  2
*ACTIVE
 70
               0
 10
0.0
 20
0.0
 11
1.0
 21
1.0
 12
2.1909528531206206
 22
0.25
 13
0.0
 23
0.0
 14
1.0
 24
1.0
 15
0.0
 25
0.0
 16
0.0
 26
0.0
 36
1.0
 17
0.0
 27
0.0
 37
0.0
 40
394.40500000000003
 41
1.7320508075688772
 42
50.0
 43
0.0
 44
0.0
 50
0.0
 51
0.0
 71
               0
 72
             100
 73
               1
 74
               1
 75
               0
 76
               0
 77
               0
 78
               0
  0
ENDTAB
  0
TABLE
  2
LTYPE
  5
4
100
AcDbSymbolTable
 70
               6
  0
LTYPE
  5
11
100
AcDbSymbolTableRecord
100
AcDbLinetypeTableRecord
  2
BYBLOCK
 70
              64
  3

 72
              65
 73
               0
 40
0.0
  0
LTYPE
  5
12
100
AcDbSymbolTableRecord
100
AcDbLinetypeTableRecord
  2
BYLAYER
 70
              64
  3

 72
              65
 73
               0
 40
0.0
  0
LTYPE
  5
13
100
AcDbSymbolTableRecord
100
AcDbLinetypeTableRecord
  2
CONTINUOUS
 70
              64
  3
Solid line
 72
              65
 73
               0
 40
0.0
  0
LTYPE
  5
2B
100
AcDbSymbolTableRecord
100
AcDbLinetypeTableRecord
  2
CENTER
 70
              64
  3
Center ____ _ ____ _ ____ _ ____ _ ____ _ ____
 72
              65
 73
               4
 40
26.0
 49
20.0
 74
               0
 49
-2.0
 74
               0
 49
2.0
 74
               0
 49
-2.0
 74
               0
  0
LTYPE
  5
4E
100
AcDbSymbolTableRecord
100
AcDbLinetypeTableRecord
  2
DASHED
 70
              64
  3
Dashed __ __ __ __ __ __ __ __ __ __ __ __ __ _
 72
              65
 73
               2
 40
4.0
 49
2.0
 74
               0
 49
-2.0
 74
               0
  0
LTYPE
  5
A6
100
AcDbSymbolTableRecord
100
AcDbLinetypeTableRecord
  2
PHANTOM
 70
              64
  3
Phantom ______  __  __  ______  __  __  ______
 72
              65
 73
               6
 40
30.0
 49
20.0
 74
               0
 49
-2.0
 74
               0
 49
2.0
 74
               0
 49
-2.0
 74
               0
 49
2.0
 74
               0
 49
-2.0
 74
               0
  0
ENDTAB
  0
TABLE
  2
LAYER
  5
2
100
AcDbSymbolTable
 70
               2
  0
LAYER
  5
14
100
AcDbSymbolTableRecord
100
AcDbLayerTableRecord
  2
0
 70
               0
 62
               7
  6
CONTINUOUS
  0
LAYER
  5
1D
100
AcDbSymbolTableRecord
100
AcDbLayerTableRecord
  2
DEFPOINTS
 70
               0
 62
               7
  6
CONTINUOUS
  0
ENDTAB
  0
TABLE
  2
STYLE
  5
3
100
AcDbSymbolTable
 70
               1
  0
STYLE
  5
17
100
AcDbSymbolTableRecord
100
AcDbTextStyleTableRecord
  2
MX_NOTE_STANDARD
 70
               0
 40
0.0
 41
1.0
 50
0.0
 71
               0
 42
3.2000000476837158
  3
txt.shx
  4
extfont.shx
  0
ENDTAB
  0
TABLE
  2
VIEW
  5
5
100
AcDbSymbolTable
 70
               0
  0
ENDTAB
  0
TABLE
  2
UCS
  5
6
100
AcDbSymbolTable
 70
               0
  0
ENDTAB
  0
TABLE
  2
APPID
  5
8
100
AcDbSymbolTable
 70
               1
  0
APPID
  5
16
100
AcDbSymbolTableRecord
100
AcDbRegAppTableRecord
  2
ACAD
 70
               0
  0
ENDTAB
  0
TABLE
  2
DIMSTYLE
  5
9
100
AcDbSymbolTable
 70
               1
  0
DIMSTYLE
105
18
100
AcDbSymbolTableRecord
100
AcDbDimStyleTableRecord
  2
MXDIMSTYLE
 70
               0
  3

  4

  5

  6

  7

 40
1.0
 41
2.5
 42
1.5
 43
3.75
 44
1.5
 45
0.0
 46
0.0
 47
0.0
 48
0.0
 71
               0
 72
               0
 73
               0
 74
               0
 75
               0
 76
               0
 77
               1
 78
               8
140
3.2000000476837158
141
2.5
142
0.0
143
0.03937007874016
144
1.0
145
0.0
146
1.0
147
1.0
170
               0
171
               4
172
               1
173
               0
174
               0
175
               0
176
               0
177
               0
178
               0
270
               2
271
               4
272
               4
273
               2
274
               4
275
               0
280
               0
281
               0
282
               0
283
               1
284
               0
285
               0
286
               0
287
               3
288
               1
340
17
  0
ENDTAB
  0
TABLE
  2
BLOCK_RECORD
  5
1
100
AcDbSymbolTable
 70
              12
  0
BLOCK_RECORD
  5
A
100
AcDbSymbolTableRecord
100
AcDbBlockTableRecord
  2
*MODEL_SPACE
  0
BLOCK_RECORD
  5
B
100
AcDbSymbolTableRecord
100
AcDbBlockTableRecord
  2
*PAPER_SPACE
  0
BLOCK_RECORD
  5
1E
100
AcDbSymbolTableRecord
100
AcDbBlockTableRecord
  2
NCT30-1
  0
BLOCK_RECORD
  5
1F
100
AcDbSymbolTableRecord
100
AcDbBlockTableRecord
  2
NCT30-2
  0
BLOCK_RECORD
  5
20
100
AcDbSymbolTableRecord
100
AcDbBlockTableRecord
  2
NCT30-3
  0
BLOCK_RECORD
  5
21
100
AcDbSymbolTableRecord
100
AcDbBlockTableRecord
  2
NCT30-4
  0
BLOCK_RECORD
  5
22
100
AcDbSymbolTableRecord
100
AcDbBlockTableRecord
  2
NCT30-5
  0
BLOCK_RECORD
  5
23
100
AcDbSymbolTableRecord
100
AcDbBlockTableRecord
  2
NCT30-6
  0
BLOCK_RECORD
  5
24
100
AcDbSymbolTableRecord
100
AcDbBlockTableRecord
  2
NCT30-7
  0
BLOCK_RECORD
  5
25
100
AcDbSymbolTableRecord
100
AcDbBlockTableRecord
  2
NCT30-8
  0
BLOCK_RECORD
  5
26
100
AcDbSymbolTableRecord
100
AcDbBlockTableRecord
  2
NCT30-9
  0
BLOCK_RECORD
  5
27
100
AcDbSymbolTableRecord
100
AcDbBlockTableRecord
  2
NCT30-10
  0
BLOCK_RECORD
  5
28
100
AcDbSymbolTableRecord
100
AcDbBlockTableRecord
  2
NCT30-11
  0
BLOCK_RECORD
  5
29
100
AcDbSymbolTableRecord
100
AcDbBlockTableRecord
  2
NCT30-12
  0
ENDTAB
  0
ENDSEC
  0
SECTION
  2
BLOCKS
  0
BLOCK
  5
D
100
AcDbEntity
  8
0
100
AcDbBlockBegin
  2
*MODEL_SPACE
 70
               0
 10
0.0
 20
0.0
 30
0.0
  3
*MODEL_SPACE
  1

  0
ENDBLK
  5
E
100
AcDbEntity
  8
0
100
AcDbBlockEnd
  0
BLOCK
  5
F
100
AcDbEntity
 67
               1
  8
0
100
AcDbBlockBegin
  2
*PAPER_SPACE
 70
               0
 10
0.0
 20
0.0
 30
0.0
  3
*PAPER_SPACE
  1

  0
ENDBLK
  5
10
100
AcDbEntity
 67
               1
  8
0
100
AcDbBlockEnd
  0
BLOCK
  5
2A
100
AcDbEntity
  8
0
100
AcDbBlockBegin
  2
NCT30-1
 70
               0
 10
0.0
 20
0.0
 30
0.0
  3
NCT30-1
  1

  0
LINE
  5
2C
100
AcDbEntity
  8
0
  6
CENTER
 62
               2
100
AcDbLine
 10
0.0
 20
2.0
 30
0.0
 11
0.0
 21
-19.700000000000017
 31
0.0
  0
LINE
  5
2D
100
AcDbEntity
  8
0
  6
CENTER
 62
               2
100
AcDbLine
 10
17.092481592889641
 20
-6.5
 30
0.0
 11
-7.0692497298594219
 21
-6.5
 31
0.0
  0
LINE
  5
2E
100
AcDbEntity
  8
0
  6
CONTINUOUS
 62
               7
100
AcDbLine
 10
-13.999999999999972
 20
0.0
 30
0.0
 11
14.0
 21
0.0
 31
0.0
  0
LINE
  5
2F
100
AcDbEntity
  8
0
  6
CONTINUOUS
 62
               7
100
AcDbLine
 10
15.0
 20
-1.0
 30
0.0
 11
15.0
 21
-16.800000000000011
 31
0.0
  0
LINE
  5
30
100
AcDbEntity
  8
0
  6
CONTINUOUS
 62
               7
100
AcDbLine
 10
14.800000000000011
 20
-17.0
 30
0.0
 11
-14.999999999999972
 21
-17.0
 31
0.0
  0
LINE
  5
31
100
AcDbEntity
  8
0
  6
CONTINUOUS
 62
               7
100
AcDbLine
 10
14.0
 20
0.0
 30
0.0
 11
15.0
 21
-1.0
 31
0.0
  0
LINE
  5
32
100
AcDbEntity
  8
0
  6
CONTINUOUS
 62
               7
100
AcDbLine
 10
-14.999999999999972
 20
-1.0
 30
0.0
 11
-14.999999999999972
 21
-16.799999999999983
 31
0.0
  0
LINE
  5
33
100
AcDbEntity
  8
0
  6
CONTINUOUS
 62
               7
100
AcDbLine
 10
-13.999999999999972
 20
0.0
 30
0.0
 11
-14.999999999999972
 21
-1.0
 31
0.0
  0
LINE
  5
34
100
AcDbEntity
  8
0
  6
CONTINUOUS
 62
               7
100
AcDbLine
 10
15.0
 20
-1.0
 30
0.0
 11
-14.999999999999972
 21
-1.0
 31
0.0
  0
LINE
  5
35
100
AcDbEntity
  8
0
  6
CONTINUOUS
 62
               7
100
AcDbLine
 10
0.5
 20
-3.0
 30
0.0
 11
0.5
 21
-10.0
 31
0.0
  0
LINE
  5
36
100
AcDbEntity
  8
0
  6
CONTINUOUS
 62
               7
100
AcDbLine
 10
-0.5
 20
-3.0
 30
0.0
 11
-0.5
 21
-10.0
 31
0.0
  0
LINE
  5
37
100
AcDbEntity
  8
0
  6
CONTINUOUS
 62
               7
100
AcDbLine
 10
4.0414518843273868
 20
-6.5
 30
0.0
 11
2.0207259421636934
 21
-3.0
 31
0.0
  0
LINE
  5
38
100
AcDbEntity
  8
0
  6
CONTINUOUS
 62
               7
100
AcDbLine
 10
2.0207259421636934
 20
-3.0
 30
0.0
 11
-2.0207259421636934
 21
-3.0
 31
0.0
  0
LINE
  5
39
100
AcDbEntity
  8
0
  6
CONTINUOUS
 62
               7
100
AcDbLine
 10
-2.0207259421636934
 20
-3.0
 30
0.0
 11
-4.0414518843273584
 21
-6.5
 31
0.0
  0
LINE
  5
3A
100
AcDbEntity
  8
0
  6
CONTINUOUS
 62
               7
100
AcDbLine
 10
-4.0414518843273584
 20
-6.5
 30
0.0
 11
-2.0207259421636934
 21
-10.0
 31
0.0
  0
LINE
  5
3B
100
AcDbEntity
  8
0
  6
CONTINUOUS
 62
               7
100
AcDbLine
 10
-2.0207259421636934
 20
-10.0
 30
0.0
 11
2.0207259421636934
 21
-10.0
 31
0.0
  0
LINE
  5
3C
100
AcDbEntity
  8
0
  6
CONTINUOUS
 62
               7
100
AcDbLine
 10
2.0207259421636934
 20
-10.0
 30
0.0
 11
4.0414518843273868
 21
-6.5
 31
0.0
  0
CIRCLE
  5
3D
100
AcDbEntity
  8
0
  6
CONTINUOUS
 62
               7
100
AcDbCircle
 10
0.0
 20
-6.5
 30
0.0
 40
4.75
  0
ARC
  5
3E
100
AcDbEntity
  8
0
  6
CONTINUOUS
 62
               7
100
AcDbCircle
 10
0.0
 20
-6.5
 30
0.0
 40
4.0
100
AcDbArc
 50
1.0449756281401477
 51
58.955024371859722
  0
ARC
  5
3F
100
AcDbEntity
  8
0
  6
CONTINUOUS
 62
               7
100
AcDbCircle
 10
0.0
 20
-6.5
 30
0.0
 40
4.0
100
AcDbArc
 50
61.044975628139994
 51
118.95502437185961
  0
ARC
  5
40
100
AcDbEntity
  8
0
  6
CONTINUOUS
 62
               7
100
AcDbCircle
 10
0.0
 20
-6.5
 30
0.0
 40
4.0
100
AcDbArc
 50
121.04497562813988
 51
178.95502437185934
  0
ARC
  5
41
100
AcDbEntity
  8
0
  6
CONTINUOUS
 62
               7
100
AcDbCircle
 10
0.0
 20
-6.5
 30
0.0
 40
4.0
100
AcDbArc
 50
181.04497562813958
 51
238.95502437185922
  0
ARC
  5
42
100
AcDbEntity
  8
0
  6
CONTINUOUS
 62
               7
100
AcDbCircle
 10
0.0
 20
-6.5
 30
0.0
 40
4.0
100
AcDbArc
 50
241.04497562813958
 51
298.95502437185922
  0
ARC
  5
43
100
AcDbEntity
  8
0
  6
CONTINUOUS
 62
               7
100
AcDbCircle
 10
0.0
 20
-6.5
 30
0.0
 40
4.0
100
AcDbArc
 50
301.04497562813941
 51
358.95502437185911
  0
ARC
  5
44
100
AcDbEntity
  8
0
  6
CONTINUOUS
 62
               7
100
AcDbCircle
 10
0.0
 20
-6.5
 30
0.0
 40
3.5
100
AcDbArc
 50
278.21321070173758
 51
81.786789298261581
  0
ARC
  5
45
100
AcDbEntity
  8
0
  6
CONTINUOUS
 62
               7
100
AcDbCircle
 10
0.0
 20
-6.5
 30
0.0
 40
3.5
100
AcDbArc
 50
98.213210701737992
 51
261.78678929826128
  0
LINE
  5
46
100
AcDbEntity
  8
0
  6
CONTINUOUS
 62
               4
100
AcDbLine
 10
-3.5
 20
-18.0
 30
0.0
 11
3.5
 21
-18.0
 31
0.0
  0
LINE
  5
47
100
AcDbEntity
  8
0
  6
CONTINUOUS
 62
               4
100
AcDbLine
 10
-3.5
 20
-17.0
 30
0.0
 11
-3.5
 21
-18.0
 31
0.0
  0
LINE
  5
48
100
AcDbEntity
  8
0
  6
CONTINUOUS
 62
               4
100
AcDbLine
 10
3.5
 20
-17.0
 30
0.0
 11
3.5
 21
-18.0
 31
0.0
  0
LINE
  5
49
100
AcDbEntity
  8
0
  6
CONTINUOUS
 62
               7
100
AcDbLine
 10
15.0
 20
-16.800000000000011
 30
0.0
 11
14.800000000000011
 21
-17.0
 31
0.0
  0
LINE
  5
4A
100
AcDbEntity
  8
0
  6
CONTINUOUS
 62
               7
100
AcDbLine
 10
-14.799999999999983
 20
-17.0
 30
0.0
 11
-14.999999999999972
 21
-16.799999999999983
 31
0.0
  0
LINE
  5
4B
100
AcDbEntity
  8
0
  6
CONTINUOUS
 62
               7
100
AcDbLine
 10
15.0
 20
-16.800000000000011
 30
0.0
 11
-14.799999999999983
 21
-16.800000000000011
 31
0.0
  0
ENDBLK
  5
4C
100
AcDbEntity
  8
0
100
AcDbBlockEnd
  0
BLOCK
  5
4D
100
AcDbEntity
  8
0
100
AcDbBlockBegin
  2
NCT30-2
 70
               0
 10
0.0
 20
0.0
 30
0.0
  3
NCT30-2
  1

  0
LINE
  5
4F
100
AcDbEntity
  8
0
  6
DASHED
 62
               2
100
AcDbLine
 10
12.480434687942591
 20
-6.7528697603315493
 30
0.0
 11
12.480434687942591
 21
-7.4599765415180883
 31
0.0
  0
ARC
  5
50
100
AcDbEntity
  8
0
  6
DASHED
 62
               2
100
AcDbCircle
 10
8.6191156083133933
 20
-1.5880271902426983
 30
0.0
 40
7.0277716396203269
100
AcDbArc
 50
290.25462085736189
 51
303.32841020147521
  0
ARC
  5
51
100
AcDbEntity
  8
0
  6
DASHED
 62
               2
100
AcDbCircle
 10
6.8774184484742591
 20
-6.9050016264477279
 30
0.0
 40
4.3653794686807261
100
AcDbArc
 50
321.83471178066645
 51
343.001229803738
  0
LINE
  5
52
100
AcDbEntity
  8
0
  6
DASHED
 62
               2
100
AcDbLine
 10
12.480434687942591
 20
-7.4599765415180883
 30
0.0
 11
10.323759005323609
 21
-9.6166522241370558
 31
0.0
  0
ARC
  5
53
100
AcDbEntity
  8
0
  6
DASHED
 62
               2
100
AcDbCircle
 10
6.9056845717351223
 20
-6.8787258008815257
 30
0.0
 40
4.363929581700825
100
AcDbArc
 50
286.99521341413669
 51
308.16884500145608
  0
LINE
  5
54
100
AcDbEntity
  8
0
  6
DASHED
 62
               2
100
AcDbLine
 10
9.2630988335437792
 20
-8.5559920523572259
 30
0.0
 11
8.5559920523572544
 21
-9.2630988335437792
 31
0.0
  0
LINE
  5
55
100
AcDbEntity
  8
0
  6
DASHED
 62
               2
100
AcDbLine
 10
9.6166522241370558
 20
-10.323759005323609
 30
0.0
 11
8.5559920523572544
 21
-9.2630988335437792
 31
0.0
  0
LINE
  5
56
100
AcDbEntity
  8
0
  6
DASHED
 62
               2
100
AcDbLine
 10
11.052078989945755
 20
-8.1812254583283561
 30
0.0
 11
9.6378654275726774
 21
-6.7670118959552781
 31
0.0
  0
LINE
  5
57
100
AcDbEntity
  8
0
  6
DASHED
 62
               2
100
AcDbLine
 10
10.323759005323609
 20
-9.6166522241370558
 30
0.0
 11
9.2630988335437792
 21
-8.5559920523572259
 31
0.0
  0
LINE
  5
58
100
AcDbEntity
  8
0
  6
DASHED
 62
               2
100
AcDbLine
 10
10.606601717798242
 20
-4.9497474683058442
 30
0.0
 11
11.030865786510162
 21
-5.3740115370177648
 31
0.0
  0
LINE
  5
59
100
AcDbEntity
  8
0
  6
DASHED
 62
               2
100
AcDbLine
 10
12.480434687942591
 20
-6.7528697603315493
 30
0.0
 11
11.066221125569484
 21
-5.3386561979584428
 31
0.0
  0
LINE
  5
5A
100
AcDbEntity
  8
0
  6
DASHED
 62
               2
100
AcDbLine
 10
9.5459415460184118
 20
-6.0104076400856599
 30
0.0
 11
7.1806963966499211
 21
-3.6451624907171833
 31
0.0
  0
LINE
  5
5B
100
AcDbEntity
  8
0
  6
DASHED
 62
               2
100
AcDbLine
 10
9.2630988335437792
 20
-6.2932503525602783
 30
0.0
 11
6.5791298538252363
 21
-3.609281372841707
 31
0.0
  0
LINE
  5
5C
100
AcDbEntity
  8
0
  6
DASHED
 62
               2
100
AcDbLine
 10
6.0104076400856741
 20
-9.5459415460183976
 30
0.0
 11
3.8244446452891339
 21
-7.3599785512218432
 31
0.0
  0
LINE
  5
5D
100
AcDbEntity
  8
0
  6
DASHED
 62
               2
100
AcDbLine
 10
6.2932503525602783
 20
-9.2630988335437792
 30
0.0
 11
3.928005203191816
 21
-6.8978536841753026
 31
0.0
  0
LINE
  5
5E
100
AcDbEntity
  8
0
  6
DASHED
 62
               2
100
AcDbLine
 10
6.7528697603315493
 20
-12.480434687942562
 30
0.0
 11
5.3386561979584712
 21
-11.066221125569484
 31
0.0
  0
LINE
  5
5F
100
AcDbEntity
  8
0
  6
DASHED
 62
               2
100
AcDbLine
 10
7.4599765415181025
 20
-12.480434687942562
 30
0.0
 11
6.7528697603315493
 21
-12.480434687942562
 31
0.0
  0
LINE
  5
60
100
AcDbEntity
  8
0
  6
DASHED
 62
               2
100
AcDbLine
 10
4.9497474683058442
 20
-10.606601717798213
 30
0.0
 11
5.3740115370177932
 21
-11.030865786510148
 31
0.0
  0
LINE
  5
61
100
AcDbEntity
  8
0
  6
DASHED
 62
               2
100
AcDbLine
 10
11.136931803688157
 20
-4.4194173824159293
 30
0.0
 11
4.4194173824159293
 21
-11.136931803688128
 31
0.0
  0
LINE
  5
62
100
AcDbEntity
  8
0
  6
DASHED
 62
               2
100
AcDbLine
 10
11.066221125569484
 20
-5.3386561979584428
 30
0.0
 11
5.3386561979584712
 21
-11.066221125569484
 31
0.0
  0
ARC
  5
63
100
AcDbEntity
  8
0
  6
DASHED
 62
               2
100
AcDbCircle
 10
1.5866317625257693
 20
-8.618410986396924
 30
0.0
 40
7.0293247160888015
100
AcDbArc
 50
326.67304037350175
 51
339.74392856765854
  0
LINE
  5
64
100
AcDbEntity
  8
0
  6
DASHED
 62
               2
100
AcDbLine
 10
9.6166522241370558
 20
-10.323759005323609
 30
0.0
 11
7.4599765415181025
 21
-12.480434687942562
 31
0.0
  0
LINE
  5
65
100
AcDbEntity
  8
0
  6
DASHED
 62
               2
100
AcDbLine
 10
8.1812254583283845
 20
-11.052078989945755
 30
0.0
 11
6.7670118959552781
 21
-9.637865427572649
 31
0.0
  0
LINE
  5
66
100
AcDbEntity
  8
0
  6
CONTINUOUS
 62
               7
100
AcDbLine
 10
-19.182320284100371
 20
-7.9126684591599883
 30
0.0
 11
-19.50436326774917
 21
-7.9083298105363156
 31
0.0
  0
LINE
  5
67
100
AcDbEntity
  8
0
  6
CONTINUOUS
 62
               7
100
AcDbLine
 10
-18.800000000000011
 20
-8.0
 30
0.0
 11
-18.899999999999977
 21
-8.0
 31
0.0
  0
ARC
  5
68
100
AcDbEntity
  8
0
  6
CONTINUOUS
 62
               7
100
AcDbCircle
 10
-18.899999999999977
 20
-7.5
 30
0.0
 40
0.5
100
AcDbArc
 50
179.99999999999963
 51
269.99999999999937
  0
LINE
  5
69
100
AcDbEntity
  8
0
  6
CONTINUOUS
 62
               7
100
AcDbLine
 10
-19.399999999999977
 20
-7.5
 30
0.0
 11
-19.399999999999977
 21
-5.5
 31
0.0
  0
ARC
  5
6A
100
AcDbEntity
  8
0
  6
CONTINUOUS
 62
               7
100
AcDbCircle
 10
-18.899999999999977
 20
-5.5
 30
0.0
 40
0.5
100
AcDbArc
 50
89.999999999999815
 51
179.99999999999963
  0
LINE
  5
6B
100
AcDbEntity
  8
0
  6
CONTINUOUS
 62
               7
100
AcDbLine
 10
-18.800000000000011
 20
-5.0
 30
0.0
 11
-18.899999999999977
 21
-5.0
 31
0.0
  0
LINE
  5
6C
100
AcDbEntity
  8
0
  6
CONTINUOUS
 62
               7
100
AcDbLine
 10
-12.699999999999989
 20
-8.0
 30
0.0
 11
-12.699999999999989
 21
12.0
 31
0.0
  0
LINE
  5
6D
100
AcDbEntity
  8
0
  6
CONTINUOUS
 62
               7
100
AcDbLine
 10
-20.0
 20
-7.4083488490041987
 30
0.0
 11
-20.0
 21
11.408348849004255
 31
0.0
  0
LINE
  5
6E
100
AcDbEntity
  8
0
  6
CENTER
 62
               2
100
AcDbLine
 10
-16.400000000000006
 20
10.805227088550964
 30
0.0
 11
-16.399999999999977
 21
24.900000000000034
 31
0.0
  0
LINE
  5
6F
100
AcDbEntity
  8
0
  6
CONTINUOUS
 62
               7
100
AcDbLine
 10
-18.799999999999983
 20
-4.8999999999999773
 30
0.0
 11
-20.0
 21
-4.8999999999999773
 31
0.0
  0
LINE
  5
70
100
AcDbEntity
  8
0
  6
CONTINUOUS
 62
               7
100
AcDbLine
 10
-18.799999999999983
 20
-8.0
 30
0.0
 11
-18.799999999999983
 21
-4.8999999999999773
 31
0.0
  0
LINE
  5
71
100
AcDbEntity
  8
0
  6
CENTER
 62
               2
100
AcDbLine
 10
-18.195856986851084
 20
-6.5
 30
0.0
 11
-20.435449291060365
 21
-6.5
 31
0.0
  0
LINE
  5
72
100
AcDbEntity
  8
0
  6
CONTINUOUS
 62
               7
100
AcDbLine
 10
-13.699999999999989
 20
-4.1999999999999886
 30
0.0
 11
-13.699999999999989
 21
-3.0
 31
0.0
  0
LINE
  5
73
100
AcDbEntity
  8
0
  6
CONTINUOUS
 62
               7
100
AcDbLine
 10
-14.599999999999994
 20
-4.1999999999999886
 30
0.0
 11
-14.599999999999994
 21
-3.0
 31
0.0
  0
LINE
  5
74
100
AcDbEntity
  8
0
  6
CONTINUOUS
 62
               7
100
AcDbLine
 10
-13.699999999999989
 20
-4.1000000000000227
 30
0.0
 11
-14.549999999999983
 21
-4.1000000000000227
 31
0.0
  0
LINE
  5
75
100
AcDbEntity
  8
0
  6
CONTINUOUS
 62
               7
100
AcDbLine
 10
-13.699999999999989
 20
-3.1000000000000227
 30
0.0
 11
-14.549999999999983
 21
-3.1000000000000227
 31
0.0
  0
LINE
  5
76
100
AcDbEntity
  8
0
  6
CONTINUOUS
 62
               7
100
AcDbLine
 10
-14.549999999999983
 20
-4.1000000000000227
 30
0.0
 11
-14.549999999999983
 21
-3.1000000000000227
 31
0.0
  0
LINE
  5
77
100
AcDbEntity
  8
0
  6
CONTINUOUS
 62
               7
100
AcDbLine
 10
-13.849999999999994
 20
-4.1000000000000227
 30
0.0
 11
-13.849999999999994
 21
-3.1000000000000227
 31
0.0
  0
LINE
  5
78
100
AcDbEntity
  8
0
  6
CONTINUOUS
 62
               7
100
AcDbLine
 10
-13.699999999999989
 20
-3.0
 30
0.0
 11
-14.599999999999994
 21
-3.0
 31
0.0
  0
LINE
  5
79
100
AcDbEntity
  8
0
  6
CONTINUOUS
 62
               7
100
AcDbLine
 10
-13.699999999999989
 20
-4.1999999999999886
 30
0.0
 11
-14.599999999999994
 21
-4.1999999999999886
 31
0.0
  0
LINE
  5
7A
100
AcDbEntity
  8
0
  6
CONTINUOUS
 62
               7
100
AcDbLine
 10
-13.699999999999989
 20
7.0
 30
0.0
 11
-14.599999999999994
 21
7.0
 31
0.0
  0
LINE
  5
7B
100
AcDbEntity
  8
0
  6
CONTINUOUS
 62
               7
100
AcDbLine
 10
-13.699999999999989
 20
8.1999999999999886
 30
0.0
 11
-14.599999999999994
 21
8.1999999999999886
 31
0.0
  0
LINE
  5
7C
100
AcDbEntity
  8
0
  6
CONTINUOUS
 62
               7
100
AcDbLine
 10
-13.849999999999994
 20
7.1000000000000227
 30
0.0
 11
-13.849999999999994
 21
8.1000000000000227
 31
0.0
  0
LINE
  5
7D
100
AcDbEntity
  8
0
  6
CONTINUOUS
 62
               7
100
AcDbLine
 10
-14.549999999999983
 20
7.1000000000000227
 30
0.0
 11
-14.549999999999983
 21
8.1000000000000227
 31
0.0
  0
LINE
  5
7E
100
AcDbEntity
  8
0
  6
CONTINUOUS
 62
               7
100
AcDbLine
 10
-13.699999999999989
 20
8.1000000000000227
 30
0.0
 11
-14.549999999999983
 21
8.1000000000000227
 31
0.0
  0
LINE
  5
7F
100
AcDbEntity
  8
0
  6
CONTINUOUS
 62
               7
100
AcDbLine
 10
-13.699999999999989
 20
7.1000000000000227
 30
0.0
 11
-14.549999999999983
 21
7.1000000000000227
 31
0.0
  0
LINE
  5
80
100
AcDbEntity
  8
0
  6
CONTINUOUS
 62
               7
100
AcDbLine
 10
-14.599999999999994
 20
7.0
 30
0.0
 11
-14.599999999999994
 21
8.1999999999999886
 31
0.0
  0
LINE
  5
81
100
AcDbEntity
  8
0
  6
CONTINUOUS
 62
               7
100
AcDbLine
 10
-13.699999999999989
 20
7.0
 30
0.0
 11
-13.699999999999989
 21
8.1999999999999886
 31
0.0
  0
LINE
  5
82
100
AcDbEntity
  8
0
  6
CONTINUOUS
 62
               7
100
AcDbLine
 10
-13.400000000000006
 20
12.399999999999977
 30
0.0
 11
-19.399999999999977
 21
12.400000000000006
 31
0.0
  0
LINE
  5
83
100
AcDbEntity
  8
0
  6
CONTINUOUS
 62
               7
100
AcDbLine
 10
-14.399999999999977
 20
19.399999999999977
 30
0.0
 11
-18.400000000000006
 21
19.399999999999977
 31
0.0
  0
LINE
  5
84
100
AcDbEntity
  8
0
  6
CONTINUOUS
 62
               7
100
AcDbLine
 10
-18.400000000000006
 20
19.399999999999977
 30
0.0
 11
-18.685714285714283
 21
17.399999999999977
 31
0.0
  0
LINE
  5
85
100
AcDbEntity
  8
0
  6
CONTINUOUS
 62
               7
100
AcDbLine
 10
-14.399999999999977
 20
19.399999999999977
 30
0.0
 11
-14.1142857142857
 21
17.399999999999977
 31
0.0
  0
LINE
  5
86
100
AcDbEntity
  8
0
  6
CONTINUOUS
 62
               7
100
AcDbLine
 10
-14.1142857142857
 20
17.399999999999977
 30
0.0
 11
-18.685714285714283
 21
17.399999999999977
 31
0.0
  0
LINE
  5
87
100
AcDbEntity
  8
0
  6
CONTINUOUS
 62
               7
100
AcDbLine
 10
-13.971428571428561
 20
16.399999999999977
 30
0.0
 11
-18.828571428571422
 21
16.399999999999977
 31
0.0
  0
LINE
  5
88
100
AcDbEntity
  8
0
  6
CONTINUOUS
 62
               7
100
AcDbLine
 10
-13.75714285714281
 20
14.899999999999977
 30
0.0
 11
-19.042857142857144
 21
14.899999999999977
 31
0.0
  0
LINE
  5
89
100
AcDbEntity
  8
0
  6
CONTINUOUS
 62
               7
100
AcDbLine
 10
-13.6142857142857
 20
13.899999999999977
 30
0.0
 11
-19.185714285714283
 21
13.899999999999977
 31
0.0
  0
LINE
  5
8A
100
AcDbEntity
  8
0
  6
CONTINUOUS
 62
               7
100
AcDbLine
 10
-18.828571428571422
 20
16.399999999999977
 30
0.0
 11
-19.042857142857144
 21
14.899999999999977
 31
0.0
  0
LINE
  5
8B
100
AcDbEntity
  8
0
  6
CONTINUOUS
 62
               7
100
AcDbLine
 10
-19.185714285714283
 20
13.899999999999977
 30
0.0
 11
-19.399999999999977
 21
12.400000000000006
 31
0.0
  0
LINE
  5
8C
100
AcDbEntity
  8
0
  6
CONTINUOUS
 62
               7
100
AcDbLine
 10
-13.971428571428561
 20
16.399999999999977
 30
0.0
 11
-13.75714285714281
 21
14.899999999999977
 31
0.0
  0
LINE
  5
8D
100
AcDbEntity
  8
0
  6
CONTINUOUS
 62
               7
100
AcDbLine
 10
-13.6142857142857
 20
13.899999999999977
 30
0.0
 11
-13.400000000000006
 21
12.399999999999977
 31
0.0
  0
LINE
  5
8E
100
AcDbEntity
  8
0
  6
CONTINUOUS
 62
               7
100
AcDbLine
 10
-18.150000000000006
 20
17.399999999999977
 30
0.0
 11
-18.150000000000006
 21
16.399999999999977
 31
0.0
  0
LINE
  5
8F
100
AcDbEntity
  8
0
  6
CONTINUOUS
 62
               7
100
AcDbLine
 10
-14.649999999999977
 20
17.399999999999977
 30
0.0
 11
-14.650000000000006
 21
16.399999999999977
 31
0.0
  0
LINE
  5
90
100
AcDbEntity
  8
0
  6
CONTINUOUS
 62
               7
100
AcDbLine
 10
-18.150000000000006
 20
14.899999999999977
 30
0.0
 11
-18.149999999999977
 21
13.900000000000006
 31
0.0
  0
LINE
  5
91
100
AcDbEntity
  8
0
  6
CONTINUOUS
 62
               7
100
AcDbLine
 10
-14.650000000000006
 20
14.899999999999977
 30
0.0
 11
-14.650000000000006
 21
13.899999999999977
 31
0.0
  0
LINE
  5
92
100
AcDbEntity
  8
0
  6
CONTINUOUS
 62
               7
100
AcDbLine
 10
-15.099999999999966
 20
24.900000000000006
 30
0.0
 11
-17.699999999999989
 21
24.900000000000006
 31
0.0
  0
LINE
  5
93
100
AcDbEntity
  8
0
  6
CENTER
 62
               2
100
AcDbLine
 10
-15.949999999999989
 20
24.001543741441935
 30
0.0
 11
-15.94999999999996
 21
31.522492218972957
 31
0.0
  0
LINE
  5
94
100
AcDbEntity
  8
0
  6
CENTER
 62
               2
100
AcDbLine
 10
-16.849999999999966
 20
24.001543741441935
 30
0.0
 11
-16.849999999999966
 21
31.522492218972957
 31
0.0
  0
LINE
  5
95
100
AcDbEntity
  8
0
  6
CONTINUOUS
 62
               7
100
AcDbLine
 10
-15.69999999999996
 20
30.899999999999977
 30
0.0
 11
-16.199999999999989
 21
30.899999999999977
 31
0.0
  0
LINE
  5
96
100
AcDbEntity
  8
0
  6
CONTINUOUS
 62
               7
100
AcDbLine
 10
-16.599999999999966
 20
30.899999999999977
 30
0.0
 11
-17.099999999999966
 21
30.899999999999977
 31
0.0
  0
LINE
  5
97
100
AcDbEntity
  8
0
  6
CONTINUOUS
 62
               7
100
AcDbLine
 10
-15.499999999999972
 20
28.899999999999977
 30
0.0
 11
-17.299999999999955
 21
28.899999999999977
 31
0.0
  0
LINE
  5
98
100
AcDbEntity
  8
0
  6
CONTINUOUS
 62
               7
100
AcDbLine
 10
-17.299999999999955
 20
24.900000000000034
 30
0.0
 11
-17.299999999999955
 21
26.899999999999977
 31
0.0
  0
LINE
  5
99
100
AcDbEntity
  8
0
  6
CONTINUOUS
 62
               7
100
AcDbLine
 10
-16.399999999999977
 20
24.900000000000034
 30
0.0
 11
-16.399999999999977
 21
26.379999999999995
 31
0.0
  0
LINE
  5
9A
100
AcDbEntity
  8
0
  6
CONTINUOUS
 62
               7
100
AcDbLine
 10
-16.399999999999977
 20
27.361880179861913
 30
0.0
 11
-16.399999999999977
 21
28.899999999999977
 31
0.0
  0
LINE
  5
9B
100
AcDbEntity
  8
0
  6
CONTINUOUS
 62
               7
100
AcDbLine
 10
-17.299999999999955
 20
27.881495421747104
 30
0.0
 11
-17.299999999999955
 21
28.899999999999977
 31
0.0
  0
LINE
  5
9C
100
AcDbEntity
  8
0
  6
CONTINUOUS
 62
               7
100
AcDbLine
 10
-15.499999999999972
 20
24.900000000000034
 30
0.0
 11
-15.5
 21
25.860000000000014
 31
0.0
  0
LINE
  5
9D
100
AcDbEntity
  8
0
  6
CONTINUOUS
 62
               7
100
AcDbLine
 10
-15.5
 20
26.842264937976722
 30
0.0
 11
-15.499999999999972
 21
28.899999999999977
 31
0.0
  0
LINE
  5
9E
100
AcDbEntity
  8
0
  6
CONTINUOUS
 62
               7
100
AcDbLine
 10
-15.69999999999996
 20
28.899999999999977
 30
0.0
 11
-15.69999999999996
 21
30.899999999999977
 31
0.0
  0
LINE
  5
9F
100
AcDbEntity
  8
0
  6
CONTINUOUS
 62
               7
100
AcDbLine
 10
-16.199999999999989
 20
28.899999999999977
 30
0.0
 11
-16.199999999999989
 21
30.899999999999977
 31
0.0
  0
LINE
  5
A0
100
AcDbEntity
  8
0
  6
CONTINUOUS
 62
               7
100
AcDbLine
 10
-16.599999999999966
 20
28.899999999999977
 30
0.0
 11
-16.599999999999966
 21
30.899999999999977
 31
0.0
  0
LINE
  5
A1
100
AcDbEntity
  8
0
  6
CONTINUOUS
 62
               7
100
AcDbLine
 10
-17.099999999999966
 20
28.899999999999977
 30
0.0
 11
-17.099999999999966
 21
30.899999999999977
 31
0.0
  0
LINE
  5
A2
100
AcDbEntity
  8
0
  6
CONTINUOUS
 62
               7
100
AcDbLine
 10
-15.099999999999994
 20
19.399999999999977
 30
0.0
 11
-15.099999999999966
 21
20.937564451092271
 31
0.0
  0
LINE
  5
A3
100
AcDbEntity
  8
0
  6
CONTINUOUS
 62
               7
100
AcDbLine
 10
-17.699999999999989
 20
19.399999999999977
 30
0.0
 11
-17.699999999999989
 21
22.438675150985318
 31
0.0
  0
LINE
  5
A4
100
AcDbEntity
  8
0
  6
CONTINUOUS
 62
               7
100
AcDbLine
 10
-15.099999999999994
 20
21.861324850314645
 30
0.0
 11
-15.099999999999966
 21
24.900000000000006
 31
0.0
  0
LINE
  5
A5
100
AcDbEntity
  8
0
  6
CONTINUOUS
 62
               7
100
AcDbLine
 10
-17.699999999999989
 20
23.362435550207692
 30
0.0
 11
-17.699999999999989
 21
24.900000000000006
 31
0.0
  0
LINE
  5
A7
100
AcDbEntity
  8
0
  6
PHANTOM
 62
               2
100
AcDbLine
 10
-14.90000000053476
 20
26.495854777028683
 30
0.0
 11
-17.90000000053476
 21
28.227905583312634
 31
0.0
  0
LINE
  5
A8
100
AcDbEntity
  8
0
  6
PHANTOM
 62
               2
100
AcDbLine
 10
-14.90000000053476
 20
25.57209439270747
 30
0.0
 11
-17.900000030337083
 21
27.30414521389261
 31
0.0
  0
LINE
  5
A9
100
AcDbEntity
  8
0
  6
PHANTOM
 62
               2
100
AcDbLine
 10
-14.499999994574296
 20
21.51491468839896
 30
0.0
 11
-18.300000036297547
 21
23.708845731547001
 31
0.0
  0
LINE
  5
AA
100
AcDbEntity
  8
0
  6
PHANTOM
 62
               2
100
AcDbLine
 10
-14.500000024376618
 20
20.591154289176586
 30
0.0
 11
-18.300000036297547
 21
22.785085317423466
 31
0.0
  0
LINE
  5
AB
100
AcDbEntity
  8
0
  6
CONTINUOUS
 62
               7
100
AcDbLine
 10
-13.400000000000006
 20
12.399999999999977
 30
0.0
 11
-13.400000000000006
 21
12.0
 31
0.0
  0
LINE
  5
AC
100
AcDbEntity
  8
0
  6
CONTINUOUS
 62
               7
100
AcDbLine
 10
-19.399999999999977
 20
12.400000000000006
 30
0.0
 11
-19.400000000000006
 21
11.909735820202656
 31
0.0
  0
LINE
  5
AD
100
AcDbEntity
  8
0
  6
CONTINUOUS
 62
               7
100
AcDbLine
 10
-12.699999999999989
 20
-8.0
 30
0.0
 11
-18.799999999999983
 21
-7.9178191795874824
 31
0.0
  0
LINE
  5
AE
100
AcDbEntity
  8
0
  6
CONTINUOUS
 62
               7
100
AcDbLine
 10
-12.699999999999989
 20
12.0
 30
0.0
 11
-19.50436326774917
 21
11.908329810536316
 31
0.0
  0
ARC
  5
AF
100
AcDbEntity
  8
0
  6
CONTINUOUS
 62
               7
100
AcDbCircle
 10
-19.5
 20
11.408348849004255
 30
0.0
 40
0.5
100
AcDbArc
 50
90.499999999999773
 51
179.99999999999963
  0
ARC
  5
B0
100
AcDbEntity
  8
0
  6
CONTINUOUS
 62
               7
100
AcDbCircle
 10
-19.5
 20
-7.4083488490041987
 30
0.0
 40
0.5
100
AcDbArc
 50
179.99999999999963
 51
269.49999999999943
  0
LINE
  5
B1
100
AcDbEntity
  8
0
  6
CONTINUOUS
 62
               7
100
AcDbLine
 10
-12.699999999999989
 20
12.0
 30
0.0
 11
-9.0
 21
11.967710589174203
 31
0.0
  0
LINE
  5
B2
100
AcDbEntity
  8
0
  6
CONTINUOUS
 62
               7
100
AcDbLine
 10
-12.699999999999989
 20
-8.0
 30
0.0
 11
-9.0
 21
-7.9677105891742031
 31
0.0
  0
LINE
  5
B3
100
AcDbEntity
  8
0
  6
CONTINUOUS
 62
               7
100
AcDbLine
 10
-9.0
 20
12.0
 30
0.0
 11
-9.0
 21
-12.0
 31
0.0
  0
LINE
  5
B4
100
AcDbEntity
  8
0
  6
DASHED
 62
               2
100
AcDbLine
 10
6.0104076400856457
 20
9.5459415460183834
 30
0.0
 11
3.6451624907171833
 21
7.1806963966499211
 31
0.0
  0
LINE
  5
B5
100
AcDbEntity
  8
0
  6
DASHED
 62
               2
100
AcDbLine
 10
9.5459415460183834
 20
6.0104076400856457
 30
0.0
 11
7.3599785512218432
 21
3.8244446452891054
 31
0.0
  0
LINE
  5
B6
100
AcDbEntity
  8
0
  6
DASHED
 62
               2
100
AcDbLine
 10
9.2630988335437792
 20
6.2932503525602783
 30
0.0
 11
6.8978536841752884
 21
3.9280052031917876
 31
0.0
  0
LINE
  5
B7
100
AcDbEntity
  8
0
  6
DASHED
 62
               2
100
AcDbLine
 10
6.2932503525602783
 20
9.2630988335437792
 30
0.0
 11
3.609281372841707
 21
6.5791298538252079
 31
0.0
  0
LINE
  5
B8
100
AcDbEntity
  8
0
  6
DASHED
 62
               2
100
AcDbLine
 10
4.4194173824159293
 20
11.136931803688128
 30
0.0
 11
11.136931803688128
 21
4.4194173824159293
 31
0.0
  0
CIRCLE
  5
B9
100
AcDbEntity
  8
0
  6
CONTINUOUS
 62
               7
100
AcDbCircle
 10
11.0
 20
0.0
 30
0.0
 40
1.6499999999999999
  0
CIRCLE
  5
BA
100
AcDbEntity
  8
0
  6
CONTINUOUS
 62
               7
100
AcDbCircle
 10
0.0
 20
-11.0
 30
0.0
 40
1.6499999999999999
  0
CIRCLE
  5
BB
100
AcDbEntity
  8
0
  6
CONTINUOUS
 62
               7
100
AcDbCircle
 10
0.0
 20
11.0
 30
0.0
 40
1.6499999999999999
  0
CIRCLE
  5
BC
100
AcDbEntity
  8
0
  6
CONTINUOUS
 62
               2
100
AcDbCircle
 10
11.0
 20
0.0
 30
0.0
 40
2.0
  0
CIRCLE
  5
BD
100
AcDbEntity
  8
0
  6
CONTINUOUS
 62
               2
100
AcDbCircle
 10
0.0
 20
-11.0
 30
0.0
 40
2.0
  0
CIRCLE
  5
BE
100
AcDbEntity
  8
0
  6
CONTINUOUS
 62
               2
100
AcDbCircle
 10
0.0
 20
11.0
 30
0.0
 40
2.0
  0
CIRCLE
  5
BF
100
AcDbEntity
  8
0
  6
CENTER
 62
               2
100
AcDbCircle
 10
0.0
 20
0.0
 30
0.0
 40
11.0
  0
LINE
  5
C0
100
AcDbEntity
  8
0
  6
DASHED
 62
               2
100
AcDbLine
 10
10.606601717798213
 20
4.9497474683058158
 30
0.0
 11
11.030865786510134
 21
5.3740115370177648
 31
0.0
  0
LINE
  5
C1
100
AcDbEntity
  8
0
  6
DASHED
 62
               2
100
AcDbLine
 10
4.9497474683058158
 20
10.606601717798213
 30
0.0
 11
5.3740115370177648
 21
11.030865786510162
 31
0.0
  0
LINE
  5
C2
100
AcDbEntity
  8
0
  6
DASHED
 62
               2
100
AcDbLine
 10
5.3386561979584428
 20
11.066221125569484
 30
0.0
 11
11.066221125569484
 21
5.3386561979584428
 31
0.0
  0
LINE
  5
C3
100
AcDbEntity
  8
0
  6
DASHED
 62
               2
100
AcDbLine
 10
8.5559920523572259
 20
9.2630988335437792
 30
0.0
 11
9.2630988335437792
 21
8.5559920523572259
 31
0.0
  0
LINE
  5
C4
100
AcDbEntity
  8
0
  6
DASHED
 62
               2
100
AcDbLine
 10
12.480434687942562
 20
7.4599765415180741
 30
0.0
 11
12.480434687942562
 21
6.7528697603315209
 31
0.0
  0
ARC
  5
C5
100
AcDbEntity
  8
0
  6
DASHED
 62
               2
100
AcDbCircle
 10
8.6184109863968956
 20
1.5866317625257409
 30
0.0
 40
7.0293247160888015
100
AcDbArc
 50
56.673040373502339
 51
69.743928567659154
  0
LINE
  5
C6
100
AcDbEntity
  8
0
  6
DASHED
 62
               2
100
AcDbLine
 10
10.323759005323609
 20
9.6166522241370558
 30
0.0
 11
12.480434687942562
 21
7.4599765415180741
 31
0.0
  0
ARC
  5
C7
100
AcDbEntity
  8
0
  6
DASHED
 62
               2
100
AcDbCircle
 10
6.8787258008815115
 20
6.9056845717350939
 30
0.0
 40
4.363929581700825
100
AcDbArc
 50
16.995213414137279
 51
38.168845001456681
  0
LINE
  5
C8
100
AcDbEntity
  8
0
  6
DASHED
 62
               2
100
AcDbLine
 10
10.323759005323609
 20
9.6166522241370558
 30
0.0
 11
9.2630988335437792
 21
8.5559920523572259
 31
0.0
  0
LINE
  5
C9
100
AcDbEntity
  8
0
  6
DASHED
 62
               2
100
AcDbLine
 10
12.480434687942562
 20
6.7528697603315209
 30
0.0
 11
11.066221125569484
 21
5.3386561979584428
 31
0.0
  0
LINE
  5
CA
100
AcDbEntity
  8
0
  6
DASHED
 62
               2
100
AcDbLine
 10
11.052078989945755
 20
8.1812254583283561
 30
0.0
 11
9.637865427572649
 21
6.7670118959552497
 31
0.0
  0
LINE
  5
CB
100
AcDbEntity
  8
0
  6
DASHED
 62
               2
100
AcDbLine
 10
6.7528697603315209
 20
12.480434687942562
 30
0.0
 11
7.4599765415180741
 21
12.480434687942562
 31
0.0
  0
ARC
  5
CC
100
AcDbEntity
  8
0
  6
DASHED
 62
               2
100
AcDbCircle
 10
6.9050016264477279
 20
6.8774184484742591
 30
0.0
 40
4.3653794686807261
100
AcDbArc
 50
51.834711780667043
 51
73.001229803738639
  0
ARC
  5
CD
100
AcDbEntity
  8
0
  6
DASHED
 62
               2
100
AcDbCircle
 10
1.5880271902426841
 20
8.6191156083133933
 30
0.0
 40
7.0277716396203269
100
AcDbArc
 50
20.2546208573625
 51
33.328410201475762
  0
LINE
  5
CE
100
AcDbEntity
  8
0
  6
DASHED
 62
               2
100
AcDbLine
 10
7.4599765415180741
 20
12.480434687942562
 30
0.0
 11
9.6166522241370558
 21
10.323759005323609
 31
0.0
  0
LINE
  5
CF
100
AcDbEntity
  8
0
  6
DASHED
 62
               2
100
AcDbLine
 10
8.1812254583283561
 20
11.052078989945755
 30
0.0
 11
6.7670118959552497
 21
9.637865427572649
 31
0.0
  0
LINE
  5
D0
100
AcDbEntity
  8
0
  6
DASHED
 62
               2
100
AcDbLine
 10
6.7528697603315209
 20
12.480434687942562
 30
0.0
 11
5.3386561979584428
 21
11.066221125569484
 31
0.0
  0
LINE
  5
D1
100
AcDbEntity
  8
0
  6
DASHED
 62
               2
100
AcDbLine
 10
9.6166522241370558
 20
10.323759005323609
 30
0.0
 11
8.5559920523572259
 21
9.2630988335437792
 31
0.0
  0
CIRCLE
  5
D2
100
AcDbEntity
  8
0
  6
CONTINUOUS
 62
               2
100
AcDbCircle
 10
0.0
 20
0.0
 30
0.0
 40
2.5
  0
CIRCLE
  5
D3
100
AcDbEntity
  8
0
  6
CONTINUOUS
 62
               7
100
AcDbCircle
 10
0.0
 20
0.0
 30
0.0
 40
2.1000000000000001
  0
ARC
  5
D4
100
AcDbEntity
  8
0
  6
CONTINUOUS
 62
               7
100
AcDbCircle
 10
0.0
 20
0.0
 30
0.0
 40
13.999999999999996
100
AcDbArc
 50
229.9947991151393
 51
130.00520088485999
  0
ARC
  5
D5
100
AcDbEntity
  8
0
  6
CONTINUOUS
 62
               7
100
AcDbCircle
 10
0.0
 20
0.0
 30
0.0
 40
15.0
100
AcDbArc
 50
212.23050498028417
 51
126.86989764584371
  0
LINE
  5
D6
100
AcDbEntity
  8
0
  6
CENTER
 62
               2
100
AcDbLine
 10
0.0
 20
0.0
 30
0.0
 11
12.020815280171291
 21
-12.020815280171306
 31
0.0
  0
LINE
  5
D7
100
AcDbEntity
  8
0
  6
CENTER
 62
               2
100
AcDbLine
 10
0.0
 20
17.0
 30
0.0
 11
0.0
 21
-17.429711286972747
 31
0.0
  0
LINE
  5
D8
100
AcDbEntity
  8
0
  6
CENTER
 62
               2
100
AcDbLine
 10
-23.230084930827189
 20
0.0
 30
0.0
 11
17.193376937818158
 21
-0.0000000000000142
 31
0.0
  0
LINE
  5
D9
100
AcDbEntity
  8
0
  6
CENTER
 62
               2
100
AcDbLine
 10
12.086209641638504
 20
12.086209641638504
 30
0.0
 11
0.0
 21
0.0
 31
0.0
  0
LINE
  5
DA
100
AcDbEntity
  8
0
  6
DASHED
 62
               2
100
AcDbLine
 10
13.419510164565537
 20
-6.7019957432933239
 30
0.0
 11
11.136931803688157
 21
-4.4194173824159293
 31
0.0
  0
LINE
  5
DB
100
AcDbEntity
  8
0
  6
DASHED
 62
               2
100
AcDbLine
 10
6.7019957432933381
 20
-13.419510164565537
 30
0.0
 11
4.4194173824159293
 21
-11.136931803688128
 31
0.0
  0
LINE
  5
DC
100
AcDbEntity
  8
0
  6
DASHED
 62
               2
100
AcDbLine
 10
13.419510164565537
 20
6.7019957432933381
 30
0.0
 11
11.136931803688128
 21
4.4194173824159293
 31
0.0
  0
LINE
  5
DD
100
AcDbEntity
  8
0
  6
DASHED
 62
               2
100
AcDbLine
 10
6.7019957432933381
 20
13.419510164565537
 30
0.0
 11
4.4194173824159293
 21
11.136931803688128
 31
0.0
  0
ENDBLK
  5
DE
100
AcDbEntity
  8
0
100
AcDbBlockEnd
  0
BLOCK
  5
DF
100
AcDbEntity
  8
0
100
AcDbBlockBegin
  2
NCT30-3
 70
               0
 10
0.0
 20
0.0
 30
0.0
  3
NCT30-3
  1

  0
LINE
  5
E0
100
AcDbEntity
  8
0
  6
CONTINUOUS
 62
               7
100
AcDbLine
 10
-19.182320284100456
 20
-0.6196209499924805
 30
0.0
 11
-19.504363267749198
 21
-0.6239595986161532
 31
0.0
  0
LINE
  5
E1
100
AcDbEntity
  8
0
  6
CONTINUOUS
 62
               7
100
AcDbLine
 10
-18.800000000000011
 20
-3.532289409152412
 30
0.0
 11
-18.900000000000006
 21
-3.532289409152412
 31
0.0
  0
LINE
  5
E2
100
AcDbEntity
  8
0
  6
CONTINUOUS
 62
               7
100
AcDbLine
 10
-18.800000000000011
 20
-0.532289409152412
 30
0.0
 11
-18.899999999999977
 21
-0.532289409152412
 31
0.0
  0
LINE
  5
E3
100
AcDbEntity
  8
0
  6
CONTINUOUS
 62
               7
100
AcDbLine
 10
-19.399999999999977
 20
-3.032289409152412
 30
0.0
 11
-19.399999999999977
 21
-1.032289409152412
 31
0.0
  0
ARC
  5
E4
100
AcDbEntity
  8
0
  6
CONTINUOUS
 62
               7
100
AcDbCircle
 10
-18.899999999999977
 20
-1.032289409152412
 30
0.0
 40
0.5
100
AcDbArc
 50
89.999999999999815
 51
179.99999999999963
  0
ARC
  5
E5
100
AcDbEntity
  8
0
  6
CONTINUOUS
 62
               7
100
AcDbCircle
 10
-18.899999999999977
 20
-3.032289409152412
 30
0.0
 40
0.5
100
AcDbArc
 50
179.99999999999963
 51
269.99999999999937
  0
LINE
  5
E6
100
AcDbEntity
  8
0
  6
CONTINUOUS
 62
               7
100
AcDbLine
 10
-15.0
 20
-16.800000000000011
 30
0.0
 11
-14.800000000000011
 21
-17.0
 31
0.0
  0
LINE
  5
E7
100
AcDbEntity
  8
0
  6
CONTINUOUS
 62
               7
100
AcDbLine
 10
15.0
 20
-16.800000000000011
 30
0.0
 11
14.800000000000097
 21
-17.0
 31
0.0
  0
LINE
  5
E8
100
AcDbEntity
  8
0
  6
CONTINUOUS
 62
               7
100
AcDbLine
 10
15.0
 20
-16.800000000000011
 30
0.0
 11
-15.0
 21
-16.800000000000011
 31
0.0
  0
LINE
  5
E9
100
AcDbEntity
  8
0
  6
CONTINUOUS
 62
               4
100
AcDbLine
 10
3.5
 20
-17.0
 30
0.0
 11
3.5
 21
-18.0
 31
0.0
  0
LINE
  5
EA
100
AcDbEntity
  8
0
  6
CONTINUOUS
 62
               4
100
AcDbLine
 10
-3.5
 20
-17.0
 30
0.0
 11
-3.5
 21
-18.0
 31
0.0
  0
LINE
  5
EB
100
AcDbEntity
  8
0
  6
CONTINUOUS
 62
               4
100
AcDbLine
 10
-3.5
 20
-18.0
 30
0.0
 11
3.5
 21
-18.0
 31
0.0
  0
LINE
  5
EC
100
AcDbEntity
  8
0
  6
CENTER
 62
               2
100
AcDbLine
 10
0.0
 20
1.9999999908871189
 30
0.0
 11
0.0
 21
-20.0
 31
0.0
  0
LINE
  5
ED
100
AcDbEntity
  8
0
  6
CONTINUOUS
 62
               7
100
AcDbLine
 10
-9.0
 20
-0.0000000091128811
 30
0.0
 11
-9.0
 21
-11.000000009112881
 31
0.0
  0
LINE
  5
EE
100
AcDbEntity
  8
0
  6
CONTINUOUS
 62
               7
100
AcDbLine
 10
-15.0
 20
-11.0
 30
0.0
 11
-9.0
 21
-11.0
 31
0.0
  0
LINE
  5
EF
100
AcDbEntity
  8
0
  6
CONTINUOUS
 62
               7
100
AcDbLine
 10
-12.699999999999989
 20
-10.532289410825825
 30
0.0
 11
-9.0
 21
-10.500000000000028
 31
0.0
  0
LINE
  5
F0
100
AcDbEntity
  8
0
  6
CONTINUOUS
 62
               7
100
AcDbLine
 10
-12.699999999999989
 20
-0.532289409152412
 30
0.0
 11
-9.0
 21
-0.5645788199782089
 31
0.0
  0
ARC
  5
F1
100
AcDbEntity
  8
0
  6
CONTINUOUS
 62
               7
100
AcDbCircle
 10
-19.5
 20
-9.9406382598299672
 30
0.0
 40
0.5
100
AcDbArc
 50
179.99999999999963
 51
269.49999999999909
  0
ARC
  5
F2
100
AcDbEntity
  8
0
  6
CONTINUOUS
 62
               7
100
AcDbCircle
 10
-19.5
 20
-1.1239405601482702
 30
0.0
 40
0.5
100
AcDbArc
 50
90.500000000000171
 51
179.99999999999963
  0
LINE
  5
F3
100
AcDbEntity
  8
0
  6
CONTINUOUS
 62
               7
100
AcDbLine
 10
-12.699999999999989
 20
-10.532289410825825
 30
0.0
 11
-19.504363267749198
 21
-10.440619221362084
 31
0.0
  0
LINE
  5
F4
100
AcDbEntity
  8
0
  6
CONTINUOUS
 62
               7
100
AcDbLine
 10
-12.699999999999989
 20
-0.532289409152412
 30
0.0
 11
-18.799999999999983
 21
-0.6144702295650006
 31
0.0
  0
LINE
  5
F5
100
AcDbEntity
  8
0
  6
CENTER
 62
               2
100
AcDbLine
 10
-16.399999999999977
 20
-0.3120217549145821
 30
0.0
 11
-16.399999999999977
 21
-8.1634820697028943
 31
0.0
  0
LINE
  5
F6
100
AcDbEntity
  8
0
  6
CENTER
 62
               2
100
AcDbLine
 10
-7.8555882192471813
 20
-5.532289409152412
 30
0.0
 11
-22.0
 21
-5.532289409152412
 31
0.0
  0
LINE
  5
F7
100
AcDbEntity
  8
0
  6
CENTER
 62
               2
100
AcDbLine
 10
-20.430359701872305
 20
-4.1322894091524347
 30
0.0
 11
-12.546982881739325
 21
-4.1322894091524347
 31
0.0
  0
LINE
  5
F8
100
AcDbEntity
  8
0
  6
CENTER
 62
               2
100
AcDbLine
 10
-18.195856986851084
 20
-2.032289409152412
 30
0.0
 11
-20.400000000000006
 21
-2.032289409152412
 31
0.0
  0
LINE
  5
F9
100
AcDbEntity
  8
0
  6
CONTINUOUS
 62
               7
100
AcDbLine
 10
-18.799999999999983
 20
-3.6322894091524347
 30
0.0
 11
-18.799999999999983
 21
-0.532289409152412
 31
0.0
  0
LINE
  5
FA
100
AcDbEntity
  8
0
  6
CONTINUOUS
 62
               7
100
AcDbLine
 10
-18.799999999999983
 20
-3.6322894091524347
 30
0.0
 11
-20.0
 21
-3.6322894091524347
 31
0.0
  0
CIRCLE
  5
FB
100
AcDbEntity
  8
0
  6
DASHED
 62
               2
100
AcDbCircle
 10
-16.399999999999977
 20
-4.1322894091524347
 30
0.0
 40
3.0
  0
LINE
  5
FC
100
AcDbEntity
  8
0
  6
CONTINUOUS
 62
               7
100
AcDbLine
 10
-20.0
 20
-9.9406382598299672
 30
0.0
 11
-20.0
 21
-1.1239405601482702
 31
0.0
  0
LINE
  5
FD
100
AcDbEntity
  8
0
  6
CONTINUOUS
 62
               7
100
AcDbLine
 10
-12.699999999999989
 20
-10.532289410825825
 30
0.0
 11
-12.699999999999989
 21
-0.532289409152412
 31
0.0
  0
LINE
  5
FE
100
AcDbEntity
  8
0
  6
CONTINUOUS
 62
               7
100
AcDbLine
 10
14.999999999999972
 20
-1.0
 30
0.0
 11
-9.0
 21
-1.0
 31
0.0
  0
LINE
  5
FF
100
AcDbEntity
  8
0
  6
CONTINUOUS
 62
               7
100
AcDbLine
 10
-15.0
 20
-11.0
 30
0.0
 11
-15.0
 21
-16.800000000000011
 31
0.0
  0
LINE
  5
100
100
AcDbEntity
  8
0
  6
CONTINUOUS
 62
               7
100
AcDbLine
 10
-9.0
 20
0.0
 30
0.0
 11
13.999999999999972
 21
0.0
 31
0.0
  0
ARC
  5
101
100
AcDbEntity
  8
0
  6
CONTINUOUS
 62
               7
100
AcDbCircle
 10
10.606601717798213
 20
-6.5
 30
0.0
 40
3.5
100
AcDbArc
 50
98.213210701737992
 51
261.78678929826128
  0
ARC
  5
102
100
AcDbEntity
  8
0
  6
CONTINUOUS
 62
               7
100
AcDbCircle
 10
10.606601717798213
 20
-6.5
 30
0.0
 40
3.5
100
AcDbArc
 50
278.21321070173758
 51
81.786789298261581
  0
ARC
  5
103
100
AcDbEntity
  8
0
  6
CONTINUOUS
 62
               7
100
AcDbCircle
 10
10.606601717798213
 20
-6.5
 30
0.0
 40
4.0
100
AcDbArc
 50
301.04497562813941
 51
358.95502437185911
  0
ARC
  5
104
100
AcDbEntity
  8
0
  6
CONTINUOUS
 62
               7
100
AcDbCircle
 10
10.606601717798213
 20
-6.5
 30
0.0
 40
4.0
100
AcDbArc
 50
241.04497562813958
 51
298.95502437185922
  0
ARC
  5
105
100
AcDbEntity
  8
0
  6
CONTINUOUS
 62
               7
100
AcDbCircle
 10
10.606601717798213
 20
-6.5
 30
0.0
 40
4.0
100
AcDbArc
 50
181.04497562813958
 51
238.95502437185922
  0
ARC
  5
106
100
AcDbEntity
  8
0
  6
CONTINUOUS
 62
               7
100
AcDbCircle
 10
10.606601717798213
 20
-6.5
 30
0.0
 40
4.0
100
AcDbArc
 50
121.04497562813988
 51
178.95502437185934
  0
ARC
  5
107
100
AcDbEntity
  8
0
  6
CONTINUOUS
 62
               7
100
AcDbCircle
 10
10.606601717798213
 20
-6.5
 30
0.0
 40
4.0
100
AcDbArc
 50
61.044975628139994
 51
118.95502437185961
  0
ARC
  5
108
100
AcDbEntity
  8
0
  6
CONTINUOUS
 62
               7
100
AcDbCircle
 10
10.606601717798213
 20
-6.5
 30
0.0
 40
4.0
100
AcDbArc
 50
1.0449756281401477
 51
58.955024371859722
  0
CIRCLE
  5
109
100
AcDbEntity
  8
0
  6
CONTINUOUS
 62
               7
100
AcDbCircle
 10
10.606601717798213
 20
-6.5
 30
0.0
 40
4.2000000000000002
  0
LINE
  5
10A
100
AcDbEntity
  8
0
  6
CONTINUOUS
 62
               7
100
AcDbLine
 10
12.627327659961878
 20
-10.0
 30
0.0
 11
14.648053602125572
 21
-6.5
 31
0.0
  0
LINE
  5
10B
100
AcDbEntity
  8
0
  6
CONTINUOUS
 62
               7
100
AcDbLine
 10
8.5858757756345199
 20
-10.0
 30
0.0
 11
12.627327659961878
 21
-10.0
 31
0.0
  0
LINE
  5
10C
100
AcDbEntity
  8
0
  6
CONTINUOUS
 62
               7
100
AcDbLine
 10
6.5651498334708265
 20
-6.5
 30
0.0
 11
8.5858757756345199
 21
-10.0
 31
0.0
  0
LINE
  5
10D
100
AcDbEntity
  8
0
  6
CONTINUOUS
 62
               7
100
AcDbLine
 10
8.5858757756345199
 20
-3.0
 30
0.0
 11
6.5651498334708265
 21
-6.5
 31
0.0
  0
LINE
  5
10E
100
AcDbEntity
  8
0
  6
CONTINUOUS
 62
               7
100
AcDbLine
 10
12.627327659961878
 20
-3.0
 30
0.0
 11
8.5858757756345199
 21
-3.0
 31
0.0
  0
LINE
  5
10F
100
AcDbEntity
  8
0
  6
CONTINUOUS
 62
               7
100
AcDbLine
 10
14.648053602125572
 20
-6.5
 30
0.0
 11
12.627327659961878
 21
-3.0
 31
0.0
  0
LINE
  5
110
100
AcDbEntity
  8
0
  6
CONTINUOUS
 62
               7
100
AcDbLine
 10
10.106601717798213
 20
-3.0
 30
0.0
 11
10.106601717798213
 21
-10.0
 31
0.0
  0
LINE
  5
111
100
AcDbEntity
  8
0
  6
CONTINUOUS
 62
               7
100
AcDbLine
 10
11.106601717798213
 20
-3.0
 30
0.0
 11
11.106601717798213
 21
-10.0
 31
0.0
  0
LINE
  5
112
100
AcDbEntity
  8
0
  6
CONTINUOUS
 62
               7
100
AcDbLine
 10
14.0
 20
0.0
 30
0.0
 11
15.0
 21
-1.0
 31
0.0
  0
LINE
  5
113
100
AcDbEntity
  8
0
  6
CONTINUOUS
 62
               7
100
AcDbLine
 10
14.800000000000097
 20
-17.0
 30
0.0
 11
-14.800000000000011
 21
-17.0
 31
0.0
  0
LINE
  5
114
100
AcDbEntity
  8
0
  6
CONTINUOUS
 62
               7
100
AcDbLine
 10
15.0
 20
-1.0
 30
0.0
 11
15.0
 21
-16.800000000000011
 31
0.0
  0
LINE
  5
115
100
AcDbEntity
  8
0
  6
CENTER
 62
               2
100
AcDbLine
 10
17.193376937818158
 20
-6.5
 30
0.0
 11
4.4066017177981962
 21
-6.5
 31
0.0
  0
LINE
  5
116
100
AcDbEntity
  8
0
  6
CENTER
 62
               2
100
AcDbLine
 10
10.606601717798213
 20
-0.3000000000000114
 30
0.0
 11
10.606601717798213
 21
-12.700000000000017
 31
0.0
  0
ENDBLK
  5
117
100
AcDbEntity
  8
0
100
AcDbBlockEnd
  0
BLOCK
  5
118
100
AcDbEntity
  8
0
100
AcDbBlockBegin
  2
NCT30-4
 70
               0
 10
0.0
 20
0.0
 30
0.0
  3
NCT30-4
  1

  0
LINE
  5
119
100
AcDbEntity
  8
0
  6
CONTINUOUS
 62
               7
100
AcDbLine
 10
-12.52499998994179
 20
37.051654072109983
 30
0.0
 11
-12.52499998994179
 21
38.444273494963539
 31
0.0
  0
LINE
  5
11A
100
AcDbEntity
  8
0
  6
CONTINUOUS
 62
               7
100
AcDbLine
 10
-12.763450613617948
 20
37.747963791222759
 30
0.0
 11
-12.52499998994179
 21
37.885633320357414
 31
0.0
  0
LINE
  5
11B
100
AcDbEntity
  8
0
  6
CONTINUOUS
 62
               7
100
AcDbLine
 10
-12.574999989941745
 20
42.047963803143688
 30
0.0
 11
-12.574999989941745
 21
39.747963791222759
 31
0.0
  0
ARC
  5
11C
100
AcDbEntity
  8
0
  6
CONTINUOUS
 62
               7
100
AcDbCircle
 10
-12.824999989941745
 20
39.747963791222759
 30
0.0
 40
0.25
100
AcDbArc
 50
270.00000000000023
 51
0.0
  0
ARC
  5
11D
100
AcDbEntity
  8
0
  6
CONTINUOUS
 62
               7
100
AcDbCircle
 10
-12.824999989941745
 20
42.04796379122277
 30
0.0
 40
0.25
100
AcDbArc
 50
0.0
 51
89.999999999999815
  0
LINE
  5
11E
100
AcDbEntity
  8
0
  6
CONTINUOUS
 62
               7
100
AcDbLine
 10
-12.52499998994179
 20
49.297963803143688
 30
0.0
 11
-12.52499998994179
 21
48.797963803143688
 31
0.0
  0
ARC
  5
11F
100
AcDbEntity
  8
0
  6
CONTINUOUS
 62
               7
100
AcDbCircle
 10
-12.77499998994179
 20
43.29796379122277
 30
0.0
 40
0.25
100
AcDbArc
 50
269.99999999999937
 51
0.0
  0
LINE
  5
120
100
AcDbEntity
  8
0
  6
CONTINUOUS
 62
               7
100
AcDbLine
 10
-12.774999997019819
 20
45.29796379122277
 30
0.0
 11
-12.52499998994179
 21
45.29796379122277
 31
0.0
  0
LINE
  5
121
100
AcDbEntity
  8
0
  6
CONTINUOUS
 62
               7
100
AcDbLine
 10
-12.774999997019819
 20
48.79796379122277
 30
0.0
 11
-12.52499998994179
 21
48.79796379122277
 31
0.0
  0
LINE
  5
122
100
AcDbEntity
  8
0
  6
CONTINUOUS
 62
               7
100
AcDbLine
 10
-13.02499998994179
 20
48.547963803143688
 30
0.0
 11
-13.02499998994179
 21
45.54796379122277
 31
0.0
  0
ARC
  5
123
100
AcDbEntity
  8
0
  6
CONTINUOUS
 62
               7
100
AcDbCircle
 10
-12.77499998994179
 20
48.54796379122277
 30
0.0
 40
0.25
100
AcDbArc
 50
89.999999999999815
 51
179.99999999999963
  0
ARC
  5
124
100
AcDbEntity
  8
0
  6
CONTINUOUS
 62
               7
100
AcDbCircle
 10
-12.77499998994179
 20
45.54796379122277
 30
0.0
 40
0.25
100
AcDbArc
 50
179.99999999999963
 51
269.99999999999937
  0
LINE
  5
125
100
AcDbEntity
  8
0
  6
CONTINUOUS
 62
               7
100
AcDbLine
 10
-12.52499998994179
 20
45.29796379122277
 30
0.0
 11
-12.52499998994179
 21
43.297963803143688
 31
0.0
  0
LINE
  5
126
100
AcDbEntity
  8
0
  6
CONTINUOUS
 62
               7
100
AcDbLine
 10
-12.724999989941722
 20
48.797963803143688
 30
0.0
 11
-12.724999989941722
 21
48.146964887967584
 31
0.0
  0
LINE
  5
127
100
AcDbEntity
  8
0
  6
CONTINUOUS
 62
               7
100
AcDbLine
 10
-12.824999989941745
 20
48.797963803143688
 30
0.0
 11
-12.824999989941745
 21
48.166223128324333
 31
0.0
  0
LINE
  5
128
100
AcDbEntity
  8
0
  6
CONTINUOUS
 62
               7
100
AcDbLine
 10
-12.824999989941745
 20
48.166223128324333
 30
0.0
 11
-13.02499998994179
 21
47.666223128324333
 31
0.0
  0
LINE
  5
129
100
AcDbEntity
  8
0
  6
CONTINUOUS
 62
               7
100
AcDbLine
 10
-12.724999989941722
 20
48.146964887967584
 30
0.0
 11
-13.02499998994179
 21
47.396964887967584
 31
0.0
  0
LINE
  5
12A
100
AcDbEntity
  8
0
  6
CONTINUOUS
 62
               7
100
AcDbLine
 10
-12.526520264985066
 20
45.641740747280863
 30
0.0
 11
-12.724999983106301
 21
45.29796379122277
 31
0.0
  0
LINE
  5
12B
100
AcDbEntity
  8
0
  6
CONTINUOUS
 62
               7
100
AcDbLine
 10
-12.627916207909635
 20
45.644373958440013
 30
0.0
 11
-12.827916210889867
 21
45.297963773341365
 31
0.0
  0
LINE
  5
12C
100
AcDbEntity
  8
0
  6
CONTINUOUS
 62
               7
100
AcDbLine
 10
-12.62791621261718
 20
45.644373928637691
 30
0.0
 11
-12.917296693799045
 21
47.666223128324333
 31
0.0
  0
LINE
  5
12D
100
AcDbEntity
  8
0
  6
CONTINUOUS
 62
               7
100
AcDbLine
 10
-12.526520264985066
 20
45.641740747280863
 30
0.0
 11
-12.842898524445019
 21
47.852218551709342
 31
0.0
  0
LINE
  5
12E
100
AcDbEntity
  8
0
  6
CONTINUOUS
 62
               7
100
AcDbLine
 10
-12.950000000000074
 20
38.459114823660371
 30
0.0
 11
-12.950000000000074
 21
39.497963791222759
 31
0.0
  0
LINE
  5
12F
100
AcDbEntity
  8
0
  6
CONTINUOUS
 62
               7
100
AcDbLine
 10
-12.950000000000074
 20
42.297963801941393
 30
0.0
 11
-12.950000000000074
 21
43.04796379122277
 31
0.0
  0
LINE
  5
130
100
AcDbEntity
  8
0
  6
CONTINUOUS
 62
               7
100
AcDbLine
 10
-12.950000000000074
 20
37.008876136611065
 30
0.0
 11
-12.950000000000074
 21
33.464381095037169
 31
0.0
  0
LINE
  5
131
100
AcDbEntity
  8
0
  6
CONTINUOUS
 62
               7
100
AcDbLine
 10
-18.52499998994179
 20
37.051654072109983
 30
0.0
 11
-18.52499998994179
 21
38.444273494963539
 31
0.0
  0
LINE
  5
132
100
AcDbEntity
  8
0
  6
CONTINUOUS
 62
               7
100
AcDbLine
 10
-20.262488654255918
 20
38.497963791222759
 30
0.0
 11
-20.262488654255918
 21
36.990979638391622
 31
0.0
  0
LINE
  5
133
100
AcDbEntity
  8
0
  6
CONTINUOUS
 62
               7
100
AcDbLine
 10
-20.175000002980283
 20
49.29796379122277
 30
0.0
 11
-18.524999997019819
 21
49.29796379122277
 31
0.0
  0
LINE
  5
134
100
AcDbEntity
  8
0
  6
CONTINUOUS
 62
               7
100
AcDbLine
 10
-19.974999990686825
 20
39.497963821025081
 30
0.0
 11
-20.062488653138331
 21
38.497963821025081
 31
0.0
  0
LINE
  5
135
100
AcDbEntity
  8
0
  6
CONTINUOUS
 62
               7
100
AcDbLine
 10
-20.174999989941767
 20
39.497963821025081
 30
0.0
 11
-20.262488652393273
 21
38.497963821025081
 31
0.0
  0
LINE
  5
136
100
AcDbEntity
  8
0
  6
CONTINUOUS
 62
               7
100
AcDbLine
 10
-20.06248869597917
 20
38.49796380612392
 30
0.0
 11
-18.52499998994179
 21
37.610294284914943
 31
0.0
  0
LINE
  5
137
100
AcDbEntity
  8
0
  6
CONTINUOUS
 62
               7
100
AcDbLine
 10
-20.262488654255918
 20
36.990979638391622
 30
0.0
 11
-18.52499998994179
 21
37.051654079726148
 31
0.0
  0
LINE
  5
138
100
AcDbEntity
  8
0
  6
CONTINUOUS
 62
               7
100
AcDbLine
 10
-20.062488904595426
 20
38.497963790291436
 30
0.0
 11
-18.52499998994179
 21
38.444273494963539
 31
0.0
  0
LINE
  5
139
100
AcDbEntity
  8
0
  6
CONTINUOUS
 62
               7
100
AcDbLine
 10
-18.763450613617948
 20
37.747963791222759
 30
0.0
 11
-18.52499998994179
 21
37.885633320357414
 31
0.0
  0
LINE
  5
13A
100
AcDbEntity
  8
0
  6
CONTINUOUS
 62
               7
100
AcDbLine
 10
-19.774038097262434
 20
42.29796379122277
 30
0.0
 11
-18.824999979138425
 21
42.29796379122277
 31
0.0
  0
LINE
  5
13B
100
AcDbEntity
  8
0
  6
CONTINUOUS
 62
               7
100
AcDbLine
 10
-19.97499998509889
 20
39.497963791222759
 30
0.0
 11
-18.824999989941745
 21
39.497963791222759
 31
0.0
  0
LINE
  5
13C
100
AcDbEntity
  8
0
  6
CONTINUOUS
 62
               7
100
AcDbLine
 10
-20.174999989941767
 20
49.497963791222759
 30
0.0
 11
-20.174999989941767
 21
48.597963791222782
 31
0.0
  0
LINE
  5
13D
100
AcDbEntity
  8
0
  6
CONTINUOUS
 62
               7
100
AcDbLine
 10
-18.574999989941745
 20
42.047963803143688
 30
0.0
 11
-18.574999989941745
 21
39.747963791222759
 31
0.0
  0
ARC
  5
13E
100
AcDbEntity
  8
0
  6
CONTINUOUS
 62
               7
100
AcDbCircle
 10
-18.824999989941745
 20
39.747963791222759
 30
0.0
 40
0.25
100
AcDbArc
 50
270.00000000000023
 51
0.0
  0
ARC
  5
13F
100
AcDbEntity
  8
0
  6
CONTINUOUS
 62
               7
100
AcDbCircle
 10
-18.824999989941745
 20
42.04796379122277
 30
0.0
 40
0.25
100
AcDbArc
 50
0.0
 51
89.999999999999815
  0
LINE
  5
140
100
AcDbEntity
  8
0
  6
CONTINUOUS
 62
               7
100
AcDbLine
 10
-18.52499998994179
 20
49.297963803143688
 30
0.0
 11
-18.52499998994179
 21
48.797963803143688
 31
0.0
  0
LINE
  5
141
100
AcDbEntity
  8
0
  6
CONTINUOUS
 62
               7
100
AcDbLine
 10
-19.649193665385297
 20
43.04796379122277
 30
0.0
 11
-18.774999997019819
 21
43.04796379122277
 31
0.0
  0
ARC
  5
142
100
AcDbEntity
  8
0
  6
CONTINUOUS
 62
               7
100
AcDbCircle
 10
-18.77499998994179
 20
43.29796379122277
 30
0.0
 40
0.25
100
AcDbArc
 50
269.99999999999937
 51
0.0
  0
LINE
  5
143
100
AcDbEntity
  8
0
  6
CONTINUOUS
 62
               7
100
AcDbLine
 10
-19.890675118565611
 20
42.733259057135768
 30
0.0
 11
-19.774038112163595
 21
42.29796383294601
 31
0.0
  0
ARC
  5
144
100
AcDbEntity
  8
0
  6
CONTINUOUS
 62
               7
100
AcDbCircle
 10
-19.649193652096898
 20
42.79796379122277
 30
0.0
 40
0.25
100
AcDbArc
 50
89.999999999999815
 51
194.99999339411929
  0
LINE
  5
145
100
AcDbEntity
  8
0
  6
CONTINUOUS
 62
               7
100
AcDbLine
 10
-18.774999997019819
 20
45.29796379122277
 30
0.0
 11
-18.52499998994179
 21
45.29796379122277
 31
0.0
  0
LINE
  5
146
100
AcDbEntity
  8
0
  6
CONTINUOUS
 62
               7
100
AcDbLine
 10
-18.774999997019819
 20
48.79796379122277
 30
0.0
 11
-18.52499998994179
 21
48.79796379122277
 31
0.0
  0
LINE
  5
147
100
AcDbEntity
  8
0
  6
CONTINUOUS
 62
               7
100
AcDbLine
 10
-19.02499998994179
 20
48.547963803143688
 30
0.0
 11
-19.02499998994179
 21
45.54796379122277
 31
0.0
  0
ARC
  5
148
100
AcDbEntity
  8
0
  6
CONTINUOUS
 62
               7
100
AcDbCircle
 10
-18.77499998994179
 20
48.54796379122277
 30
0.0
 40
0.25
100
AcDbArc
 50
89.999999999999815
 51
179.99999999999963
  0
ARC
  5
149
100
AcDbEntity
  8
0
  6
CONTINUOUS
 62
               7
100
AcDbCircle
 10
-18.77499998994179
 20
45.54796379122277
 30
0.0
 40
0.25
100
AcDbArc
 50
179.99999999999963
 51
269.99999999999937
  0
LINE
  5
14A
100
AcDbEntity
  8
0
  6
CONTINUOUS
 62
               7
100
AcDbLine
 10
-18.52499998994179
 20
45.29796379122277
 30
0.0
 11
-18.52499998994179
 21
43.297963803143688
 31
0.0
  0
LINE
  5
14B
100
AcDbEntity
  8
0
  6
CONTINUOUS
 62
               7
100
AcDbLine
 10
-20.175000002980283
 20
48.79796379122277
 30
0.0
 11
-20.074999979138425
 21
48.79796379122277
 31
0.0
  0
LINE
  5
14C
100
AcDbEntity
  8
0
  6
CONTINUOUS
 62
               7
100
AcDbLine
 10
-20.174999989941767
 20
48.597963791222782
 30
0.0
 11
-20.674999989941767
 21
46.497963791222759
 31
0.0
  0
LINE
  5
14D
100
AcDbEntity
  8
0
  6
CONTINUOUS
 62
               7
100
AcDbLine
 10
-20.072204594013584
 20
48.597963791222782
 30
0.0
 11
-20.577719368473282
 21
46.474801738492175
 31
0.0
  0
LINE
  5
14E
100
AcDbEntity
  8
0
  6
CONTINUOUS
 62
               7
100
AcDbLine
 10
-20.674999989941767
 20
46.497963791222759
 30
0.0
 11
-20.577719368473282
 21
46.474801738492175
 31
0.0
  0
LINE
  5
14F
100
AcDbEntity
  8
0
  6
CONTINUOUS
 62
               7
100
AcDbLine
 10
-20.174999989941767
 20
48.166223128324333
 30
0.0
 11
-20.174999989941767
 21
45.990784158312323
 31
0.0
  0
LINE
  5
150
100
AcDbEntity
  8
0
  6
CONTINUOUS
 62
               7
100
AcDbLine
 10
-20.072204594013584
 20
48.797963803143688
 30
0.0
 11
-20.072204594013584
 21
48.597963791222782
 31
0.0
  0
LINE
  5
151
100
AcDbEntity
  8
0
  6
CONTINUOUS
 62
               7
100
AcDbLine
 10
-19.974999989941722
 20
48.69796377930183
 30
0.0
 11
-19.974999989941722
 21
48.266223128324299
 31
0.0
  0
ARC
  5
152
100
AcDbEntity
  8
0
  6
CONTINUOUS
 62
               7
100
AcDbCircle
 10
-20.074999989941745
 20
48.697963791222804
 30
0.0
 40
0.1
100
AcDbArc
 50
0.0
 51
89.999999999999815
  0
LINE
  5
153
100
AcDbEntity
  8
0
  6
CONTINUOUS
 62
               7
100
AcDbLine
 10
-20.175000002980283
 20
48.166223128324333
 30
0.0
 11
-20.074999979138425
 21
48.166223128324333
 31
0.0
  0
ARC
  5
154
100
AcDbEntity
  8
0
  6
CONTINUOUS
 62
               7
100
AcDbCircle
 10
-20.074999989941745
 20
48.266223128324299
 30
0.0
 40
0.1
100
AcDbArc
 50
270.00000000000023
 51
0.0
  0
LINE
  5
155
100
AcDbEntity
  8
0
  6
CONTINUOUS
 62
               7
100
AcDbLine
 10
-20.175000002980283
 20
47.666223128324333
 30
0.0
 11
-20.074999979138425
 21
47.666223128324333
 31
0.0
  0
LINE
  5
156
100
AcDbEntity
  8
0
  6
CONTINUOUS
 62
               7
100
AcDbLine
 10
-20.175000002980283
 20
45.29796379122277
 30
0.0
 11
-20.074999979138425
 21
45.29796379122277
 31
0.0
  0
LINE
  5
157
100
AcDbEntity
  8
0
  6
CONTINUOUS
 62
               7
100
AcDbLine
 10
-19.974999989941722
 20
47.566223119826503
 30
0.0
 11
-19.974999989941722
 21
45.397963797183223
 31
0.0
  0
ARC
  5
158
100
AcDbEntity
  8
0
  6
CONTINUOUS
 62
               7
100
AcDbCircle
 10
-20.074999989941745
 20
45.397963791222736
 30
0.0
 40
0.1
100
AcDbArc
 50
270.00000000000023
 51
0.0
  0
ARC
  5
159
100
AcDbEntity
  8
0
  6
CONTINUOUS
 62
               7
100
AcDbCircle
 10
-20.074999989941745
 20
47.56622312832431
 30
0.0
 40
0.1
100
AcDbArc
 50
0.0
 51
89.999999999999815
  0
LINE
  5
15A
100
AcDbEntity
  8
0
  6
CONTINUOUS
 62
               7
100
AcDbLine
 10
-20.174999989941767
 20
45.29796379122277
 30
0.0
 11
-20.174999989941767
 21
39.497963791222759
 31
0.0
  0
LINE
  5
15B
100
AcDbEntity
  8
0
  6
CONTINUOUS
 62
               7
100
AcDbLine
 10
-19.975000000000051
 20
45.644373958440013
 30
0.0
 11
-20.174999989941767
 21
45.297963814347696
 31
0.0
  0
LINE
  5
15C
100
AcDbEntity
  8
0
  6
CONTINUOUS
 62
               7
100
AcDbLine
 10
-20.175000002980283
 20
45.990784173340984
 30
0.0
 11
-19.974999970197729
 21
45.644373958440013
 31
0.0
  0
LINE
  5
15D
100
AcDbEntity
  8
0
  6
CONTINUOUS
 62
               7
100
AcDbLine
 10
-20.074999994039587
 20
46.017579113574214
 30
0.0
 11
-19.974999970197729
 21
45.844373976321407
 31
0.0
  0
LINE
  5
15E
100
AcDbEntity
  8
0
  6
CONTINUOUS
 62
               7
100
AcDbLine
 10
-20.074999989941745
 20
47.666223128324333
 30
0.0
 11
-20.074999989941745
 21
46.017579099775361
 31
0.0
  0
LINE
  5
15F
100
AcDbEntity
  8
0
  6
CONTINUOUS
 62
               7
100
AcDbLine
 10
-18.724999989941722
 20
48.797963803143688
 30
0.0
 11
-18.724999989941722
 21
48.146964887967584
 31
0.0
  0
LINE
  5
160
100
AcDbEntity
  8
0
  6
CONTINUOUS
 62
               7
100
AcDbLine
 10
-18.824999989941745
 20
48.797963803143688
 30
0.0
 11
-18.824999989941745
 21
48.166223128324333
 31
0.0
  0
LINE
  5
161
100
AcDbEntity
  8
0
  6
CONTINUOUS
 62
               7
100
AcDbLine
 10
-18.824999989941745
 20
48.166223128324333
 30
0.0
 11
-19.02499998994179
 21
47.666223128324333
 31
0.0
  0
LINE
  5
162
100
AcDbEntity
  8
0
  6
CONTINUOUS
 62
               7
100
AcDbLine
 10
-18.724999989941722
 20
48.146964887967584
 30
0.0
 11
-19.02499998994179
 21
47.396964887967584
 31
0.0
  0
LINE
  5
163
100
AcDbEntity
  8
0
  6
CONTINUOUS
 62
               7
100
AcDbLine
 10
-18.526520264985066
 20
45.641740747280863
 30
0.0
 11
-18.724999983106301
 21
45.29796379122277
 31
0.0
  0
LINE
  5
164
100
AcDbEntity
  8
0
  6
CONTINUOUS
 62
               7
100
AcDbLine
 10
-18.627916207909635
 20
45.644373958440013
 30
0.0
 11
-18.827916210889867
 21
45.297963773341365
 31
0.0
  0
LINE
  5
165
100
AcDbEntity
  8
0
  6
CONTINUOUS
 62
               7
100
AcDbLine
 10
-18.62791621261718
 20
45.644373928637691
 30
0.0
 11
-18.917296693799045
 21
47.666223128324333
 31
0.0
  0
LINE
  5
166
100
AcDbEntity
  8
0
  6
CONTINUOUS
 62
               7
100
AcDbLine
 10
-18.526520264985066
 20
45.641740747280863
 30
0.0
 11
-18.842898524445019
 21
47.852218551709342
 31
0.0
  0
LINE
  5
167
100
AcDbEntity
  8
0
  6
CONTINUOUS
 62
               7
100
AcDbLine
 10
-20.175000002980283
 20
49.497963791222759
 30
0.0
 11
-19.874999989941813
 21
49.497963791222759
 31
0.0
  0
LINE
  5
168
100
AcDbEntity
  8
0
  6
CONTINUOUS
 62
               7
100
AcDbLine
 10
-19.874999989941813
 20
49.497963791222759
 30
0.0
 11
-19.874999989941813
 21
49.29796379122277
 31
0.0
  0
LINE
  5
169
100
AcDbEntity
  8
0
  6
CONTINUOUS
 62
               7
100
AcDbLine
 10
-15.52499998994179
 20
37.051654072109983
 30
0.0
 11
-15.52499998994179
 21
38.444273494963539
 31
0.0
  0
LINE
  5
16A
100
AcDbEntity
  8
0
  6
CONTINUOUS
 62
               7
100
AcDbLine
 10
-17.262488654255918
 20
38.497963791222759
 30
0.0
 11
-17.262488654255918
 21
36.990979638391622
 31
0.0
  0
LINE
  5
16B
100
AcDbEntity
  8
0
  6
CONTINUOUS
 62
               7
100
AcDbLine
 10
-17.175000002980283
 20
49.29796379122277
 30
0.0
 11
-15.524999997019819
 21
49.29796379122277
 31
0.0
  0
LINE
  5
16C
100
AcDbEntity
  8
0
  6
CONTINUOUS
 62
               7
100
AcDbLine
 10
-16.974999990686825
 20
39.497963821025081
 30
0.0
 11
-17.062488653138331
 21
38.497963821025081
 31
0.0
  0
LINE
  5
16D
100
AcDbEntity
  8
0
  6
CONTINUOUS
 62
               7
100
AcDbLine
 10
-17.174999989941767
 20
39.497963821025081
 30
0.0
 11
-17.262488652393273
 21
38.497963821025081
 31
0.0
  0
LINE
  5
16E
100
AcDbEntity
  8
0
  6
CONTINUOUS
 62
               7
100
AcDbLine
 10
-17.06248869597917
 20
38.49796380612392
 30
0.0
 11
-15.52499998994179
 21
37.610294284914943
 31
0.0
  0
LINE
  5
16F
100
AcDbEntity
  8
0
  6
CONTINUOUS
 62
               7
100
AcDbLine
 10
-17.262488654255918
 20
36.990979638391622
 30
0.0
 11
-15.52499998994179
 21
37.051654079726148
 31
0.0
  0
LINE
  5
170
100
AcDbEntity
  8
0
  6
CONTINUOUS
 62
               7
100
AcDbLine
 10
-17.062488904595426
 20
38.497963790291436
 30
0.0
 11
-15.52499998994179
 21
38.444273494963539
 31
0.0
  0
LINE
  5
171
100
AcDbEntity
  8
0
  6
CONTINUOUS
 62
               7
100
AcDbLine
 10
-15.763450613617948
 20
37.747963791222759
 30
0.0
 11
-15.52499998994179
 21
37.885633320357414
 31
0.0
  0
LINE
  5
172
100
AcDbEntity
  8
0
  6
CONTINUOUS
 62
               7
100
AcDbLine
 10
-16.774038097262434
 20
42.29796379122277
 30
0.0
 11
-15.824999979138425
 21
42.29796379122277
 31
0.0
  0
LINE
  5
173
100
AcDbEntity
  8
0
  6
CONTINUOUS
 62
               7
100
AcDbLine
 10
-16.97499998509889
 20
39.497963791222759
 30
0.0
 11
-15.824999989941745
 21
39.497963791222759
 31
0.0
  0
LINE
  5
174
100
AcDbEntity
  8
0
  6
CONTINUOUS
 62
               7
100
AcDbLine
 10
-17.174999989941767
 20
49.497963791222759
 30
0.0
 11
-17.174999989941767
 21
48.597963791222782
 31
0.0
  0
LINE
  5
175
100
AcDbEntity
  8
0
  6
CONTINUOUS
 62
               7
100
AcDbLine
 10
-15.574999989941745
 20
42.047963803143688
 30
0.0
 11
-15.574999989941745
 21
39.747963791222759
 31
0.0
  0
ARC
  5
176
100
AcDbEntity
  8
0
  6
CONTINUOUS
 62
               7
100
AcDbCircle
 10
-15.824999989941745
 20
39.747963791222759
 30
0.0
 40
0.25
100
AcDbArc
 50
270.00000000000023
 51
0.0
  0
ARC
  5
177
100
AcDbEntity
  8
0
  6
CONTINUOUS
 62
               7
100
AcDbCircle
 10
-15.824999989941745
 20
42.04796379122277
 30
0.0
 40
0.25
100
AcDbArc
 50
0.0
 51
89.999999999999815
  0
LINE
  5
178
100
AcDbEntity
  8
0
  6
CONTINUOUS
 62
               7
100
AcDbLine
 10
-15.52499998994179
 20
49.297963803143688
 30
0.0
 11
-15.52499998994179
 21
48.797963803143688
 31
0.0
  0
LINE
  5
179
100
AcDbEntity
  8
0
  6
CONTINUOUS
 62
               7
100
AcDbLine
 10
-16.649193665385297
 20
43.04796379122277
 30
0.0
 11
-15.774999997019819
 21
43.04796379122277
 31
0.0
  0
ARC
  5
17A
100
AcDbEntity
  8
0
  6
CONTINUOUS
 62
               7
100
AcDbCircle
 10
-15.77499998994179
 20
43.29796379122277
 30
0.0
 40
0.25
100
AcDbArc
 50
269.99999999999937
 51
0.0
  0
LINE
  5
17B
100
AcDbEntity
  8
0
  6
CONTINUOUS
 62
               7
100
AcDbLine
 10
-16.890675118565611
 20
42.733259057135768
 30
0.0
 11
-16.774038112163595
 21
42.29796383294601
 31
0.0
  0
ARC
  5
17C
100
AcDbEntity
  8
0
  6
CONTINUOUS
 62
               7
100
AcDbCircle
 10
-16.649193652096898
 20
42.79796379122277
 30
0.0
 40
0.25
100
AcDbArc
 50
89.999999999999815
 51
194.99999339411929
  0
LINE
  5
17D
100
AcDbEntity
  8
0
  6
CONTINUOUS
 62
               7
100
AcDbLine
 10
-15.774999997019819
 20
45.29796379122277
 30
0.0
 11
-15.52499998994179
 21
45.29796379122277
 31
0.0
  0
LINE
  5
17E
100
AcDbEntity
  8
0
  6
CONTINUOUS
 62
               7
100
AcDbLine
 10
-15.774999997019819
 20
48.79796379122277
 30
0.0
 11
-15.52499998994179
 21
48.79796379122277
 31
0.0
  0
LINE
  5
17F
100
AcDbEntity
  8
0
  6
CONTINUOUS
 62
               7
100
AcDbLine
 10
-16.02499998994179
 20
48.547963803143688
 30
0.0
 11
-16.02499998994179
 21
45.54796379122277
 31
0.0
  0
ARC
  5
180
100
AcDbEntity
  8
0
  6
CONTINUOUS
 62
               7
100
AcDbCircle
 10
-15.77499998994179
 20
48.54796379122277
 30
0.0
 40
0.25
100
AcDbArc
 50
89.999999999999815
 51
179.99999999999963
  0
ARC
  5
181
100
AcDbEntity
  8
0
  6
CONTINUOUS
 62
               7
100
AcDbCircle
 10
-15.77499998994179
 20
45.54796379122277
 30
0.0
 40
0.25
100
AcDbArc
 50
179.99999999999963
 51
269.99999999999937
  0
LINE
  5
182
100
AcDbEntity
  8
0
  6
CONTINUOUS
 62
               7
100
AcDbLine
 10
-15.52499998994179
 20
45.29796379122277
 30
0.0
 11
-15.52499998994179
 21
43.297963803143688
 31
0.0
  0
LINE
  5
183
100
AcDbEntity
  8
0
  6
CONTINUOUS
 62
               7
100
AcDbLine
 10
-17.175000002980283
 20
48.79796379122277
 30
0.0
 11
-17.074999979138425
 21
48.79796379122277
 31
0.0
  0
LINE
  5
184
100
AcDbEntity
  8
0
  6
CONTINUOUS
 62
               7
100
AcDbLine
 10
-17.174999989941767
 20
48.597963791222782
 30
0.0
 11
-17.674999989941767
 21
46.497963791222759
 31
0.0
  0
LINE
  5
185
100
AcDbEntity
  8
0
  6
CONTINUOUS
 62
               7
100
AcDbLine
 10
-17.072204594013584
 20
48.597963791222782
 30
0.0
 11
-17.577719368473282
 21
46.474801738492175
 31
0.0
  0
LINE
  5
186
100
AcDbEntity
  8
0
  6
CONTINUOUS
 62
               7
100
AcDbLine
 10
-17.674999989941767
 20
46.497963791222759
 30
0.0
 11
-17.577719368473282
 21
46.474801738492175
 31
0.0
  0
LINE
  5
187
100
AcDbEntity
  8
0
  6
CONTINUOUS
 62
               7
100
AcDbLine
 10
-17.174999989941767
 20
48.166223128324333
 30
0.0
 11
-17.174999989941767
 21
45.990784158312323
 31
0.0
  0
LINE
  5
188
100
AcDbEntity
  8
0
  6
CONTINUOUS
 62
               7
100
AcDbLine
 10
-17.072204594013584
 20
48.797963803143688
 30
0.0
 11
-17.072204594013584
 21
48.597963791222782
 31
0.0
  0
LINE
  5
189
100
AcDbEntity
  8
0
  6
CONTINUOUS
 62
               7
100
AcDbLine
 10
-16.974999989941722
 20
48.69796377930183
 30
0.0
 11
-16.974999989941722
 21
48.266223128324299
 31
0.0
  0
ARC
  5
18A
100
AcDbEntity
  8
0
  6
CONTINUOUS
 62
               7
100
AcDbCircle
 10
-17.074999989941745
 20
48.697963791222804
 30
0.0
 40
0.1
100
AcDbArc
 50
0.0
 51
89.999999999999815
  0
LINE
  5
18B
100
AcDbEntity
  8
0
  6
CONTINUOUS
 62
               7
100
AcDbLine
 10
-17.175000002980283
 20
48.166223128324333
 30
0.0
 11
-17.074999979138425
 21
48.166223128324333
 31
0.0
  0
ARC
  5
18C
100
AcDbEntity
  8
0
  6
CONTINUOUS
 62
               7
100
AcDbCircle
 10
-17.074999989941745
 20
48.266223128324299
 30
0.0
 40
0.1
100
AcDbArc
 50
270.00000000000023
 51
0.0
  0
LINE
  5
18D
100
AcDbEntity
  8
0
  6
CONTINUOUS
 62
               7
100
AcDbLine
 10
-17.175000002980283
 20
47.666223128324333
 30
0.0
 11
-17.074999979138425
 21
47.666223128324333
 31
0.0
  0
LINE
  5
18E
100
AcDbEntity
  8
0
  6
CONTINUOUS
 62
               7
100
AcDbLine
 10
-17.175000002980283
 20
45.29796379122277
 30
0.0
 11
-17.074999979138425
 21
45.29796379122277
 31
0.0
  0
LINE
  5
18F
100
AcDbEntity
  8
0
  6
CONTINUOUS
 62
               7
100
AcDbLine
 10
-16.974999989941722
 20
47.566223119826503
 30
0.0
 11
-16.974999989941722
 21
45.397963797183223
 31
0.0
  0
ARC
  5
190
100
AcDbEntity
  8
0
  6
CONTINUOUS
 62
               7
100
AcDbCircle
 10
-17.074999989941745
 20
45.397963791222736
 30
0.0
 40
0.1
100
AcDbArc
 50
270.00000000000023
 51
0.0
  0
ARC
  5
191
100
AcDbEntity
  8
0
  6
CONTINUOUS
 62
               7
100
AcDbCircle
 10
-17.074999989941745
 20
47.56622312832431
 30
0.0
 40
0.1
100
AcDbArc
 50
0.0
 51
89.999999999999815
  0
LINE
  5
192
100
AcDbEntity
  8
0
  6
CONTINUOUS
 62
               7
100
AcDbLine
 10
-17.174999989941767
 20
45.29796379122277
 30
0.0
 11
-17.174999989941767
 21
39.497963791222759
 31
0.0
  0
LINE
  5
193
100
AcDbEntity
  8
0
  6
CONTINUOUS
 62
               7
100
AcDbLine
 10
-16.975000000000051
 20
45.644373958440013
 30
0.0
 11
-17.174999989941767
 21
45.297963814347696
 31
0.0
  0
LINE
  5
194
100
AcDbEntity
  8
0
  6
CONTINUOUS
 62
               7
100
AcDbLine
 10
-17.175000002980283
 20
45.990784173340984
 30
0.0
 11
-16.974999970197729
 21
45.644373958440013
 31
0.0
  0
LINE
  5
195
100
AcDbEntity
  8
0
  6
CONTINUOUS
 62
               7
100
AcDbLine
 10
-17.074999994039587
 20
46.017579113574214
 30
0.0
 11
-16.974999970197729
 21
45.844373976321407
 31
0.0
  0
LINE
  5
196
100
AcDbEntity
  8
0
  6
CONTINUOUS
 62
               7
100
AcDbLine
 10
-17.074999989941745
 20
47.666223128324333
 30
0.0
 11
-17.074999989941745
 21
46.017579099775361
 31
0.0
  0
LINE
  5
197
100
AcDbEntity
  8
0
  6
CONTINUOUS
 62
               7
100
AcDbLine
 10
-15.724999989941722
 20
48.797963803143688
 30
0.0
 11
-15.724999989941722
 21
48.146964887967584
 31
0.0
  0
LINE
  5
198
100
AcDbEntity
  8
0
  6
CONTINUOUS
 62
               7
100
AcDbLine
 10
-15.824999989941745
 20
48.797963803143688
 30
0.0
 11
-15.824999989941745
 21
48.166223128324333
 31
0.0
  0
LINE
  5
199
100
AcDbEntity
  8
0
  6
CONTINUOUS
 62
               7
100
AcDbLine
 10
-15.824999989941745
 20
48.166223128324333
 30
0.0
 11
-16.02499998994179
 21
47.666223128324333
 31
0.0
  0
LINE
  5
19A
100
AcDbEntity
  8
0
  6
CONTINUOUS
 62
               7
100
AcDbLine
 10
-15.724999989941722
 20
48.146964887967584
 30
0.0
 11
-16.02499998994179
 21
47.396964887967584
 31
0.0
  0
LINE
  5
19B
100
AcDbEntity
  8
0
  6
CONTINUOUS
 62
               7
100
AcDbLine
 10
-15.526520264985066
 20
45.641740747280863
 30
0.0
 11
-15.724999983106301
 21
45.29796379122277
 31
0.0
  0
LINE
  5
19C
100
AcDbEntity
  8
0
  6
CONTINUOUS
 62
               7
100
AcDbLine
 10
-15.627916207909635
 20
45.644373958440013
 30
0.0
 11
-15.827916210889867
 21
45.297963773341365
 31
0.0
  0
LINE
  5
19D
100
AcDbEntity
  8
0
  6
CONTINUOUS
 62
               7
100
AcDbLine
 10
-15.62791621261718
 20
45.644373928637691
 30
0.0
 11
-15.917296693799045
 21
47.666223128324333
 31
0.0
  0
LINE
  5
19E
100
AcDbEntity
  8
0
  6
CONTINUOUS
 62
               7
100
AcDbLine
 10
-15.526520264985066
 20
45.641740747280863
 30
0.0
 11
-15.842898524445019
 21
47.852218551709342
 31
0.0
  0
LINE
  5
19F
100
AcDbEntity
  8
0
  6
CONTINUOUS
 62
               7
100
AcDbLine
 10
-17.175000002980283
 20
49.497963791222759
 30
0.0
 11
-16.874999989941813
 21
49.497963791222759
 31
0.0
  0
LINE
  5
1A0
100
AcDbEntity
  8
0
  6
CONTINUOUS
 62
               7
100
AcDbLine
 10
-16.874999989941813
 20
49.497963791222759
 30
0.0
 11
-16.874999989941813
 21
49.29796379122277
 31
0.0
  0
LINE
  5
1A1
100
AcDbEntity
  8
0
  6
CONTINUOUS
 62
               7
100
AcDbLine
 10
-14.262488654255918
 20
38.497963791222759
 30
0.0
 11
-14.262488654255918
 21
36.990979638391622
 31
0.0
  0
LINE
  5
1A2
100
AcDbEntity
  8
0
  6
CONTINUOUS
 62
               7
100
AcDbLine
 10
-13.974999990686825
 20
39.497963821025081
 30
0.0
 11
-14.062488653138331
 21
38.497963821025081
 31
0.0
  0
LINE
  5
1A3
100
AcDbEntity
  8
0
  6
CONTINUOUS
 62
               7
100
AcDbLine
 10
-14.174999989941767
 20
39.497963821025081
 30
0.0
 11
-14.262488652393273
 21
38.497963821025081
 31
0.0
  0
LINE
  5
1A4
100
AcDbEntity
  8
0
  6
CONTINUOUS
 62
               7
100
AcDbLine
 10
-14.174999989941767
 20
49.497963791222759
 30
0.0
 11
-14.174999989941767
 21
48.597963791222782
 31
0.0
  0
LINE
  5
1A5
100
AcDbEntity
  8
0
  6
CONTINUOUS
 62
               7
100
AcDbLine
 10
-13.890675118565611
 20
42.733259057135768
 30
0.0
 11
-13.774038112163595
 21
42.29796383294601
 31
0.0
  0
ARC
  5
1A6
100
AcDbEntity
  8
0
  6
CONTINUOUS
 62
               7
100
AcDbCircle
 10
-13.649193652096898
 20
42.79796379122277
 30
0.0
 40
0.25
100
AcDbArc
 50
89.999999999999815
 51
194.99999339411929
  0
LINE
  5
1A7
100
AcDbEntity
  8
0
  6
CONTINUOUS
 62
               7
100
AcDbLine
 10
-14.175000002980283
 20
48.79796379122277
 30
0.0
 11
-14.074999979138425
 21
48.79796379122277
 31
0.0
  0
LINE
  5
1A8
100
AcDbEntity
  8
0
  6
CONTINUOUS
 62
               7
100
AcDbLine
 10
-14.174999989941767
 20
48.597963791222782
 30
0.0
 11
-14.674999989941767
 21
46.497963791222759
 31
0.0
  0
LINE
  5
1A9
100
AcDbEntity
  8
0
  6
CONTINUOUS
 62
               7
100
AcDbLine
 10
-14.072204594013584
 20
48.597963791222782
 30
0.0
 11
-14.577719368473282
 21
46.474801738492175
 31
0.0
  0
LINE
  5
1AA
100
AcDbEntity
  8
0
  6
CONTINUOUS
 62
               7
100
AcDbLine
 10
-14.674999989941767
 20
46.497963791222759
 30
0.0
 11
-14.577719368473282
 21
46.474801738492175
 31
0.0
  0
LINE
  5
1AB
100
AcDbEntity
  8
0
  6
CONTINUOUS
 62
               7
100
AcDbLine
 10
-14.174999989941767
 20
48.166223128324333
 30
0.0
 11
-14.174999989941767
 21
45.990784158312323
 31
0.0
  0
LINE
  5
1AC
100
AcDbEntity
  8
0
  6
CONTINUOUS
 62
               7
100
AcDbLine
 10
-14.072204594013584
 20
48.797963803143688
 30
0.0
 11
-14.072204594013584
 21
48.597963791222782
 31
0.0
  0
LINE
  5
1AD
100
AcDbEntity
  8
0
  6
CONTINUOUS
 62
               7
100
AcDbLine
 10
-13.974999989941722
 20
48.69796377930183
 30
0.0
 11
-13.974999989941722
 21
48.266223128324299
 31
0.0
  0
ARC
  5
1AE
100
AcDbEntity
  8
0
  6
CONTINUOUS
 62
               7
100
AcDbCircle
 10
-14.074999989941745
 20
48.697963791222804
 30
0.0
 40
0.1
100
AcDbArc
 50
0.0
 51
89.999999999999815
  0
LINE
  5
1AF
100
AcDbEntity
  8
0
  6
CONTINUOUS
 62
               7
100
AcDbLine
 10
-14.175000002980283
 20
48.166223128324333
 30
0.0
 11
-14.074999979138425
 21
48.166223128324333
 31
0.0
  0
ARC
  5
1B0
100
AcDbEntity
  8
0
  6
CONTINUOUS
 62
               7
100
AcDbCircle
 10
-14.074999989941745
 20
48.266223128324299
 30
0.0
 40
0.1
100
AcDbArc
 50
270.00000000000023
 51
0.0
  0
LINE
  5
1B1
100
AcDbEntity
  8
0
  6
CONTINUOUS
 62
               7
100
AcDbLine
 10
-14.175000002980283
 20
47.666223128324333
 30
0.0
 11
-14.074999979138425
 21
47.666223128324333
 31
0.0
  0
LINE
  5
1B2
100
AcDbEntity
  8
0
  6
CONTINUOUS
 62
               7
100
AcDbLine
 10
-14.175000002980283
 20
45.29796379122277
 30
0.0
 11
-14.074999979138425
 21
45.29796379122277
 31
0.0
  0
LINE
  5
1B3
100
AcDbEntity
  8
0
  6
CONTINUOUS
 62
               7
100
AcDbLine
 10
-13.974999989941722
 20
47.566223119826503
 30
0.0
 11
-13.974999989941722
 21
45.397963797183223
 31
0.0
  0
ARC
  5
1B4
100
AcDbEntity
  8
0
  6
CONTINUOUS
 62
               7
100
AcDbCircle
 10
-14.074999989941745
 20
45.397963791222736
 30
0.0
 40
0.1
100
AcDbArc
 50
270.00000000000023
 51
0.0
  0
ARC
  5
1B5
100
AcDbEntity
  8
0
  6
CONTINUOUS
 62
               7
100
AcDbCircle
 10
-14.074999989941745
 20
47.56622312832431
 30
0.0
 40
0.1
100
AcDbArc
 50
0.0
 51
89.999999999999815
  0
LINE
  5
1B6
100
AcDbEntity
  8
0
  6
CONTINUOUS
 62
               7
100
AcDbLine
 10
-14.174999989941767
 20
45.29796379122277
 30
0.0
 11
-14.174999989941767
 21
39.497963791222759
 31
0.0
  0
LINE
  5
1B7
100
AcDbEntity
  8
0
  6
CONTINUOUS
 62
               7
100
AcDbLine
 10
-13.975000000000051
 20
45.644373958440013
 30
0.0
 11
-14.174999989941767
 21
45.297963814347696
 31
0.0
  0
LINE
  5
1B8
100
AcDbEntity
  8
0
  6
CONTINUOUS
 62
               7
100
AcDbLine
 10
-14.175000002980283
 20
45.990784173340984
 30
0.0
 11
-13.974999970197729
 21
45.644373958440013
 31
0.0
  0
LINE
  5
1B9
100
AcDbEntity
  8
0
  6
CONTINUOUS
 62
               7
100
AcDbLine
 10
-14.074999994039587
 20
46.017579113574214
 30
0.0
 11
-13.974999970197729
 21
45.844373976321407
 31
0.0
  0
LINE
  5
1BA
100
AcDbEntity
  8
0
  6
CONTINUOUS
 62
               7
100
AcDbLine
 10
-14.074999989941745
 20
47.666223128324333
 30
0.0
 11
-14.074999989941745
 21
46.017579099775361
 31
0.0
  0
LINE
  5
1BB
100
AcDbEntity
  8
0
  6
CONTINUOUS
 62
               7
100
AcDbLine
 10
-14.175000002980283
 20
49.497963791222759
 30
0.0
 11
-13.874999989941813
 21
49.497963791222759
 31
0.0
  0
LINE
  5
1BC
100
AcDbEntity
  8
0
  6
CONTINUOUS
 62
               7
100
AcDbLine
 10
-13.874999989941813
 20
49.497963791222759
 30
0.0
 11
-13.874999989941813
 21
49.29796379122277
 31
0.0
  0
LINE
  5
1BD
100
AcDbEntity
  8
0
  6
CONTINUOUS
 62
               7
100
AcDbLine
 10
-13.750000000000028
 20
38.48705143125963
 30
0.0
 11
-13.750000000000028
 21
39.497963791222759
 31
0.0
  0
LINE
  5
1BE
100
AcDbEntity
  8
0
  6
CONTINUOUS
 62
               7
100
AcDbLine
 10
-13.750000000000028
 20
42.297963801941393
 30
0.0
 11
-13.750000000000028
 21
43.04796379122277
 31
0.0
  0
LINE
  5
1BF
100
AcDbEntity
  8
0
  6
CONTINUOUS
 62
               7
100
AcDbLine
 10
-16.750000000000028
 20
42.297963801941393
 30
0.0
 11
-16.750000000000028
 21
43.04796379122277
 31
0.0
  0
LINE
  5
1C0
100
AcDbEntity
  8
0
  6
CONTINUOUS
 62
               7
100
AcDbLine
 10
-15.950000000000074
 20
42.297963801941393
 30
0.0
 11
-15.950000000000074
 21
43.04796379122277
 31
0.0
  0
LINE
  5
1C1
100
AcDbEntity
  8
0
  6
CONTINUOUS
 62
               7
100
AcDbLine
 10
-15.950000000000074
 20
38.459114823660371
 30
0.0
 11
-15.950000000000074
 21
39.497963791222759
 31
0.0
  0
LINE
  5
1C2
100
AcDbEntity
  8
0
  6
CONTINUOUS
 62
               7
100
AcDbLine
 10
-16.750000000000028
 20
38.48705143125963
 30
0.0
 11
-16.750000000000028
 21
39.497963791222759
 31
0.0
  0
LINE
  5
1C3
100
AcDbEntity
  8
0
  6
CONTINUOUS
 62
               7
100
AcDbLine
 10
-19.750000000000028
 20
42.297963801941393
 30
0.0
 11
-19.750000000000028
 21
43.04796379122277
 31
0.0
  0
LINE
  5
1C4
100
AcDbEntity
  8
0
  6
CONTINUOUS
 62
               7
100
AcDbLine
 10
-18.950000000000074
 20
42.297963801941393
 30
0.0
 11
-18.950000000000074
 21
43.04796379122277
 31
0.0
  0
LINE
  5
1C5
100
AcDbEntity
  8
0
  6
CONTINUOUS
 62
               7
100
AcDbLine
 10
-18.950000000000074
 20
38.459114823660371
 30
0.0
 11
-18.950000000000074
 21
39.497963791222759
 31
0.0
  0
LINE
  5
1C6
100
AcDbEntity
  8
0
  6
CONTINUOUS
 62
               7
100
AcDbLine
 10
-19.750000000000028
 20
38.48705143125963
 30
0.0
 11
-19.750000000000028
 21
39.497963791222759
 31
0.0
  0
LINE
  5
1C7
100
AcDbEntity
  8
0
  6
CONTINUOUS
 62
               7
100
AcDbLine
 10
-15.100000000000051
 20
24.900000000000063
 30
0.0
 11
-17.700000000000074
 21
24.900000000000063
 31
0.0
  0
LINE
  5
1C8
100
AcDbEntity
  8
0
  6
CONTINUOUS
 62
               7
100
AcDbLine
 10
-17.700000000000074
 20
23.362435550207721
 30
0.0
 11
-17.700000000000074
 21
24.900000000000063
 31
0.0
  0
LINE
  5
1C9
100
AcDbEntity
  8
0
  6
PHANTOM
 62
               2
100
AcDbLine
 10
-14.500000024376646
 20
20.591154289176615
 30
0.0
 11
-18.300000036297689
 21
22.785085317423494
 31
0.0
  0
LINE
  5
1CA
100
AcDbEntity
  8
0
  6
CONTINUOUS
 62
               7
100
AcDbLine
 10
-15.100000000000051
 20
19.400000000000063
 30
0.0
 11
-15.100000000000051
 21
20.9375644510923
 31
0.0
  0
LINE
  5
1CB
100
AcDbEntity
  8
0
  6
CONTINUOUS
 62
               7
100
AcDbLine
 10
-17.700000000000074
 20
19.400000000000063
 30
0.0
 11
-17.700000000000074
 21
22.438675150985347
 31
0.0
  0
LINE
  5
1CC
100
AcDbEntity
  8
0
  6
CONTINUOUS
 62
               7
100
AcDbLine
 10
-15.100000000000051
 20
21.861324850314674
 30
0.0
 11
-15.100000000000051
 21
24.900000000000063
 31
0.0
  0
LINE
  5
1CD
100
AcDbEntity
  8
0
  6
PHANTOM
 62
               2
100
AcDbLine
 10
-14.499999994574324
 20
21.514914688398989
 30
0.0
 11
-18.300000036297689
 21
23.708845731547029
 31
0.0
  0
LINE
  5
1CE
100
AcDbEntity
  8
0
  6
PHANTOM
 62
               2
100
AcDbLine
 10
-14.850000000534834
 20
26.408867469241017
 30
0.0
 11
-17.850000000534834
 21
28.140918275524967
 31
0.0
  0
ARC
  5
1CF
100
AcDbEntity
  8
0
  6
CONTINUOUS
 62
               7
100
AcDbCircle
 10
-19.200000000000074
 20
27.172007188718709
 30
0.0
 40
2.0
100
AcDbArc
 50
19.204888898171518
 51
29.999999999999996
  0
ARC
  5
1D0
100
AcDbEntity
  8
0
  6
CONTINUOUS
 62
               7
100
AcDbCircle
 10
-18.400000000000006
 20
27.386366542663581
 30
0.0
 40
2.0
100
AcDbArc
 50
0.0
 51
29.999999999999954
  0
ARC
  5
1D1
100
AcDbEntity
  8
0
  6
CONTINUOUS
 62
               7
100
AcDbCircle
 10
-14.300000000000097
 20
27.386366542663581
 30
0.0
 40
2.0
100
AcDbArc
 50
149.99999999999966
 51
179.99999999999963
  0
ARC
  5
1D2
100
AcDbEntity
  8
0
  6
CONTINUOUS
 62
               7
100
AcDbCircle
 10
-13.500000000000028
 20
27.172007188718709
 30
0.0
 40
2.0
100
AcDbArc
 50
149.99999999999966
 51
179.99999999999963
  0
LINE
  5
1D3
100
AcDbEntity
  8
0
  6
CONTINUOUS
 62
               7
100
AcDbLine
 10
-16.750000000000028
 20
37.008876136611065
 30
0.0
 11
-16.750000000000028
 21
28.528482710174984
 31
0.0
  0
LINE
  5
1D4
100
AcDbEntity
  8
0
  6
CONTINUOUS
 62
               7
100
AcDbLine
 10
-15.950000000000074
 20
37.008876136611065
 30
0.0
 11
-15.950000000000074
 21
28.528482710174927
 31
0.0
  0
LINE
  5
1D5
100
AcDbEntity
  8
0
  6
CONTINUOUS
 62
               7
100
AcDbLine
 10
-16.400000000000006
 20
27.303760385512277
 30
0.0
 11
-16.400000000000006
 21
27.386366542663581
 31
0.0
  0
LINE
  5
1D6
100
AcDbEntity
  8
0
  6
CONTINUOUS
 62
               7
100
AcDbLine
 10
-16.300000000000097
 20
27.24602535863616
 30
0.0
 11
-16.300000000000097
 21
27.386366542663581
 31
0.0
  0
LINE
  5
1D7
100
AcDbEntity
  8
0
  6
CONTINUOUS
 62
               7
100
AcDbLine
 10
-15.500000000000028
 20
26.784145143627114
 30
0.0
 11
-15.500000000000028
 21
27.172007188718709
 31
0.0
  0
LINE
  5
1D8
100
AcDbEntity
  8
0
  6
CONTINUOUS
 62
               7
100
AcDbLine
 10
-18.950000000000074
 20
37.008876136611065
 30
0.0
 11
-18.950000000000074
 21
33.678740448982097
 31
0.0
  0
LINE
  5
1D9
100
AcDbEntity
  8
0
  6
CONTINUOUS
 62
               7
100
AcDbLine
 10
-19.750000000000028
 20
37.008876136611065
 30
0.0
 11
-19.750000000000028
 21
33.464381095037169
 31
0.0
  0
LINE
  5
1DA
100
AcDbEntity
  8
0
  6
CONTINUOUS
 62
               7
100
AcDbLine
 10
-13.750000000000028
 20
37.008876136611065
 30
0.0
 11
-13.750000000000028
 21
33.678740448982097
 31
0.0
  0
LINE
  5
1DB
100
AcDbEntity
  8
0
  6
CONTINUOUS
 62
               7
100
AcDbLine
 10
-17.467949192431121
 20
28.172007188718709
 30
0.0
 11
-19.080127018922241
 21
30.964381095037169
 31
0.0
  0
LINE
  5
1DC
100
AcDbEntity
  8
0
  6
CONTINUOUS
 62
               7
100
AcDbLine
 10
-16.667949192431166
 20
28.386366542663581
 30
0.0
 11
-18.280127018922286
 21
31.178740448982097
 31
0.0
  0
LINE
  5
1DD
100
AcDbEntity
  8
0
  6
CONTINUOUS
 62
               7
100
AcDbLine
 10
-15.232050807568982
 20
28.172007188718709
 30
0.0
 11
-13.619872981077862
 21
30.964381095037169
 31
0.0
  0
LINE
  5
1DE
100
AcDbEntity
  8
0
  6
CONTINUOUS
 62
               7
100
AcDbLine
 10
-16.032050807568936
 20
28.386366542663581
 30
0.0
 11
-14.419872981077816
 21
31.178740448982097
 31
0.0
  0
ARC
  5
1DF
100
AcDbEntity
  8
0
  6
CONTINUOUS
 62
               7
100
AcDbCircle
 10
-13.950000000000074
 20
33.678740448982097
 30
0.0
 40
5.0
100
AcDbArc
 50
179.99999999999963
 51
209.99999999999955
  0
ARC
  5
1E0
100
AcDbEntity
  8
0
  6
CONTINUOUS
 62
               7
100
AcDbCircle
 10
-14.750000000000028
 20
33.464381095037169
 30
0.0
 40
5.0
100
AcDbArc
 50
179.99999999999963
 51
209.99999999999955
  0
ARC
  5
1E1
100
AcDbEntity
  8
0
  6
CONTINUOUS
 62
               7
100
AcDbCircle
 10
-18.750000000000028
 20
33.678740448982097
 30
0.0
 40
5.0
100
AcDbArc
 50
330.00000000000006
 51
0.0
  0
LINE
  5
1E2
100
AcDbEntity
  8
0
  6
CONTINUOUS
 62
               7
100
AcDbLine
 10
-17.300000000000097
 20
24.900000000000063
 30
0.0
 11
-17.300000000000097
 21
26.900000000000006
 31
0.0
  0
LINE
  5
1E3
100
AcDbEntity
  8
0
  6
CONTINUOUS
 62
               7
100
AcDbLine
 10
-15.500000000000028
 20
24.900000000000063
 30
0.0
 11
-15.500000000000028
 21
25.860000000000042
 31
0.0
  0
LINE
  5
1E4
100
AcDbEntity
  8
0
  6
PHANTOM
 62
               2
100
AcDbLine
 10
-14.900000000534902
 20
25.572094392707498
 30
0.0
 11
-17.900000030337225
 21
27.30414521389261
 31
0.0
  0
LINE
  5
1E5
100
AcDbEntity
  8
0
  6
CONTINUOUS
 62
               7
100
AcDbLine
 10
-19.400000000000006
 20
12.400000000000048
 30
0.0
 11
-19.400000000000006
 21
11.909735820202641
 31
0.0
  0
LINE
  5
1E6
100
AcDbEntity
  8
0
  6
CONTINUOUS
 62
               7
100
AcDbLine
 10
-13.400000000000006
 20
12.400000000000048
 30
0.0
 11
-13.400000000000006
 21
12.000000000000014
 31
0.0
  0
LINE
  5
1E7
100
AcDbEntity
  8
0
  6
CONTINUOUS
 62
               7
100
AcDbLine
 10
-14.650000000000006
 20
14.900000000000063
 30
0.0
 11
-14.650000000000006
 21
13.900000000000063
 31
0.0
  0
LINE
  5
1E8
100
AcDbEntity
  8
0
  6
CONTINUOUS
 62
               7
100
AcDbLine
 10
-18.150000000000006
 20
14.900000000000063
 30
0.0
 11
-18.150000000000006
 21
13.900000000000063
 31
0.0
  0
LINE
  5
1E9
100
AcDbEntity
  8
0
  6
CONTINUOUS
 62
               7
100
AcDbLine
 10
-14.650000000000006
 20
17.400000000000063
 30
0.0
 11
-14.650000000000006
 21
16.400000000000063
 31
0.0
  0
LINE
  5
1EA
100
AcDbEntity
  8
0
  6
CONTINUOUS
 62
               7
100
AcDbLine
 10
-18.150000000000006
 20
17.400000000000063
 30
0.0
 11
-18.150000000000006
 21
16.400000000000063
 31
0.0
  0
LINE
  5
1EB
100
AcDbEntity
  8
0
  6
CONTINUOUS
 62
               7
100
AcDbLine
 10
-13.614285714285785
 20
13.900000000000063
 30
0.0
 11
-13.400000000000006
 21
12.400000000000048
 31
0.0
  0
LINE
  5
1EC
100
AcDbEntity
  8
0
  6
CONTINUOUS
 62
               7
100
AcDbLine
 10
-13.971428571428675
 20
16.400000000000063
 30
0.0
 11
-13.757142857142895
 21
14.900000000000063
 31
0.0
  0
LINE
  5
1ED
100
AcDbEntity
  8
0
  6
CONTINUOUS
 62
               7
100
AcDbLine
 10
-19.18571428571434
 20
13.900000000000063
 30
0.0
 11
-19.400000000000006
 21
12.400000000000048
 31
0.0
  0
LINE
  5
1EE
100
AcDbEntity
  8
0
  6
CONTINUOUS
 62
               7
100
AcDbLine
 10
-18.82857142857145
 20
16.400000000000063
 30
0.0
 11
-19.04285714285723
 21
14.900000000000063
 31
0.0
  0
LINE
  5
1EF
100
AcDbEntity
  8
0
  6
CONTINUOUS
 62
               7
100
AcDbLine
 10
-13.614285714285785
 20
13.900000000000063
 30
0.0
 11
-19.18571428571434
 21
13.900000000000063
 31
0.0
  0
LINE
  5
1F0
100
AcDbEntity
  8
0
  6
CONTINUOUS
 62
               7
100
AcDbLine
 10
-13.757142857142895
 20
14.900000000000063
 30
0.0
 11
-19.04285714285723
 21
14.900000000000063
 31
0.0
  0
LINE
  5
1F1
100
AcDbEntity
  8
0
  6
CONTINUOUS
 62
               7
100
AcDbLine
 10
-13.971428571428675
 20
16.400000000000063
 30
0.0
 11
-18.82857142857145
 21
16.400000000000063
 31
0.0
  0
LINE
  5
1F2
100
AcDbEntity
  8
0
  6
CONTINUOUS
 62
               7
100
AcDbLine
 10
-14.114285714285785
 20
17.400000000000063
 30
0.0
 11
-18.68571428571434
 21
17.400000000000063
 31
0.0
  0
LINE
  5
1F3
100
AcDbEntity
  8
0
  6
CONTINUOUS
 62
               7
100
AcDbLine
 10
-14.400000000000006
 20
19.400000000000063
 30
0.0
 11
-14.114285714285785
 21
17.400000000000063
 31
0.0
  0
LINE
  5
1F4
100
AcDbEntity
  8
0
  6
CONTINUOUS
 62
               7
100
AcDbLine
 10
-18.400000000000006
 20
19.400000000000063
 30
0.0
 11
-18.68571428571434
 21
17.400000000000063
 31
0.0
  0
LINE
  5
1F5
100
AcDbEntity
  8
0
  6
CONTINUOUS
 62
               7
100
AcDbLine
 10
-14.400000000000006
 20
19.400000000000063
 30
0.0
 11
-18.400000000000006
 21
19.400000000000063
 31
0.0
  0
LINE
  5
1F6
100
AcDbEntity
  8
0
  6
CONTINUOUS
 62
               7
100
AcDbLine
 10
-13.400000000000006
 20
12.400000000000048
 30
0.0
 11
-19.400000000000006
 21
12.400000000000048
 31
0.0
  0
LINE
  5
1F7
100
AcDbEntity
  8
0
  6
CONTINUOUS
 62
               7
100
AcDbLine
 10
-16.400000000000006
 20
24.900000000000063
 30
0.0
 11
-16.400000000000006
 21
26.380000000000024
 31
0.0
  0
ARC
  5
1F8
100
AcDbEntity
  8
0
  6
CONTINUOUS
 62
               7
100
AcDbCircle
 10
-17.950000000000074
 20
33.464381095037169
 30
0.0
 40
5.0
100
AcDbArc
 50
330.00000000000006
 51
0.0
  0
LINE
  5
1F9
100
AcDbEntity
  8
0
  6
CONTINUOUS
 62
               7
100
AcDbLine
 10
-13.649193665385297
 20
43.04796379122277
 30
0.0
 11
-12.774999997019819
 21
43.04796379122277
 31
0.0
  0
LINE
  5
1FA
100
AcDbEntity
  8
0
  6
CONTINUOUS
 62
               7
100
AcDbLine
 10
-13.97499998509889
 20
39.497963791222759
 30
0.0
 11
-12.824999989941745
 21
39.497963791222759
 31
0.0
  0
LINE
  5
1FB
100
AcDbEntity
  8
0
  6
CONTINUOUS
 62
               7
100
AcDbLine
 10
-13.774038097262434
 20
42.29796379122277
 30
0.0
 11
-12.824999979138425
 21
42.29796379122277
 31
0.0
  0
LINE
  5
1FC
100
AcDbEntity
  8
0
  6
CONTINUOUS
 62
               7
100
AcDbLine
 10
-14.062488904595426
 20
38.497963790291436
 30
0.0
 11
-12.52499998994179
 21
38.444273494963539
 31
0.0
  0
LINE
  5
1FD
100
AcDbEntity
  8
0
  6
CONTINUOUS
 62
               7
100
AcDbLine
 10
-14.262488654255918
 20
36.990979638391622
 30
0.0
 11
-12.52499998994179
 21
37.051654079726148
 31
0.0
  0
LINE
  5
1FE
100
AcDbEntity
  8
0
  6
CONTINUOUS
 62
               7
100
AcDbLine
 10
-14.06248869597917
 20
38.49796380612392
 30
0.0
 11
-12.52499998994179
 21
37.610294284914943
 31
0.0
  0
LINE
  5
1FF
100
AcDbEntity
  8
0
  6
CONTINUOUS
 62
               7
100
AcDbLine
 10
-14.175000002980283
 20
49.29796379122277
 30
0.0
 11
-12.524999997019819
 21
49.29796379122277
 31
0.0
  0
LINE
  5
200
100
AcDbEntity
  8
0
  6
DASHED
 62
               2
100
AcDbLine
 10
6.7019957432933381
 20
13.419510164565551
 30
0.0
 11
4.4194173824159293
 21
11.136931803688142
 31
0.0
  0
LINE
  5
201
100
AcDbEntity
  8
0
  6
DASHED
 62
               2
100
AcDbLine
 10
13.419510164565537
 20
6.7019957432933523
 30
0.0
 11
11.136931803688128
 21
4.4194173824159435
 31
0.0
  0
LINE
  5
202
100
AcDbEntity
  8
0
  6
DASHED
 62
               2
100
AcDbLine
 10
6.7019957432933381
 20
-13.419510164565523
 30
0.0
 11
4.4194173824159293
 21
-11.136931803688114
 31
0.0
  0
LINE
  5
203
100
AcDbEntity
  8
0
  6
DASHED
 62
               2
100
AcDbLine
 10
13.419510164565537
 20
-6.7019957432933097
 30
0.0
 11
11.136931803688157
 21
-4.4194173824159151
 31
0.0
  0
LINE
  5
204
100
AcDbEntity
  8
0
  6
CENTER
 62
               2
100
AcDbLine
 10
12.086209641638504
 20
12.086209641638519
 30
0.0
 11
0.0
 21
0.0000000000000142
 31
0.0
  0
LINE
  5
205
100
AcDbEntity
  8
0
  6
CENTER
 62
               2
100
AcDbLine
 10
-23.230084930827189
 20
0.0000000000000142
 30
0.0
 11
17.193376937818158
 21
0.0
 31
0.0
  0
LINE
  5
206
100
AcDbEntity
  8
0
  6
CENTER
 62
               2
100
AcDbLine
 10
0.0
 20
17.000000000000014
 30
0.0
 11
0.0
 21
-17.429711286972733
 31
0.0
  0
LINE
  5
207
100
AcDbEntity
  8
0
  6
CENTER
 62
               2
100
AcDbLine
 10
0.0
 20
0.0000000000000142
 30
0.0
 11
12.020815280171291
 21
-12.020815280171291
 31
0.0
  0
ARC
  5
208
100
AcDbEntity
  8
0
  6
CONTINUOUS
 62
               7
100
AcDbCircle
 10
0.0
 20
0.0000000000000142
 30
0.0
 40
15.0
100
AcDbArc
 50
212.23050498028417
 51
126.86989764584371
  0
ARC
  5
209
100
AcDbEntity
  8
0
  6
CONTINUOUS
 62
               7
100
AcDbCircle
 10
0.0
 20
0.0000000000000142
 30
0.0
 40
13.999999999999996
100
AcDbArc
 50
229.9947991151393
 51
130.00520088485999
  0
CIRCLE
  5
20A
100
AcDbEntity
  8
0
  6
CONTINUOUS
 62
               7
100
AcDbCircle
 10
0.0
 20
0.0000000000000142
 30
0.0
 40
2.1000000000000001
  0
CIRCLE
  5
20B
100
AcDbEntity
  8
0
  6
CONTINUOUS
 62
               2
100
AcDbCircle
 10
0.0
 20
0.0000000000000142
 30
0.0
 40
2.5
  0
LINE
  5
20C
100
AcDbEntity
  8
0
  6
DASHED
 62
               2
100
AcDbLine
 10
9.6166522241370558
 20
10.323759005323623
 30
0.0
 11
8.5559920523572259
 21
9.2630988335437934
 31
0.0
  0
LINE
  5
20D
100
AcDbEntity
  8
0
  6
DASHED
 62
               2
100
AcDbLine
 10
6.7528697603315209
 20
12.480434687942576
 30
0.0
 11
5.3386561979584428
 21
11.066221125569498
 31
0.0
  0
LINE
  5
20E
100
AcDbEntity
  8
0
  6
DASHED
 62
               2
100
AcDbLine
 10
8.1812254583283561
 20
11.05207898994577
 30
0.0
 11
6.7670118959552497
 21
9.6378654275726632
 31
0.0
  0
LINE
  5
20F
100
AcDbEntity
  8
0
  6
DASHED
 62
               2
100
AcDbLine
 10
7.4599765415180741
 20
12.480434687942576
 30
0.0
 11
9.6166522241370558
 21
10.323759005323623
 31
0.0
  0
ARC
  5
210
100
AcDbEntity
  8
0
  6
DASHED
 62
               2
100
AcDbCircle
 10
1.5880271902426841
 20
8.6191156083134075
 30
0.0
 40
7.0277716396203269
100
AcDbArc
 50
20.2546208573625
 51
33.328410201475762
  0
ARC
  5
211
100
AcDbEntity
  8
0
  6
DASHED
 62
               2
100
AcDbCircle
 10
6.9050016264477279
 20
6.8774184484742733
 30
0.0
 40
4.3653794686807261
100
AcDbArc
 50
51.834711780667043
 51
73.001229803738639
  0
LINE
  5
212
100
AcDbEntity
  8
0
  6
DASHED
 62
               2
100
AcDbLine
 10
6.7528697603315209
 20
12.480434687942576
 30
0.0
 11
7.4599765415180741
 21
12.480434687942576
 31
0.0
  0
LINE
  5
213
100
AcDbEntity
  8
0
  6
DASHED
 62
               2
100
AcDbLine
 10
11.052078989945755
 20
8.1812254583283703
 30
0.0
 11
9.637865427572649
 21
6.7670118959552639
 31
0.0
  0
LINE
  5
214
100
AcDbEntity
  8
0
  6
DASHED
 62
               2
100
AcDbLine
 10
12.480434687942562
 20
6.7528697603315351
 30
0.0
 11
11.066221125569484
 21
5.338656197958457
 31
0.0
  0
LINE
  5
215
100
AcDbEntity
  8
0
  6
DASHED
 62
               2
100
AcDbLine
 10
10.323759005323609
 20
9.61665222413707
 30
0.0
 11
9.2630988335437792
 21
8.5559920523572401
 31
0.0
  0
ARC
  5
216
100
AcDbEntity
  8
0
  6
DASHED
 62
               2
100
AcDbCircle
 10
6.8787258008815115
 20
6.9056845717351081
 30
0.0
 40
4.363929581700825
100
AcDbArc
 50
16.995213414137279
 51
38.168845001456681
  0
LINE
  5
217
100
AcDbEntity
  8
0
  6
DASHED
 62
               2
100
AcDbLine
 10
10.323759005323609
 20
9.61665222413707
 30
0.0
 11
12.480434687942562
 21
7.4599765415180883
 31
0.0
  0
ARC
  5
218
100
AcDbEntity
  8
0
  6
DASHED
 62
               2
100
AcDbCircle
 10
8.6184109863968956
 20
1.5866317625257551
 30
0.0
 40
7.0293247160888015
100
AcDbArc
 50
56.673040373502339
 51
69.743928567659154
  0
LINE
  5
219
100
AcDbEntity
  8
0
  6
DASHED
 62
               2
100
AcDbLine
 10
12.480434687942562
 20
7.4599765415180883
 30
0.0
 11
12.480434687942562
 21
6.7528697603315351
 31
0.0
  0
LINE
  5
21A
100
AcDbEntity
  8
0
  6
DASHED
 62
               2
100
AcDbLine
 10
8.5559920523572259
 20
9.2630988335437934
 30
0.0
 11
9.2630988335437792
 21
8.5559920523572401
 31
0.0
  0
LINE
  5
21B
100
AcDbEntity
  8
0
  6
DASHED
 62
               2
100
AcDbLine
 10
5.3386561979584428
 20
11.066221125569498
 30
0.0
 11
11.066221125569484
 21
5.338656197958457
 31
0.0
  0
LINE
  5
21C
100
AcDbEntity
  8
0
  6
DASHED
 62
               2
100
AcDbLine
 10
4.9497474683058158
 20
10.606601717798227
 30
0.0
 11
5.3740115370177648
 21
11.030865786510176
 31
0.0
  0
LINE
  5
21D
100
AcDbEntity
  8
0
  6
DASHED
 62
               2
100
AcDbLine
 10
10.606601717798213
 20
4.94974746830583
 30
0.0
 11
11.030865786510134
 21
5.374011537017779
 31
0.0
  0
CIRCLE
  5
21E
100
AcDbEntity
  8
0
  6
CENTER
 62
               2
100
AcDbCircle
 10
0.0
 20
0.0000000000000142
 30
0.0
 40
11.0
  0
CIRCLE
  5
21F
100
AcDbEntity
  8
0
  6
CONTINUOUS
 62
               2
100
AcDbCircle
 10
0.0
 20
11.000000000000014
 30
0.0
 40
2.0
  0
CIRCLE
  5
220
100
AcDbEntity
  8
0
  6
CONTINUOUS
 62
               2
100
AcDbCircle
 10
0.0
 20
-10.999999999999986
 30
0.0
 40
2.0
  0
CIRCLE
  5
221
100
AcDbEntity
  8
0
  6
CONTINUOUS
 62
               2
100
AcDbCircle
 10
11.0
 20
0.0000000000000142
 30
0.0
 40
2.0
  0
CIRCLE
  5
222
100
AcDbEntity
  8
0
  6
CONTINUOUS
 62
               7
100
AcDbCircle
 10
0.0
 20
11.000000000000014
 30
0.0
 40
1.6499999999999999
  0
CIRCLE
  5
223
100
AcDbEntity
  8
0
  6
CONTINUOUS
 62
               7
100
AcDbCircle
 10
0.0
 20
-10.999999999999986
 30
0.0
 40
1.6499999999999999
  0
CIRCLE
  5
224
100
AcDbEntity
  8
0
  6
CONTINUOUS
 62
               7
100
AcDbCircle
 10
11.0
 20
0.0000000000000142
 30
0.0
 40
1.6499999999999999
  0
LINE
  5
225
100
AcDbEntity
  8
0
  6
DASHED
 62
               2
100
AcDbLine
 10
4.4194173824159293
 20
11.136931803688142
 30
0.0
 11
11.136931803688128
 21
4.4194173824159435
 31
0.0
  0
LINE
  5
226
100
AcDbEntity
  8
0
  6
DASHED
 62
               2
100
AcDbLine
 10
6.2932503525602783
 20
9.2630988335437934
 30
0.0
 11
3.609281372841707
 21
6.5791298538252221
 31
0.0
  0
LINE
  5
227
100
AcDbEntity
  8
0
  6
DASHED
 62
               2
100
AcDbLine
 10
9.2630988335437792
 20
6.2932503525602925
 30
0.0
 11
6.8978536841752884
 21
3.9280052031918018
 31
0.0
  0
LINE
  5
228
100
AcDbEntity
  8
0
  6
DASHED
 62
               2
100
AcDbLine
 10
9.5459415460183834
 20
6.0104076400856599
 30
0.0
 11
7.3599785512218432
 21
3.8244446452891196
 31
0.0
  0
LINE
  5
229
100
AcDbEntity
  8
0
  6
DASHED
 62
               2
100
AcDbLine
 10
6.0104076400856457
 20
9.5459415460183976
 30
0.0
 11
3.6451624907171833
 21
7.1806963966499353
 31
0.0
  0
LINE
  5
22A
100
AcDbEntity
  8
0
  6
CONTINUOUS
 62
               7
100
AcDbLine
 10
-9.0
 20
12.000000000000014
 30
0.0
 11
-9.0
 21
-11.999999999999986
 31
0.0
  0
LINE
  5
22B
100
AcDbEntity
  8
0
  6
CONTINUOUS
 62
               7
100
AcDbLine
 10
-12.699999999999989
 20
-7.9999999999999858
 30
0.0
 11
-9.0
 21
-7.9677105891741888
 31
0.0
  0
LINE
  5
22C
100
AcDbEntity
  8
0
  6
CONTINUOUS
 62
               7
100
AcDbLine
 10
-12.699999999999989
 20
12.000000000000014
 30
0.0
 11
-9.0
 21
11.967710589174217
 31
0.0
  0
ARC
  5
22D
100
AcDbEntity
  8
0
  6
CONTINUOUS
 62
               7
100
AcDbCircle
 10
-19.5
 20
-7.4083488490041844
 30
0.0
 40
0.5
100
AcDbArc
 50
179.99999999999963
 51
269.49999999999943
  0
ARC
  5
22E
100
AcDbEntity
  8
0
  6
CONTINUOUS
 62
               7
100
AcDbCircle
 10
-19.5
 20
11.40834884900427
 30
0.0
 40
0.5
100
AcDbArc
 50
90.499999999999773
 51
179.99999999999963
  0
LINE
  5
22F
100
AcDbEntity
  8
0
  6
CONTINUOUS
 62
               7
100
AcDbLine
 10
-12.699999999999989
 20
12.000000000000014
 30
0.0
 11
-19.50436326774917
 21
11.90832981053633
 31
0.0
  0
LINE
  5
230
100
AcDbEntity
  8
0
  6
CONTINUOUS
 62
               7
100
AcDbLine
 10
-12.699999999999989
 20
-7.9999999999999858
 30
0.0
 11
-18.799999999999983
 21
-7.9178191795874682
 31
0.0
  0
LINE
  5
231
100
AcDbEntity
  8
0
  6
CONTINUOUS
 62
               7
100
AcDbLine
 10
-13.699999999999989
 20
7.0000000000000142
 30
0.0
 11
-13.699999999999989
 21
8.2000000000000028
 31
0.0
  0
LINE
  5
232
100
AcDbEntity
  8
0
  6
CONTINUOUS
 62
               7
100
AcDbLine
 10
-14.599999999999994
 20
7.0000000000000142
 30
0.0
 11
-14.599999999999994
 21
8.2000000000000028
 31
0.0
  0
LINE
  5
233
100
AcDbEntity
  8
0
  6
CONTINUOUS
 62
               7
100
AcDbLine
 10
-13.699999999999989
 20
7.1000000000000369
 30
0.0
 11
-14.549999999999983
 21
7.1000000000000369
 31
0.0
  0
LINE
  5
234
100
AcDbEntity
  8
0
  6
CONTINUOUS
 62
               7
100
AcDbLine
 10
-13.699999999999989
 20
8.1000000000000369
 30
0.0
 11
-14.549999999999983
 21
8.1000000000000369
 31
0.0
  0
LINE
  5
235
100
AcDbEntity
  8
0
  6
CONTINUOUS
 62
               7
100
AcDbLine
 10
-14.549999999999983
 20
7.1000000000000369
 30
0.0
 11
-14.549999999999983
 21
8.1000000000000369
 31
0.0
  0
LINE
  5
236
100
AcDbEntity
  8
0
  6
CONTINUOUS
 62
               7
100
AcDbLine
 10
-13.849999999999994
 20
7.1000000000000369
 30
0.0
 11
-13.849999999999994
 21
8.1000000000000369
 31
0.0
  0
LINE
  5
237
100
AcDbEntity
  8
0
  6
CONTINUOUS
 62
               7
100
AcDbLine
 10
-13.699999999999989
 20
8.2000000000000028
 30
0.0
 11
-14.599999999999994
 21
8.2000000000000028
 31
0.0
  0
LINE
  5
238
100
AcDbEntity
  8
0
  6
CONTINUOUS
 62
               7
100
AcDbLine
 10
-13.699999999999989
 20
7.0000000000000142
 30
0.0
 11
-14.599999999999994
 21
7.0000000000000142
 31
0.0
  0
LINE
  5
239
100
AcDbEntity
  8
0
  6
CONTINUOUS
 62
               7
100
AcDbLine
 10
-13.699999999999989
 20
-4.1999999999999744
 30
0.0
 11
-14.599999999999994
 21
-4.1999999999999744
 31
0.0
  0
LINE
  5
23A
100
AcDbEntity
  8
0
  6
CONTINUOUS
 62
               7
100
AcDbLine
 10
-13.699999999999989
 20
-2.9999999999999858
 30
0.0
 11
-14.599999999999994
 21
-2.9999999999999858
 31
0.0
  0
LINE
  5
23B
100
AcDbEntity
  8
0
  6
CONTINUOUS
 62
               7
100
AcDbLine
 10
-13.849999999999994
 20
-4.1000000000000085
 30
0.0
 11
-13.849999999999994
 21
-3.1000000000000085
 31
0.0
  0
LINE
  5
23C
100
AcDbEntity
  8
0
  6
CONTINUOUS
 62
               7
100
AcDbLine
 10
-14.549999999999983
 20
-4.1000000000000085
 30
0.0
 11
-14.549999999999983
 21
-3.1000000000000085
 31
0.0
  0
LINE
  5
23D
100
AcDbEntity
  8
0
  6
CONTINUOUS
 62
               7
100
AcDbLine
 10
-13.699999999999989
 20
-3.1000000000000085
 30
0.0
 11
-14.549999999999983
 21
-3.1000000000000085
 31
0.0
  0
LINE
  5
23E
100
AcDbEntity
  8
0
  6
CONTINUOUS
 62
               7
100
AcDbLine
 10
-13.699999999999989
 20
-4.1000000000000085
 30
0.0
 11
-14.549999999999983
 21
-4.1000000000000085
 31
0.0
  0
LINE
  5
23F
100
AcDbEntity
  8
0
  6
CONTINUOUS
 62
               7
100
AcDbLine
 10
-14.599999999999994
 20
-4.1999999999999744
 30
0.0
 11
-14.599999999999994
 21
-2.9999999999999858
 31
0.0
  0
LINE
  5
240
100
AcDbEntity
  8
0
  6
CONTINUOUS
 62
               7
100
AcDbLine
 10
-13.699999999999989
 20
-4.1999999999999744
 30
0.0
 11
-13.699999999999989
 21
-2.9999999999999858
 31
0.0
  0
LINE
  5
241
100
AcDbEntity
  8
0
  6
CENTER
 62
               2
100
AcDbLine
 10
-18.195856986851084
 20
-6.4999999999999858
 30
0.0
 11
-20.435449291060365
 21
-6.4999999999999858
 31
0.0
  0
LINE
  5
242
100
AcDbEntity
  8
0
  6
CONTINUOUS
 62
               7
100
AcDbLine
 10
-18.799999999999983
 20
-7.9999999999999858
 30
0.0
 11
-18.799999999999983
 21
-4.8999999999999631
 31
0.0
  0
LINE
  5
243
100
AcDbEntity
  8
0
  6
CONTINUOUS
 62
               7
100
AcDbLine
 10
-18.799999999999983
 20
-4.8999999999999631
 30
0.0
 11
-20.0
 21
-4.8999999999999631
 31
0.0
  0
LINE
  5
244
100
AcDbEntity
  8
0
  6
CENTER
 62
               2
100
AcDbLine
 10
-16.400000000000006
 20
10.805227088550978
 30
0.0
 11
-16.399999999999977
 21
24.900000000000048
 31
0.0
  0
LINE
  5
245
100
AcDbEntity
  8
0
  6
CONTINUOUS
 62
               7
100
AcDbLine
 10
-20.0
 20
-7.4083488490041844
 30
0.0
 11
-20.0
 21
11.40834884900427
 31
0.0
  0
LINE
  5
246
100
AcDbEntity
  8
0
  6
CONTINUOUS
 62
               7
100
AcDbLine
 10
-12.699999999999989
 20
-7.9999999999999858
 30
0.0
 11
-12.699999999999989
 21
12.000000000000014
 31
0.0
  0
LINE
  5
247
100
AcDbEntity
  8
0
  6
CONTINUOUS
 62
               7
100
AcDbLine
 10
-18.800000000000011
 20
-4.9999999999999858
 30
0.0
 11
-18.899999999999977
 21
-4.9999999999999858
 31
0.0
  0
ARC
  5
248
100
AcDbEntity
  8
0
  6
CONTINUOUS
 62
               7
100
AcDbCircle
 10
-18.899999999999977
 20
-5.4999999999999858
 30
0.0
 40
0.5
100
AcDbArc
 50
89.999999999999815
 51
179.99999999999963
  0
LINE
  5
249
100
AcDbEntity
  8
0
  6
CONTINUOUS
 62
               7
100
AcDbLine
 10
-19.399999999999977
 20
-7.4999999999999858
 30
0.0
 11
-19.399999999999977
 21
-5.4999999999999858
 31
0.0
  0
ARC
  5
24A
100
AcDbEntity
  8
0
  6
CONTINUOUS
 62
               7
100
AcDbCircle
 10
-18.899999999999977
 20
-7.4999999999999858
 30
0.0
 40
0.5
100
AcDbArc
 50
179.99999999999963
 51
269.99999999999937
  0
LINE
  5
24B
100
AcDbEntity
  8
0
  6
CONTINUOUS
 62
               7
100
AcDbLine
 10
-18.800000000000011
 20
-7.9999999999999858
 30
0.0
 11
-18.899999999999977
 21
-7.9999999999999858
 31
0.0
  0
LINE
  5
24C
100
AcDbEntity
  8
0
  6
CONTINUOUS
 62
               7
100
AcDbLine
 10
-19.182320284100371
 20
-7.9126684591599741
 30
0.0
 11
-19.50436326774917
 21
-7.9083298105363014
 31
0.0
  0
LINE
  5
24D
100
AcDbEntity
  8
0
  6
DASHED
 62
               2
100
AcDbLine
 10
8.1812254583283845
 20
-11.052078989945741
 30
0.0
 11
6.7670118959552781
 21
-9.6378654275726348
 31
0.0
  0
LINE
  5
24E
100
AcDbEntity
  8
0
  6
DASHED
 62
               2
100
AcDbLine
 10
9.6166522241370558
 20
-10.323759005323595
 30
0.0
 11
7.4599765415181025
 21
-12.480434687942548
 31
0.0
  0
ARC
  5
24F
100
AcDbEntity
  8
0
  6
DASHED
 62
               2
100
AcDbCircle
 10
1.5866317625257693
 20
-8.6184109863969098
 30
0.0
 40
7.0293247160888015
100
AcDbArc
 50
326.67304037350175
 51
339.74392856765854
  0
LINE
  5
250
100
AcDbEntity
  8
0
  6
DASHED
 62
               2
100
AcDbLine
 10
11.066221125569484
 20
-5.3386561979584286
 30
0.0
 11
5.3386561979584712
 21
-11.06622112556947
 31
0.0
  0
LINE
  5
251
100
AcDbEntity
  8
0
  6
DASHED
 62
               2
100
AcDbLine
 10
11.136931803688157
 20
-4.4194173824159151
 30
0.0
 11
4.4194173824159293
 21
-11.136931803688114
 31
0.0
  0
LINE
  5
252
100
AcDbEntity
  8
0
  6
DASHED
 62
               2
100
AcDbLine
 10
4.9497474683058442
 20
-10.606601717798199
 30
0.0
 11
5.3740115370177932
 21
-11.030865786510134
 31
0.0
  0
LINE
  5
253
100
AcDbEntity
  8
0
  6
DASHED
 62
               2
100
AcDbLine
 10
7.4599765415181025
 20
-12.480434687942548
 30
0.0
 11
6.7528697603315493
 21
-12.480434687942548
 31
0.0
  0
LINE
  5
254
100
AcDbEntity
  8
0
  6
DASHED
 62
               2
100
AcDbLine
 10
6.7528697603315493
 20
-12.480434687942548
 30
0.0
 11
5.3386561979584712
 21
-11.06622112556947
 31
0.0
  0
LINE
  5
255
100
AcDbEntity
  8
0
  6
DASHED
 62
               2
100
AcDbLine
 10
6.2932503525602783
 20
-9.263098833543765
 30
0.0
 11
3.928005203191816
 21
-6.8978536841752884
 31
0.0
  0
LINE
  5
256
100
AcDbEntity
  8
0
  6
DASHED
 62
               2
100
AcDbLine
 10
6.0104076400856741
 20
-9.5459415460183834
 30
0.0
 11
3.8244446452891339
 21
-7.359978551221829
 31
0.0
  0
LINE
  5
257
100
AcDbEntity
  8
0
  6
DASHED
 62
               2
100
AcDbLine
 10
9.2630988335437792
 20
-6.2932503525602641
 30
0.0
 11
6.5791298538252363
 21
-3.6092813728416928
 31
0.0
  0
LINE
  5
258
100
AcDbEntity
  8
0
  6
DASHED
 62
               2
100
AcDbLine
 10
9.5459415460184118
 20
-6.0104076400856457
 30
0.0
 11
7.1806963966499211
 21
-3.6451624907171691
 31
0.0
  0
LINE
  5
259
100
AcDbEntity
  8
0
  6
DASHED
 62
               2
100
AcDbLine
 10
12.480434687942591
 20
-6.7528697603315351
 30
0.0
 11
11.066221125569484
 21
-5.3386561979584286
 31
0.0
  0
LINE
  5
25A
100
AcDbEntity
  8
0
  6
DASHED
 62
               2
100
AcDbLine
 10
10.606601717798242
 20
-4.94974746830583
 30
0.0
 11
11.030865786510162
 21
-5.3740115370177506
 31
0.0
  0
LINE
  5
25B
100
AcDbEntity
  8
0
  6
DASHED
 62
               2
100
AcDbLine
 10
10.323759005323609
 20
-9.6166522241370416
 30
0.0
 11
9.2630988335437792
 21
-8.5559920523572117
 31
0.0
  0
LINE
  5
25C
100
AcDbEntity
  8
0
  6
DASHED
 62
               2
100
AcDbLine
 10
11.052078989945755
 20
-8.1812254583283419
 30
0.0
 11
9.6378654275726774
 21
-6.7670118959552639
 31
0.0
  0
LINE
  5
25D
100
AcDbEntity
  8
0
  6
DASHED
 62
               2
100
AcDbLine
 10
9.6166522241370558
 20
-10.323759005323595
 30
0.0
 11
8.5559920523572544
 21
-9.263098833543765
 31
0.0
  0
LINE
  5
25E
100
AcDbEntity
  8
0
  6
DASHED
 62
               2
100
AcDbLine
 10
9.2630988335437792
 20
-8.5559920523572117
 30
0.0
 11
8.5559920523572544
 21
-9.263098833543765
 31
0.0
  0
ARC
  5
25F
100
AcDbEntity
  8
0
  6
DASHED
 62
               2
100
AcDbCircle
 10
6.9056845717351223
 20
-6.8787258008815115
 30
0.0
 40
4.363929581700825
100
AcDbArc
 50
286.99521341413669
 51
308.16884500145608
  0
LINE
  5
260
100
AcDbEntity
  8
0
  6
DASHED
 62
               2
100
AcDbLine
 10
12.480434687942591
 20
-7.4599765415180741
 30
0.0
 11
10.323759005323609
 21
-9.6166522241370416
 31
0.0
  0
ARC
  5
261
100
AcDbEntity
  8
0
  6
DASHED
 62
               2
100
AcDbCircle
 10
6.8774184484742591
 20
-6.9050016264477136
 30
0.0
 40
4.3653794686807261
100
AcDbArc
 50
321.83471178066645
 51
343.001229803738
  0
ARC
  5
262
100
AcDbEntity
  8
0
  6
DASHED
 62
               2
100
AcDbCircle
 10
8.6191156083133933
 20
-1.5880271902426841
 30
0.0
 40
7.0277716396203269
100
AcDbArc
 50
290.25462085736189
 51
303.32841020147521
  0
LINE
  5
263
100
AcDbEntity
  8
0
  6
DASHED
 62
               2
100
AcDbLine
 10
12.480434687942591
 20
-6.7528697603315351
 30
0.0
 11
12.480434687942591
 21
-7.4599765415180741
 31
0.0
  0
ENDBLK
  5
264
100
AcDbEntity
  8
0
100
AcDbBlockEnd
  0
BLOCK
  5
265
100
AcDbEntity
  8
0
100
AcDbBlockBegin
  2
NCT30-5
 70
               0
 10
0.0
 20
0.0
 30
0.0
  3
NCT30-5
  1

  0
LINE
  5
266
100
AcDbEntity
  8
0
  6
DASHED
 62
               2
100
AcDbLine
 10
0.5000000000000284
 20
-14.100000000000023
 30
0.0
 11
0.5000000000000284
 21
-12.600000000000023
 31
0.0
  0
LINE
  5
267
100
AcDbEntity
  8
0
  6
DASHED
 62
               2
100
AcDbLine
 10
4.0500000000000398
 20
-13.600000000000023
 30
0.0
 11
4.0500000000000398
 21
-11.600000000000023
 31
0.0
  0
LINE
  5
268
100
AcDbEntity
  8
0
  6
DASHED
 62
               2
100
AcDbLine
 10
2.0300000000000296
 20
-13.600000000000023
 30
0.0
 11
2.0300000000000296
 21
-11.600000000000023
 31
0.0
  0
LINE
  5
269
100
AcDbEntity
  8
0
  6
DASHED
 62
               2
100
AcDbLine
 10
3.5500000000000398
 20
-14.100000000000023
 30
0.0
 11
0.5000000000000284
 21
-14.100000000000023
 31
0.0
  0
ARC
  5
26A
100
AcDbEntity
  8
0
  6
DASHED
 62
               2
100
AcDbCircle
 10
4.9717302995400132
 20
-7.2175398893984379
 30
0.0
 40
7.0277716396203269
100
AcDbArc
 50
245.25462085736197
 51
258.32841020147521
  0
ARC
  5
26B
100
AcDbEntity
  8
0
  6
DASHED
 62
               2
100
AcDbCircle
 10
-0.0195042521916946
 20
-9.7456426961389298
 30
0.0
 40
4.3653794686807261
100
AcDbArc
 50
276.83471178066651
 51
298.00122980373817
  0
LINE
  5
26C
100
AcDbEntity
  8
0
  6
DASHED
 62
               2
100
AcDbLine
 10
4.0500000000000398
 20
-13.600000000000023
 30
0.0
 11
3.5500000000000398
 21
-14.100000000000023
 31
0.0
  0
LINE
  5
26D
100
AcDbEntity
  8
0
  6
DASHED
 62
               2
100
AcDbLine
 10
-2.0299999999999727
 20
-13.600000000000023
 30
0.0
 11
-2.0299999999999727
 21
-11.600000000000023
 31
0.0
  0
LINE
  5
26E
100
AcDbEntity
  8
0
  6
DASHED
 62
               2
100
AcDbLine
 10
-4.0499999999999545
 20
-13.600000000000023
 30
0.0
 11
-4.0499999999999545
 21
-11.600000000000023
 31
0.0
  0
LINE
  5
26F
100
AcDbEntity
  8
0
  6
DASHED
 62
               2
100
AcDbLine
 10
-0.4999999999999716
 20
-14.100000000000023
 30
0.0
 11
-0.4999999999999716
 21
-12.600000000000023
 31
0.0
  0
ARC
  5
270
100
AcDbEntity
  8
0
  6
DASHED
 62
               2
100
AcDbCircle
 10
0.0190627296830712
 20
-9.7470500491354244
 30
0.0
 40
4.363929581700825
100
AcDbArc
 50
241.99521341413674
 51
263.16884500145613
  0
LINE
  5
271
100
AcDbEntity
  8
0
  6
DASHED
 62
               2
100
AcDbLine
 10
-0.4999999999999716
 20
-14.100000000000023
 30
0.0
 11
-3.5499999999999545
 21
-14.100000000000023
 31
0.0
  0
ARC
  5
272
100
AcDbEntity
  8
0
  6
DASHED
 62
               2
100
AcDbCircle
 10
-4.9722187730059488
 20
-7.21605493006183
 30
0.0
 40
7.0293247160888015
100
AcDbArc
 50
281.67304037350181
 51
294.74392856765866
  0
LINE
  5
273
100
AcDbEntity
  8
0
  6
DASHED
 62
               2
100
AcDbLine
 10
-3.5499999999999545
 20
-14.100000000000023
 30
0.0
 11
-4.0499999999999545
 21
-13.600000000000023
 31
0.0
  0
LINE
  5
274
100
AcDbEntity
  8
0
  6
DASHED
 62
               2
100
AcDbLine
 10
0.5000000000000284
 20
-12.600000000000023
 30
0.0
 11
-0.4999999999999716
 21
-12.600000000000023
 31
0.0
  0
LINE
  5
275
100
AcDbEntity
  8
0
  6
DASHED
 62
               2
100
AcDbLine
 10
4.0500000000000398
 20
-11.600000000000023
 30
0.0
 11
-4.0499999999999545
 21
-11.600000000000023
 31
0.0
  0
LINE
  5
276
100
AcDbEntity
  8
0
  6
DASHED
 62
               2
100
AcDbLine
 10
4.0000000000000284
 20
-11.000000000000014
 30
0.0
 11
4.0000000000000284
 21
-11.600000000000023
 31
0.0
  0
LINE
  5
277
100
AcDbEntity
  8
0
  6
DASHED
 62
               2
100
AcDbLine
 10
-3.9999999999999716
 20
-11.000000000000014
 30
0.0
 11
-3.9999999999999716
 21
-11.600000000000023
 31
0.0
  0
LINE
  5
278
100
AcDbEntity
  8
0
  6
DASHED
 62
               2
100
AcDbLine
 10
4.7500000000000284
 20
-11.000000000000014
 30
0.0
 11
-4.7499999999999716
 21
-11.000000000000014
 31
0.0
  0
LINE
  5
279
100
AcDbEntity
  8
0
  6
DASHED
 62
               2
100
AcDbLine
 10
2.5000000000000284
 20
-11.000000000000014
 30
0.0
 11
2.5000000000000284
 21
-7.6550382314259338
 31
0.0
  0
LINE
  5
27A
100
AcDbEntity
  8
0
  6
DASHED
 62
               2
100
AcDbLine
 10
-2.4999999999999716
 20
-11.000000000000014
 30
0.0
 11
-2.4999999999999716
 21
-7.9085814859130181
 31
0.0
  0
LINE
  5
27B
100
AcDbEntity
  8
0
  6
DASHED
 62
               2
100
AcDbLine
 10
-2.0999999999999659
 20
-11.000000000000014
 30
0.0
 11
-2.0999999999999659
 21
-7.6550382314259338
 31
0.0
  0
LINE
  5
27C
100
AcDbEntity
  8
0
  6
DASHED
 62
               2
100
AcDbLine
 10
2.1000000000000227
 20
-11.000000000000014
 30
0.0
 11
2.1000000000000227
 21
-7.2042946678933504
 31
0.0
  0
LINE
  5
27D
100
AcDbEntity
  8
0
  6
DASHED
 62
               2
100
AcDbLine
 10
11.000000000000028
 20
2.5000000000000142
 30
0.0
 11
7.655038231425948
 21
2.5000000000000142
 31
0.0
  0
LINE
  5
27E
100
AcDbEntity
  8
0
  6
DASHED
 62
               2
100
AcDbLine
 10
11.000000000000028
 20
-2.5
 30
0.0
 11
7.9085814859130323
 21
-2.5
 31
0.0
  0
LINE
  5
27F
100
AcDbEntity
  8
0
  6
DASHED
 62
               2
100
AcDbLine
 10
11.000000000000028
 20
-2.0999999999999943
 30
0.0
 11
7.655038231425948
 21
-2.0999999999999943
 31
0.0
  0
LINE
  5
280
100
AcDbEntity
  8
0
  6
DASHED
 62
               2
100
AcDbLine
 10
11.000000000000028
 20
2.0999999999999801
 30
0.0
 11
7.2042946678933504
 21
2.0999999999999801
 31
0.0
  0
LINE
  5
281
100
AcDbEntity
  8
0
  6
DASHED
 62
               2
100
AcDbLine
 10
11.000000000000028
 20
4.7500000000000142
 30
0.0
 11
11.000000000000028
 21
-4.75
 31
0.0
  0
CIRCLE
  5
282
100
AcDbEntity
  8
0
  6
CONTINUOUS
 62
               7
100
AcDbCircle
 10
7.7781745930520572
 20
-7.7781745930520287
 30
0.0
 40
1.6499999999999999
  0
CIRCLE
  5
283
100
AcDbEntity
  8
0
  6
CONTINUOUS
 62
               7
100
AcDbCircle
 10
-7.7781745930519719
 20
-7.7781745930520145
 30
0.0
 40
1.6499999999999999
  0
CIRCLE
  5
284
100
AcDbEntity
  8
0
  6
CONTINUOUS
 62
               7
100
AcDbCircle
 10
-7.7781745930520003
 20
7.778174593052043
 30
0.0
 40
1.6499999999999999
  0
CIRCLE
  5
285
100
AcDbEntity
  8
0
  6
CONTINUOUS
 62
               7
100
AcDbCircle
 10
7.7781745930520572
 20
7.778174593052043
 30
0.0
 40
1.6499999999999999
  0
CIRCLE
  5
286
100
AcDbEntity
  8
0
  6
CONTINUOUS
 62
               2
100
AcDbCircle
 10
7.7781745930520572
 20
-7.7781745930520287
 30
0.0
 40
2.0
  0
CIRCLE
  5
287
100
AcDbEntity
  8
0
  6
CONTINUOUS
 62
               2
100
AcDbCircle
 10
-7.7781745930519719
 20
-7.7781745930520145
 30
0.0
 40
2.0
  0
CIRCLE
  5
288
100
AcDbEntity
  8
0
  6
CONTINUOUS
 62
               2
100
AcDbCircle
 10
-7.7781745930520003
 20
7.778174593052043
 30
0.0
 40
2.0
  0
CIRCLE
  5
289
100
AcDbEntity
  8
0
  6
CONTINUOUS
 62
               2
100
AcDbCircle
 10
7.7781745930520572
 20
7.778174593052043
 30
0.0
 40
2.0
  0
CIRCLE
  5
28A
100
AcDbEntity
  8
0
  6
CENTER
 62
               2
100
AcDbCircle
 10
0.0000000000000284
 20
0.0
 30
0.0
 40
11.0
  0
LINE
  5
28B
100
AcDbEntity
  8
0
  6
DASHED
 62
               2
100
AcDbLine
 10
11.000000000000028
 20
-4.0
 30
0.0
 11
11.600000000000023
 21
-4.0
 31
0.0
  0
LINE
  5
28C
100
AcDbEntity
  8
0
  6
DASHED
 62
               2
100
AcDbLine
 10
11.000000000000028
 20
4.0000000000000142
 30
0.0
 11
11.600000000000023
 21
4.0000000000000142
 31
0.0
  0
LINE
  5
28D
100
AcDbEntity
  8
0
  6
DASHED
 62
               2
100
AcDbLine
 10
11.600000000000023
 20
4.0500000000000256
 30
0.0
 11
11.600000000000023
 21
-4.0500000000000114
 31
0.0
  0
LINE
  5
28E
100
AcDbEntity
  8
0
  6
DASHED
 62
               2
100
AcDbLine
 10
12.600000000000023
 20
0.5
 30
0.0
 11
12.600000000000023
 21
-0.5
 31
0.0
  0
LINE
  5
28F
100
AcDbEntity
  8
0
  6
DASHED
 62
               2
100
AcDbLine
 10
14.100000000000023
 20
-3.5500000000000114
 30
0.0
 11
13.600000000000023
 21
-4.0500000000000114
 31
0.0
  0
ARC
  5
290
100
AcDbEntity
  8
0
  6
DASHED
 62
               2
100
AcDbCircle
 10
7.2160549300618584
 20
-4.9722187730059773
 30
0.0
 40
7.0293247160888015
100
AcDbArc
 50
11.673040373502431
 51
24.74392856765925
  0
LINE
  5
291
100
AcDbEntity
  8
0
  6
DASHED
 62
               2
100
AcDbLine
 10
14.100000000000023
 20
-0.5
 30
0.0
 11
14.100000000000023
 21
-3.5500000000000114
 31
0.0
  0
ARC
  5
292
100
AcDbEntity
  8
0
  6
DASHED
 62
               2
100
AcDbCircle
 10
9.7470500491354528
 20
0.0190627296830144
 30
0.0
 40
4.363929581700825
100
AcDbArc
 50
331.99521341413663
 51
353.16884500145596
  0
LINE
  5
293
100
AcDbEntity
  8
0
  6
DASHED
 62
               2
100
AcDbLine
 10
14.100000000000023
 20
-0.5
 30
0.0
 11
12.600000000000023
 21
-0.5
 31
0.0
  0
LINE
  5
294
100
AcDbEntity
  8
0
  6
DASHED
 62
               2
100
AcDbLine
 10
13.600000000000023
 20
-4.0500000000000114
 30
0.0
 11
11.600000000000023
 21
-4.0500000000000114
 31
0.0
  0
LINE
  5
295
100
AcDbEntity
  8
0
  6
DASHED
 62
               2
100
AcDbLine
 10
13.600000000000023
 20
-2.0300000000000011
 30
0.0
 11
11.600000000000023
 21
-2.0300000000000011
 31
0.0
  0
LINE
  5
296
100
AcDbEntity
  8
0
  6
DASHED
 62
               2
100
AcDbLine
 10
13.600000000000023
 20
4.0500000000000256
 30
0.0
 11
14.100000000000023
 21
3.5500000000000256
 31
0.0
  0
ARC
  5
297
100
AcDbEntity
  8
0
  6
DASHED
 62
               2
100
AcDbCircle
 10
9.7456426961389582
 20
-0.019504252191723
 30
0.0
 40
4.3653794686807261
100
AcDbArc
 50
6.8347117806671411
 51
28.001229803738738
  0
ARC
  5
298
100
AcDbEntity
  8
0
  6
DASHED
 62
               2
100
AcDbCircle
 10
7.2175398893984664
 20
4.9717302995399706
 30
0.0
 40
7.0277716396203269
100
AcDbArc
 50
335.25462085736177
 51
348.32841020147504
  0
LINE
  5
299
100
AcDbEntity
  8
0
  6
DASHED
 62
               2
100
AcDbLine
 10
14.100000000000023
 20
3.5500000000000256
 30
0.0
 11
14.100000000000023
 21
0.5
 31
0.0
  0
LINE
  5
29A
100
AcDbEntity
  8
0
  6
DASHED
 62
               2
100
AcDbLine
 10
13.600000000000023
 20
2.0299999999999869
 30
0.0
 11
11.600000000000023
 21
2.0299999999999869
 31
0.0
  0
LINE
  5
29B
100
AcDbEntity
  8
0
  6
DASHED
 62
               2
100
AcDbLine
 10
13.600000000000023
 20
4.0500000000000256
 30
0.0
 11
11.600000000000023
 21
4.0500000000000256
 31
0.0
  0
LINE
  5
29C
100
AcDbEntity
  8
0
  6
DASHED
 62
               2
100
AcDbLine
 10
14.100000000000023
 20
0.5
 30
0.0
 11
12.600000000000023
 21
0.5
 31
0.0
  0
CIRCLE
  5
29D
100
AcDbEntity
  8
0
  6
CONTINUOUS
 62
               2
100
AcDbCircle
 10
0.0000000000000284
 20
0.0
 30
0.0
 40
2.5
  0
CIRCLE
  5
29E
100
AcDbEntity
  8
0
  6
CONTINUOUS
 62
               7
100
AcDbCircle
 10
0.0000000000000284
 20
0.0
 30
0.0
 40
2.1000000000000001
  0
CIRCLE
  5
29F
100
AcDbEntity
  8
0
  6
CONTINUOUS
 62
               7
100
AcDbCircle
 10
0.0000000000000284
 20
0.0
 30
0.0
 40
13.999999999999996
  0
CIRCLE
  5
2A0
100
AcDbEntity
  8
0
  6
CONTINUOUS
 62
               7
100
AcDbCircle
 10
0.0000000000000284
 20
0.0
 30
0.0
 40
15.0
  0
LINE
  5
2A1
100
AcDbEntity
  8
0
  6
CENTER
 62
               2
100
AcDbLine
 10
0.0000000000000284
 20
17.000000000000014
 30
0.0
 11
0.0000000000000284
 21
-17.0
 31
0.0
  0
LINE
  5
2A2
100
AcDbEntity
  8
0
  6
CENTER
 62
               2
100
AcDbLine
 10
12.020815280171348
 20
12.020815280171306
 30
0.0
 11
-12.020815280171263
 21
-12.020815280171291
 31
0.0
  0
LINE
  5
2A3
100
AcDbEntity
  8
0
  6
CENTER
 62
               2
100
AcDbLine
 10
-12.020815280171291
 20
12.020815280171306
 30
0.0
 11
12.157553424227643
 21
-12.157553424227629
 31
0.0
  0
LINE
  5
2A4
100
AcDbEntity
  8
0
  6
CENTER
 62
               2
100
AcDbLine
 10
17.092481592889669
 20
0.0
 30
0.0
 11
-16.999999999999972
 21
0.0
 31
0.0
  0
LINE
  5
2A5
100
AcDbEntity
  8
0
  6
DASHED
 62
               2
100
AcDbLine
 10
14.228053275132226
 20
4.7500000000000142
 30
0.0
 11
11.000000000000028
 21
4.7500000000000142
 31
0.0
  0
LINE
  5
2A6
100
AcDbEntity
  8
0
  6
DASHED
 62
               2
100
AcDbLine
 10
14.228053275132226
 20
-4.75
 30
0.0
 11
11.000000000000028
 21
-4.75
 31
0.0
  0
LINE
  5
2A7
100
AcDbEntity
  8
0
  6
DASHED
 62
               2
100
AcDbLine
 10
4.7500000000000284
 20
-14.228053275132183
 30
0.0
 11
4.7500000000000284
 21
-11.000000000000014
 31
0.0
  0
LINE
  5
2A8
100
AcDbEntity
  8
0
  6
DASHED
 62
               2
100
AcDbLine
 10
-4.7499999999999716
 20
-14.228053275132197
 30
0.0
 11
-4.7499999999999716
 21
-11.000000000000014
 31
0.0
  0
ENDBLK
  5
2A9
100
AcDbEntity
  8
0
100
AcDbBlockEnd
  0
BLOCK
  5
2AA
100
AcDbEntity
  8
0
100
AcDbBlockBegin
  2
NCT30-6
 70
               0
 10
0.0
 20
0.0
 30
0.0
  3
NCT30-6
  1

  0
LINE
  5
2AB
100
AcDbEntity
  8
0
  6
CENTER
 62
               2
100
AcDbLine
 10
10.606601717798185
 20
-0.2999999999999545
 30
0.0
 11
10.606601717798185
 21
-12.699999999999989
 31
0.0
  0
LINE
  5
2AC
100
AcDbEntity
  8
0
  6
CENTER
 62
               2
100
AcDbLine
 10
17.193376937818158
 20
-6.5
 30
0.0
 11
4.4066017177981962
 21
-6.5
 31
0.0
  0
LINE
  5
2AD
100
AcDbEntity
  8
0
  6
CONTINUOUS
 62
               7
100
AcDbLine
 10
-5.0000000000000284
 20
0.0
 30
0.0
 11
13.999999999999972
 21
0.0
 31
0.0
  0
LINE
  5
2AE
100
AcDbEntity
  8
0
  6
CONTINUOUS
 62
               7
100
AcDbLine
 10
14.999999999999972
 20
-1.0
 30
0.0
 11
15.0
 21
-16.799999999999955
 31
0.0
  0
LINE
  5
2AF
100
AcDbEntity
  8
0
  6
CONTINUOUS
 62
               7
100
AcDbLine
 10
14.799999999999955
 20
-17.0
 30
0.0
 11
-14.800000000000011
 21
-17.0
 31
0.0
  0
LINE
  5
2B0
100
AcDbEntity
  8
0
  6
CONTINUOUS
 62
               7
100
AcDbLine
 10
13.999999999999972
 20
0.0
 30
0.0
 11
14.999999999999972
 21
-1.0
 31
0.0
  0
LINE
  5
2B1
100
AcDbEntity
  8
0
  6
CONTINUOUS
 62
               7
100
AcDbLine
 10
-15.0
 20
-4.0
 30
0.0
 11
-15.0
 21
-16.800000000000011
 31
0.0
  0
LINE
  5
2B2
100
AcDbEntity
  8
0
  6
CONTINUOUS
 62
               7
100
AcDbLine
 10
14.999999999999972
 20
-1.0
 30
0.0
 11
-5.0000000000000284
 21
-1.0
 31
0.0
  0
LINE
  5
2B3
100
AcDbEntity
  8
0
  6
CONTINUOUS
 62
               7
100
AcDbLine
 10
11.106601717798185
 20
-3.0
 30
0.0
 11
11.106601717798185
 21
-10.0
 31
0.0
  0
LINE
  5
2B4
100
AcDbEntity
  8
0
  6
CONTINUOUS
 62
               7
100
AcDbLine
 10
10.106601717798185
 20
-3.0
 30
0.0
 11
10.106601717798185
 21
-10.0
 31
0.0
  0
LINE
  5
2B5
100
AcDbEntity
  8
0
  6
CONTINUOUS
 62
               7
100
AcDbLine
 10
14.648053602125572
 20
-6.5
 30
0.0
 11
12.627327659961878
 21
-3.0
 31
0.0
  0
LINE
  5
2B6
100
AcDbEntity
  8
0
  6
CONTINUOUS
 62
               7
100
AcDbLine
 10
12.627327659961878
 20
-3.0
 30
0.0
 11
8.5858757756344914
 21
-3.0
 31
0.0
  0
LINE
  5
2B7
100
AcDbEntity
  8
0
  6
CONTINUOUS
 62
               7
100
AcDbLine
 10
8.5858757756344914
 20
-3.0
 30
0.0
 11
6.5651498334707981
 21
-6.4999999999999716
 31
0.0
  0
LINE
  5
2B8
100
AcDbEntity
  8
0
  6
CONTINUOUS
 62
               7
100
AcDbLine
 10
6.5651498334707981
 20
-6.4999999999999716
 30
0.0
 11
8.5858757756344914
 21
-10.0
 31
0.0
  0
LINE
  5
2B9
100
AcDbEntity
  8
0
  6
CONTINUOUS
 62
               7
100
AcDbLine
 10
8.5858757756344914
 20
-10.0
 30
0.0
 11
12.627327659961878
 21
-10.0
 31
0.0
  0
LINE
  5
2BA
100
AcDbEntity
  8
0
  6
CONTINUOUS
 62
               7
100
AcDbLine
 10
12.627327659961878
 20
-10.0
 30
0.0
 11
14.648053602125572
 21
-6.5
 31
0.0
  0
ARC
  5
2BB
100
AcDbEntity
  8
0
  6
CONTINUOUS
 62
               7
100
AcDbCircle
 10
10.606601717798185
 20
-6.5
 30
0.0
 40
4.75
100
AcDbArc
 50
22.342807841339727
 51
337.65719215865948
  0
ARC
  5
2BC
100
AcDbEntity
  8
0
  6
CONTINUOUS
 62
               7
100
AcDbCircle
 10
10.606601717798185
 20
-6.5
 30
0.0
 40
4.0
100
AcDbArc
 50
1.0449756281401477
 51
58.955024371859722
  0
ARC
  5
2BD
100
AcDbEntity
  8
0
  6
CONTINUOUS
 62
               7
100
AcDbCircle
 10
10.606601717798185
 20
-6.5
 30
0.0
 40
4.0
100
AcDbArc
 50
61.044975628139994
 51
118.95502437185961
  0
ARC
  5
2BE
100
AcDbEntity
  8
0
  6
CONTINUOUS
 62
               7
100
AcDbCircle
 10
10.606601717798185
 20
-6.5
 30
0.0
 40
4.0
100
AcDbArc
 50
121.04497562813988
 51
178.95502437185934
  0
ARC
  5
2BF
100
AcDbEntity
  8
0
  6
CONTINUOUS
 62
               7
100
AcDbCircle
 10
10.606601717798185
 20
-6.5
 30
0.0
 40
4.0
100
AcDbArc
 50
181.04497562813958
 51
238.95502437185922
  0
ARC
  5
2C0
100
AcDbEntity
  8
0
  6
CONTINUOUS
 62
               7
100
AcDbCircle
 10
10.606601717798185
 20
-6.5
 30
0.0
 40
4.0
100
AcDbArc
 50
241.04497562813958
 51
298.95502437185922
  0
ARC
  5
2C1
100
AcDbEntity
  8
0
  6
CONTINUOUS
 62
               7
100
AcDbCircle
 10
10.606601717798185
 20
-6.5
 30
0.0
 40
4.0
100
AcDbArc
 50
301.04497562813941
 51
358.95502437185911
  0
ARC
  5
2C2
100
AcDbEntity
  8
0
  6
CONTINUOUS
 62
               7
100
AcDbCircle
 10
10.606601717798185
 20
-6.5
 30
0.0
 40
3.5
100
AcDbArc
 50
278.21321070173758
 51
81.786789298261581
  0
ARC
  5
2C3
100
AcDbEntity
  8
0
  6
CONTINUOUS
 62
               7
100
AcDbCircle
 10
10.606601717798185
 20
-6.5
 30
0.0
 40
3.5
100
AcDbArc
 50
98.213210701737992
 51
261.78678929826128
  0
LINE
  5
2C4
100
AcDbEntity
  8
0
  6
CENTER
 62
               2
100
AcDbLine
 10
0.0
 20
1.9999999908871473
 30
0.0
 11
0.0
 21
-20.0
 31
0.0
  0
LINE
  5
2C5
100
AcDbEntity
  8
0
  6
CONTINUOUS
 62
               7
100
AcDbLine
 10
-15.000000000000028
 20
-4.0
 30
0.0
 11
-5.0000000000000284
 21
-4.0
 31
0.0
  0
LINE
  5
2C6
100
AcDbEntity
  8
0
  6
CENTER
 62
               2
100
AcDbLine
 10
-10.000000000000028
 20
-19.0
 30
0.0
 11
-10.000000000000028
 21
10.109501817215232
 31
0.0
  0
LINE
  5
2C7
100
AcDbEntity
  8
0
  6
CONTINUOUS
 62
               7
100
AcDbLine
 10
-11.500000000000028
 20
1.0
 30
0.0
 11
-11.500000000000028
 21
6.0
 31
0.0
  0
LINE
  5
2C8
100
AcDbEntity
  8
0
  6
CONTINUOUS
 62
               7
100
AcDbLine
 10
-8.5000000000000284
 20
1.0
 30
0.0
 11
-8.5000000000000284
 21
6.0
 31
0.0
  0
LINE
  5
2C9
100
AcDbEntity
  8
0
  6
CONTINUOUS
 62
               7
100
AcDbLine
 10
-10.000000000000028
 20
6.0
 30
0.0
 11
-10.000000000000028
 21
8.4556298969452541
 31
0.0
  0
LINE
  5
2CA
100
AcDbEntity
  8
0
  6
CONTINUOUS
 62
               7
100
AcDbLine
 10
-11.300000000000011
 20
6.0
 30
0.0
 11
-11.300000000000011
 21
8.4567819774377426
 31
0.0
  0
LINE
  5
2CB
100
AcDbEntity
  8
0
  6
CONTINUOUS
 62
               7
100
AcDbLine
 10
-8.7000000000000171
 20
6.0
 30
0.0
 11
-8.7000000000000171
 21
8.4567819774377426
 31
0.0
  0
ARC
  5
2CC
100
AcDbEntity
  8
0
  6
CONTINUOUS
 62
               7
100
AcDbCircle
 10
-12.324999992928582
 20
-3.6015624725981752
 30
0.0
 40
1.6015624725981965
100
AcDbArc
 50
61.059411546888256
 51
118.94058903127132
  0
ARC
  5
2CD
100
AcDbEntity
  8
0
  6
CONTINUOUS
 62
               7
100
AcDbCircle
 10
-7.6750000070714464
 20
-3.6015624725981752
 30
0.0
 40
1.6015624725981965
100
AcDbArc
 50
61.059410968728308
 51
118.94058845311135
  0
LINE
  5
2CE
100
AcDbEntity
  8
0
  6
CONTINUOUS
 62
               7
100
AcDbLine
 10
-12.324999992928582
 20
-2.0
 30
0.0
 11
-7.6750000070714464
 21
-2.0
 31
0.0
  0
ARC
  5
2CF
100
AcDbEntity
  8
0
  6
CONTINUOUS
 62
               7
100
AcDbCircle
 10
-10.000000000000028
 20
-8.1062500000000455
 30
0.0
 40
6.1062500000000233
100
AcDbArc
 50
75.295241280215237
 51
104.70475871978446
  0
LINE
  5
2D0
100
AcDbEntity
  8
0
  6
CONTINUOUS
 62
               7
100
AcDbLine
 10
-11.550000000000011
 20
-3.5
 30
0.0
 11
-11.550000000000011
 21
-2.1999999999999886
 31
0.0
  0
LINE
  5
2D1
100
AcDbEntity
  8
0
  6
CONTINUOUS
 62
               7
100
AcDbLine
 10
-8.4500000000000171
 20
-3.5
 30
0.0
 11
-8.4500000000000171
 21
-2.1999999999999886
 31
0.0
  0
LINE
  5
2D2
100
AcDbEntity
  8
0
  6
CONTINUOUS
 62
               7
100
AcDbLine
 10
-11.500000000000028
 20
-2.0
 30
0.0
 11
-11.500000000000028
 21
1.0
 31
0.0
  0
LINE
  5
2D3
100
AcDbEntity
  8
0
  6
CONTINUOUS
 62
               7
100
AcDbLine
 10
-11.250000000000028
 20
-2.0
 30
0.0
 11
-11.250000000000028
 21
1.0
 31
0.0
  0
LINE
  5
2D4
100
AcDbEntity
  8
0
  6
CONTINUOUS
 62
               7
100
AcDbLine
 10
-8.5000000000000284
 20
-2.0
 30
0.0
 11
-8.5000000000000284
 21
1.0
 31
0.0
  0
LINE
  5
2D5
100
AcDbEntity
  8
0
  6
CONTINUOUS
 62
               7
100
AcDbLine
 10
-8.7500000000000284
 20
-2.0
 30
0.0
 11
-8.7500000000000284
 21
1.0
 31
0.0
  0
LINE
  5
2D6
100
AcDbEntity
  8
0
  6
CONTINUOUS
 62
               7
100
AcDbLine
 10
-13.100000000000023
 20
-3.5
 30
0.0
 11
-13.100000000000023
 21
-2.1999999999999886
 31
0.0
  0
LINE
  5
2D7
100
AcDbEntity
  8
0
  6
CONTINUOUS
 62
               7
100
AcDbLine
 10
-6.9000000000000057
 20
-3.5
 30
0.0
 11
-6.9000000000000057
 21
-2.1999999999999886
 31
0.0
  0
LINE
  5
2D8
100
AcDbEntity
  8
0
  6
CONTINUOUS
 62
               7
100
AcDbLine
 10
-13.200000000000017
 20
-4.0
 30
0.0
 11
-13.200000000000017
 21
-3.500000011812233
 31
0.0
  0
LINE
  5
2D9
100
AcDbEntity
  8
0
  6
CONTINUOUS
 62
               7
100
AcDbLine
 10
-6.8000000000000114
 20
-4.0
 30
0.0
 11
-6.8000000000000114
 21
-3.5
 31
0.0
  0
LINE
  5
2DA
100
AcDbEntity
  8
0
  6
CONTINUOUS
 62
               7
100
AcDbLine
 10
-13.199999996261511
 20
-3.5
 30
0.0
 11
-6.7999999903010462
 21
-3.5
 31
0.0
  0
LINE
  5
2DB
100
AcDbEntity
  8
0
  6
CONTINUOUS
 62
               7
100
AcDbLine
 10
-11.50000000818244
 20
6.0
 30
0.0
 11
-8.5000000081824396
 21
6.0
 31
0.0
  0
LINE
  5
2DC
100
AcDbEntity
  8
0
  6
CONTINUOUS
 62
               7
100
AcDbLine
 10
-11.50000000818244
 20
1.0
 30
0.0
 11
-8.5000000081824396
 21
1.0
 31
0.0
  0
LINE
  5
2DD
100
AcDbEntity
  8
0
  6
CONTINUOUS
 62
               7
100
AcDbLine
 10
-5.0000000000000284
 20
-0.0000000091128527
 30
0.0
 11
-5.0000000000000284
 21
-4.0000000091128527
 31
0.0
  0
LINE
  5
2DE
100
AcDbEntity
  8
0
  6
CONTINUOUS
 62
               4
100
AcDbLine
 10
-3.5
 20
-18.0
 30
0.0
 11
3.5
 21
-18.0
 31
0.0
  0
LINE
  5
2DF
100
AcDbEntity
  8
0
  6
CONTINUOUS
 62
               4
100
AcDbLine
 10
-3.5
 20
-17.0
 30
0.0
 11
-3.5
 21
-18.0
 31
0.0
  0
LINE
  5
2E0
100
AcDbEntity
  8
0
  6
CONTINUOUS
 62
               4
100
AcDbLine
 10
3.5
 20
-17.0
 30
0.0
 11
3.5
 21
-18.0
 31
0.0
  0
LINE
  5
2E1
100
AcDbEntity
  8
0
  6
CONTINUOUS
 62
               7
100
AcDbLine
 10
15.0
 20
-16.799999999999955
 30
0.0
 11
-15.0
 21
-16.799999999999955
 31
0.0
  0
LINE
  5
2E2
100
AcDbEntity
  8
0
  6
CONTINUOUS
 62
               7
100
AcDbLine
 10
15.0
 20
-16.799999999999955
 30
0.0
 11
14.799999999999955
 21
-17.0
 31
0.0
  0
LINE
  5
2E3
100
AcDbEntity
  8
0
  6
CONTINUOUS
 62
               7
100
AcDbLine
 10
-14.800000000000011
 20
-17.0
 30
0.0
 11
-15.0
 21
-16.800000000000011
 31
0.0
  0
ARC
  5
2E4
100
AcDbEntity
  8
0
  6
CONTINUOUS
 62
               7
100
AcDbCircle
 10
-9.3505516644110287
 20
9.0787004061179175
 30
0.0
 40
0.9
100
AcDbArc
 50
223.71094278941305
 51
316.28905721058561
  0
ARC
  5
2E5
100
AcDbEntity
  8
0
  6
CONTINUOUS
 62
               7
100
AcDbCircle
 10
-9.3505516644110287
 20
7.8348635487575393
 30
0.0
 40
0.9
100
AcDbArc
 50
43.710942789413565
 51
136.28905721058615
  0
ARC
  5
2E6
100
AcDbEntity
  8
0
  6
CONTINUOUS
 62
               7
100
AcDbCircle
 10
-10.649448335589
 20
7.8348635487575393
 30
0.0
 40
0.9
100
AcDbArc
 50
43.710942789413458
 51
136.28905721058604
  0
ENDBLK
  5
2E7
100
AcDbEntity
  8
0
100
AcDbBlockEnd
  0
BLOCK
  5
2E8
100
AcDbEntity
  8
0
100
AcDbBlockBegin
  2
NCT30-7
 70
               0
 10
0.0
 20
0.0
 30
0.0
  3
NCT30-7
  1

  0
LINE
  5
2E9
100
AcDbEntity
  8
0
  6
CENTER
 62
               2
100
AcDbLine
 10
12.086209641638504
 20
12.08620964163849
 30
0.0
 11
0.0
 21
-0.0000000000000142
 31
0.0
  0
LINE
  5
2EA
100
AcDbEntity
  8
0
  6
CENTER
 62
               2
100
AcDbLine
 10
-17.0
 20
-0.0000000000000142
 30
0.0
 11
17.193376937818186
 21
-0.0000000000000142
 31
0.0
  0
LINE
  5
2EB
100
AcDbEntity
  8
0
  6
CENTER
 62
               2
100
AcDbLine
 10
0.0
 20
17.000000000000014
 30
0.0
 11
0.0
 21
-17.429711286972733
 31
0.0
  0
LINE
  5
2EC
100
AcDbEntity
  8
0
  6
CENTER
 62
               2
100
AcDbLine
 10
0.0
 20
0.0
 30
0.0
 11
12.02081528017132
 21
-12.020815280171306
 31
0.0
  0
CIRCLE
  5
2ED
100
AcDbEntity
  8
0
  6
CONTINUOUS
 62
               7
100
AcDbCircle
 10
0.0
 20
0.0000000000000142
 30
0.0
 40
15.0
  0
ARC
  5
2EE
100
AcDbEntity
  8
0
  6
CONTINUOUS
 62
               7
100
AcDbCircle
 10
0.0
 20
0.0000000000000142
 30
0.0
 40
13.999999999999996
100
AcDbArc
 50
249.07516778920876
 51
110.92483221079026
  0
CIRCLE
  5
2EF
100
AcDbEntity
  8
0
  6
CONTINUOUS
 62
               7
100
AcDbCircle
 10
0.0
 20
0.0
 30
0.0
 40
2.1000000000000001
  0
CIRCLE
  5
2F0
100
AcDbEntity
  8
0
  6
CONTINUOUS
 62
               2
100
AcDbCircle
 10
0.0
 20
0.0
 30
0.0
 40
2.5
  0
LINE
  5
2F1
100
AcDbEntity
  8
0
  6
DASHED
 62
               2
100
AcDbLine
 10
9.6166522241370558
 20
10.323759005323595
 30
0.0
 11
8.5559920523572544
 21
9.2630988335437792
 31
0.0
  0
LINE
  5
2F2
100
AcDbEntity
  8
0
  6
DASHED
 62
               2
100
AcDbLine
 10
6.7528697603315493
 20
12.480434687942562
 30
0.0
 11
5.3386561979584428
 21
11.06622112556947
 31
0.0
  0
LINE
  5
2F3
100
AcDbEntity
  8
0
  6
DASHED
 62
               2
100
AcDbLine
 10
8.1812254583283561
 20
11.052078989945741
 30
0.0
 11
6.7670118959552781
 21
9.637865427572649
 31
0.0
  0
LINE
  5
2F4
100
AcDbEntity
  8
0
  6
DASHED
 62
               2
100
AcDbLine
 10
7.4599765415181025
 20
12.480434687942562
 30
0.0
 11
9.6166522241370558
 21
10.323759005323595
 31
0.0
  0
ARC
  5
2F5
100
AcDbEntity
  8
0
  6
DASHED
 62
               2
100
AcDbCircle
 10
1.5880271902427125
 20
8.6191156083133791
 30
0.0
 40
7.0277716396203269
100
AcDbArc
 50
20.2546208573625
 51
33.328410201475762
  0
ARC
  5
2F6
100
AcDbEntity
  8
0
  6
DASHED
 62
               2
100
AcDbCircle
 10
6.9050016264477279
 20
6.8774184484742449
 30
0.0
 40
4.3653794686807261
100
AcDbArc
 50
51.834711780667043
 51
73.001229803738639
  0
LINE
  5
2F7
100
AcDbEntity
  8
0
  6
DASHED
 62
               2
100
AcDbLine
 10
6.7528697603315493
 20
12.480434687942562
 30
0.0
 11
7.4599765415181025
 21
12.480434687942562
 31
0.0
  0
LINE
  5
2F8
100
AcDbEntity
  8
0
  6
DASHED
 62
               2
100
AcDbLine
 10
11.052078989945755
 20
8.1812254583283561
 30
0.0
 11
9.637865427572649
 21
6.7670118959552639
 31
0.0
  0
LINE
  5
2F9
100
AcDbEntity
  8
0
  6
DASHED
 62
               2
100
AcDbLine
 10
12.480434687942591
 20
6.7528697603315351
 30
0.0
 11
11.066221125569484
 21
5.3386561979584428
 31
0.0
  0
LINE
  5
2FA
100
AcDbEntity
  8
0
  6
DASHED
 62
               2
100
AcDbLine
 10
10.323759005323609
 20
9.6166522241370416
 30
0.0
 11
9.2630988335437792
 21
8.5559920523572259
 31
0.0
  0
ARC
  5
2FB
100
AcDbEntity
  8
0
  6
DASHED
 62
               2
100
AcDbCircle
 10
6.87872580088154
 20
6.9056845717351081
 30
0.0
 40
4.363929581700825
100
AcDbArc
 50
16.995213414137279
 51
38.168845001456681
  0
LINE
  5
2FC
100
AcDbEntity
  8
0
  6
DASHED
 62
               2
100
AcDbLine
 10
10.323759005323609
 20
9.6166522241370416
 30
0.0
 11
12.480434687942591
 21
7.4599765415180883
 31
0.0
  0
ARC
  5
2FD
100
AcDbEntity
  8
0
  6
DASHED
 62
               2
100
AcDbCircle
 10
8.618410986396924
 20
1.5866317625257409
 30
0.0
 40
7.0293247160888015
100
AcDbArc
 50
56.673040373502339
 51
69.743928567659154
  0
LINE
  5
2FE
100
AcDbEntity
  8
0
  6
DASHED
 62
               2
100
AcDbLine
 10
12.480434687942591
 20
7.4599765415180883
 30
0.0
 11
12.480434687942591
 21
6.7528697603315351
 31
0.0
  0
LINE
  5
2FF
100
AcDbEntity
  8
0
  6
DASHED
 62
               2
100
AcDbLine
 10
8.5559920523572544
 20
9.2630988335437792
 30
0.0
 11
9.2630988335437792
 21
8.5559920523572259
 31
0.0
  0
LINE
  5
300
100
AcDbEntity
  8
0
  6
DASHED
 62
               2
100
AcDbLine
 10
5.3386561979584428
 20
11.06622112556947
 30
0.0
 11
11.066221125569484
 21
5.3386561979584428
 31
0.0
  0
LINE
  5
301
100
AcDbEntity
  8
0
  6
DASHED
 62
               2
100
AcDbLine
 10
4.9497474683058442
 20
10.606601717798213
 30
0.0
 11
5.3740115370177648
 21
11.030865786510148
 31
0.0
  0
LINE
  5
302
100
AcDbEntity
  8
0
  6
DASHED
 62
               2
100
AcDbLine
 10
10.606601717798242
 20
4.94974746830583
 30
0.0
 11
11.030865786510162
 21
5.3740115370177648
 31
0.0
  0
CIRCLE
  5
303
100
AcDbEntity
  8
0
  6
CENTER
 62
               2
100
AcDbCircle
 10
0.0
 20
0.0000000000000142
 30
0.0
 40
11.0
  0
CIRCLE
  5
304
100
AcDbEntity
  8
0
  6
CONTINUOUS
 62
               2
100
AcDbCircle
 10
0.0
 20
11.000000000000014
 30
0.0
 40
2.0
  0
CIRCLE
  5
305
100
AcDbEntity
  8
0
  6
CONTINUOUS
 62
               2
100
AcDbCircle
 10
0.0
 20
-10.999999999999986
 30
0.0
 40
2.0
  0
CIRCLE
  5
306
100
AcDbEntity
  8
0
  6
CONTINUOUS
 62
               2
100
AcDbCircle
 10
11.0
 20
-0.0000000000000142
 30
0.0
 40
2.0
  0
CIRCLE
  5
307
100
AcDbEntity
  8
0
  6
CONTINUOUS
 62
               7
100
AcDbCircle
 10
0.0
 20
11.000000000000014
 30
0.0
 40
1.6499999999999999
  0
CIRCLE
  5
308
100
AcDbEntity
  8
0
  6
CONTINUOUS
 62
               7
100
AcDbCircle
 10
0.0
 20
-10.999999999999986
 30
0.0
 40
1.6499999999999999
  0
CIRCLE
  5
309
100
AcDbEntity
  8
0
  6
CONTINUOUS
 62
               7
100
AcDbCircle
 10
11.0
 20
-0.0000000000000142
 30
0.0
 40
1.6499999999999999
  0
LINE
  5
30A
100
AcDbEntity
  8
0
  6
DASHED
 62
               2
100
AcDbLine
 10
4.4194173824159293
 20
11.136931803688128
 30
0.0
 11
11.136931803688128
 21
4.4194173824159151
 31
0.0
  0
LINE
  5
30B
100
AcDbEntity
  8
0
  6
DASHED
 62
               2
100
AcDbLine
 10
6.2932503525602783
 20
9.2630988335437792
 30
0.0
 11
3.6092813728417354
 21
6.5791298538252221
 31
0.0
  0
LINE
  5
30C
100
AcDbEntity
  8
0
  6
DASHED
 62
               2
100
AcDbLine
 10
9.2630988335437792
 20
6.2932503525602783
 30
0.0
 11
6.8978536841753169
 21
3.9280052031918018
 31
0.0
  0
LINE
  5
30D
100
AcDbEntity
  8
0
  6
DASHED
 62
               2
100
AcDbLine
 10
9.5459415460184118
 20
6.0104076400856599
 30
0.0
 11
7.3599785512218432
 21
3.8244446452890912
 31
0.0
  0
LINE
  5
30E
100
AcDbEntity
  8
0
  6
DASHED
 62
               2
100
AcDbLine
 10
6.0104076400856741
 20
9.5459415460183976
 30
0.0
 11
3.6451624907171833
 21
7.1806963966499069
 31
0.0
  0
LINE
  5
30F
100
AcDbEntity
  8
0
  6
DASHED
 62
               2
100
AcDbLine
 10
10.323759005323609
 20
-9.61665222413707
 30
0.0
 11
9.2630988335437792
 21
-8.5559920523572401
 31
0.0
  0
LINE
  5
310
100
AcDbEntity
  8
0
  6
DASHED
 62
               2
100
AcDbLine
 10
12.480434687942562
 20
-6.7528697603315493
 30
0.0
 11
11.066221125569484
 21
-5.338656197958457
 31
0.0
  0
LINE
  5
311
100
AcDbEntity
  8
0
  6
DASHED
 62
               2
100
AcDbLine
 10
12.480434687942562
 20
-7.4599765415180883
 30
0.0
 11
10.323759005323609
 21
-9.61665222413707
 31
0.0
  0
ARC
  5
312
100
AcDbEntity
  8
0
  6
DASHED
 62
               2
100
AcDbCircle
 10
6.8774184484742591
 20
-6.9050016264477421
 30
0.0
 40
4.3653794686807261
100
AcDbArc
 50
321.83471178066645
 51
343.001229803738
  0
LINE
  5
313
100
AcDbEntity
  8
0
  6
DASHED
 62
               2
100
AcDbLine
 10
9.2630988335437792
 20
-8.5559920523572401
 30
0.0
 11
8.5559920523572259
 21
-9.2630988335437934
 31
0.0
  0
LINE
  5
314
100
AcDbEntity
  8
0
  6
DASHED
 62
               2
100
AcDbLine
 10
11.066221125569484
 20
-5.338656197958457
 30
0.0
 11
5.3386561979584712
 21
-11.066221125569484
 31
0.0
  0
LINE
  5
315
100
AcDbEntity
  8
0
  6
DASHED
 62
               2
100
AcDbLine
 10
11.136931803688128
 20
-4.4194173824159435
 30
0.0
 11
4.4194173824159293
 21
-11.136931803688142
 31
0.0
  0
LINE
  5
316
100
AcDbEntity
  8
0
  6
DASHED
 62
               2
100
AcDbLine
 10
9.2630988335437792
 20
-6.2932503525602925
 30
0.0
 11
6.5791298538252363
 21
-3.6092813728417212
 31
0.0
  0
LINE
  5
317
100
AcDbEntity
  8
0
  6
DASHED
 62
               2
100
AcDbLine
 10
6.2932503525602783
 20
-9.2630988335437934
 30
0.0
 11
3.928005203191816
 21
-6.8978536841753026
 31
0.0
  0
LINE
  5
318
100
AcDbEntity
  8
0
  6
DASHED
 62
               2
100
AcDbLine
 10
6.0104076400856741
 20
-9.5459415460183976
 30
0.0
 11
3.8244446452891054
 21
-7.3599785512218574
 31
0.0
  0
LINE
  5
319
100
AcDbEntity
  8
0
  6
DASHED
 62
               2
100
AcDbLine
 10
9.5459415460184118
 20
-6.0104076400856741
 30
0.0
 11
7.1806963966499211
 21
-3.6451624907171976
 31
0.0
  0
LINE
  5
31A
100
AcDbEntity
  8
0
  6
DASHED
 62
               2
100
AcDbLine
 10
12.480434687942562
 20
-6.7528697603315493
 30
0.0
 11
12.480434687942562
 21
-7.4599765415180883
 31
0.0
  0
ARC
  5
31B
100
AcDbEntity
  8
0
  6
DASHED
 62
               2
100
AcDbCircle
 10
8.6191156083133933
 20
-1.5880271902426983
 30
0.0
 40
7.0277716396203269
100
AcDbArc
 50
290.25462085736189
 51
303.32841020147521
  0
LINE
  5
31C
100
AcDbEntity
  8
0
  6
DASHED
 62
               2
100
AcDbLine
 10
11.052078989945755
 20
-8.1812254583283703
 30
0.0
 11
9.637865427572649
 21
-6.7670118959552781
 31
0.0
  0
LINE
  5
31D
100
AcDbEntity
  8
0
  6
DASHED
 62
               2
100
AcDbLine
 10
8.1812254583283561
 20
-11.052078989945755
 30
0.0
 11
6.7670118959552781
 21
-9.6378654275726632
 31
0.0
  0
LINE
  5
31E
100
AcDbEntity
  8
0
  6
DASHED
 62
               2
100
AcDbLine
 10
9.6166522241370558
 20
-10.323759005323623
 30
0.0
 11
8.5559920523572259
 21
-9.2630988335437934
 31
0.0
  0
LINE
  5
31F
100
AcDbEntity
  8
0
  6
DASHED
 62
               2
100
AcDbLine
 10
4.9497474683058442
 20
-10.606601717798227
 30
0.0
 11
5.3740115370177932
 21
-11.030865786510162
 31
0.0
  0
LINE
  5
320
100
AcDbEntity
  8
0
  6
DASHED
 62
               2
100
AcDbLine
 10
7.4599765415181025
 20
-12.480434687942576
 30
0.0
 11
6.7528697603315493
 21
-12.480434687942576
 31
0.0
  0
ARC
  5
321
100
AcDbEntity
  8
0
  6
DASHED
 62
               2
100
AcDbCircle
 10
1.5866317625257693
 20
-8.6184109863969383
 30
0.0
 40
7.0293247160888015
100
AcDbArc
 50
326.67304037350175
 51
339.74392856765854
  0
LINE
  5
322
100
AcDbEntity
  8
0
  6
DASHED
 62
               2
100
AcDbLine
 10
9.6166522241370558
 20
-10.323759005323623
 30
0.0
 11
7.4599765415181025
 21
-12.480434687942576
 31
0.0
  0
ARC
  5
323
100
AcDbEntity
  8
0
  6
DASHED
 62
               2
100
AcDbCircle
 10
6.9056845717351223
 20
-6.8787258008815257
 30
0.0
 40
4.363929581700825
100
AcDbArc
 50
286.99521341413669
 51
308.16884500145608
  0
LINE
  5
324
100
AcDbEntity
  8
0
  6
DASHED
 62
               2
100
AcDbLine
 10
6.7528697603315493
 20
-12.480434687942576
 30
0.0
 11
5.3386561979584712
 21
-11.066221125569484
 31
0.0
  0
LINE
  5
325
100
AcDbEntity
  8
0
  6
PHANTOM
 62
               2
100
AcDbLine
 10
-9.999999991377706
 20
3.5000000896555719
 30
0.0
 11
-9.999999991377706
 21
-3.5000000434256151
 31
0.0
  0
LINE
  5
326
100
AcDbEntity
  8
0
  6
CONTINUOUS
 62
               7
100
AcDbLine
 10
-4.9999999505085384
 20
14.142135604699078
 30
0.0
 11
-4.9999999505085384
 21
-14.142135642762824
 31
0.0
  0
CIRCLE
  5
327
100
AcDbEntity
  8
0
  6
CONTINUOUS
 62
               7
100
AcDbCircle
 10
-9.999999991377706
 20
0.0
 30
0.0
 40
3.2000000000000002
  0
LINE
  5
328
100
AcDbEntity
  8
0
  6
CONTINUOUS
 62
               7
100
AcDbLine
 10
-13.100000062339063
 20
0.000000145532681
 30
0.0
 11
-11.541154214493986
 21
-2.7000000809649691
 31
0.0
  0
LINE
  5
329
100
AcDbEntity
  8
0
  6
CONTINUOUS
 62
               7
100
AcDbLine
 10
-11.541154303900953
 20
2.6999999547978177
 30
0.0
 11
-13.1000000001373
 21
0.0000000077563413
 31
0.0
  0
LINE
  5
32A
100
AcDbEntity
  8
0
  6
CONTINUOUS
 62
               7
100
AcDbLine
 10
-8.4588457139082038
 20
-2.7000000000000028
 30
0.0
 11
-11.541154261239114
 21
-2.7000000000000028
 31
0.0
  0
LINE
  5
32B
100
AcDbEntity
  8
0
  6
CONTINUOUS
 62
               7
100
AcDbLine
 10
-8.4588456997577737
 20
2.7000000000000028
 30
0.0
 11
-11.541154277803457
 21
2.7000000000000028
 31
0.0
  0
LINE
  5
32C
100
AcDbEntity
  8
0
  6
CONTINUOUS
 62
               7
100
AcDbLine
 10
-8.458845678854459
 20
2.6999999547978177
 30
0.0
 11
-6.899999982618084
 21
0.0000000077563413
 31
0.0
  0
LINE
  5
32D
100
AcDbEntity
  8
0
  6
CONTINUOUS
 62
               7
100
AcDbLine
 10
-6.8999999204163487
 20
0.000000145532681
 30
0.0
 11
-8.4588457682614262
 21
-2.7000000809649691
 31
0.0
  0
CIRCLE
  5
32E
100
AcDbEntity
  8
0
  6
CONTINUOUS
 62
               7
100
AcDbCircle
 10
-9.999999991377706
 20
0.0
 30
0.0
 40
1.5
  0
CIRCLE
  5
32F
100
AcDbEntity
  8
0
  6
CONTINUOUS
 62
               7
100
AcDbCircle
 10
-9.999999991377706
 20
0.0
 30
0.0
 40
0.65
  0
LINE
  5
330
100
AcDbEntity
  8
0
  6
DASHED
 62
               2
100
AcDbLine
 10
10.60660171779827
 20
-4.9497474683059011
 30
0.0
 11
11.030865786510191
 21
-5.3740115370178358
 31
0.0
  0
LINE
  5
331
100
AcDbEntity
  8
0
  6
DASHED
 62
               2
100
AcDbLine
 10
13.419510164565537
 20
-6.7019957432933523
 30
0.0
 11
11.136931803688128
 21
-4.4194173824159435
 31
0.0
  0
LINE
  5
332
100
AcDbEntity
  8
0
  6
DASHED
 62
               2
100
AcDbLine
 10
13.419510164565565
 20
6.7019957432933381
 30
0.0
 11
11.136931803688128
 21
4.4194173824159151
 31
0.0
  0
LINE
  5
333
100
AcDbEntity
  8
0
  6
DASHED
 62
               2
100
AcDbLine
 10
6.7019957432933666
 20
13.419510164565551
 30
0.0
 11
4.4194173824159293
 21
11.136931803688128
 31
0.0
  0
LINE
  5
334
100
AcDbEntity
  8
0
  6
DASHED
 62
               2
100
AcDbLine
 10
6.7019957432933097
 20
-13.419510164565551
 30
0.0
 11
4.4194173824159293
 21
-11.136931803688142
 31
0.0
  0
ENDBLK
  5
335
100
AcDbEntity
  8
0
100
AcDbBlockEnd
  0
BLOCK
  5
336
100
AcDbEntity
  8
0
100
AcDbBlockBegin
  2
NCT30-8
 70
               0
 10
0.0
 20
0.0
 30
0.0
  3
NCT30-8
  1

  0
LINE
  5
337
100
AcDbEntity
  8
0
  6
CONTINUOUS
 62
               7
100
AcDbLine
 10
15.0
 20
-16.799999999999997
 30
0.0
 11
14.799999999999926
 21
-17.0
 31
0.0
  0
LINE
  5
338
100
AcDbEntity
  8
0
  6
CONTINUOUS
 62
               7
100
AcDbLine
 10
-15.0
 20
-16.799999999999997
 30
0.0
 11
-14.799999999999955
 21
-17.0
 31
0.0
  0
LINE
  5
339
100
AcDbEntity
  8
0
  6
CONTINUOUS
 62
               7
100
AcDbLine
 10
15.0
 20
-16.799999999999997
 30
0.0
 11
-15.0
 21
-16.799999999999997
 31
0.0
  0
LINE
  5
33A
100
AcDbEntity
  8
0
  6
CONTINUOUS
 62
               4
100
AcDbLine
 10
-3.5
 20
-17.0
 30
0.0
 11
-3.5
 21
-18.0
 31
0.0
  0
LINE
  5
33B
100
AcDbEntity
  8
0
  6
CONTINUOUS
 62
               4
100
AcDbLine
 10
3.5
 20
-17.0
 30
0.0
 11
3.5
 21
-18.0
 31
0.0
  0
LINE
  5
33C
100
AcDbEntity
  8
0
  6
CONTINUOUS
 62
               4
100
AcDbLine
 10
-3.5
 20
-18.0
 30
0.0
 11
3.5
 21
-18.0
 31
0.0
  0
LINE
  5
33D
100
AcDbEntity
  8
0
  6
CONTINUOUS
 62
               7
100
AcDbLine
 10
-19.182320272248589
 20
-0.6196209498889971
 30
0.0
 11
-19.504363255897303
 21
-0.6239595985126698
 31
0.0
  0
ARC
  5
33E
100
AcDbEntity
  8
0
  6
CONTINUOUS
 62
               7
100
AcDbCircle
 10
-18.89999998814811
 20
-1.0322894090489285
 30
0.0
 40
0.5
100
AcDbArc
 50
89.999999999999815
 51
179.99999999999963
  0
ARC
  5
33F
100
AcDbEntity
  8
0
  6
CONTINUOUS
 62
               7
100
AcDbCircle
 10
-18.89999998814811
 20
-3.0322894090489285
 30
0.0
 40
0.5
100
AcDbArc
 50
179.99999999999963
 51
269.99999999999937
  0
LINE
  5
340
100
AcDbEntity
  8
0
  6
CONTINUOUS
 62
               7
100
AcDbLine
 10
-18.799999988148116
 20
-0.5322894090489285
 30
0.0
 11
-18.89999998814811
 21
-0.5322894090489285
 31
0.0
  0
LINE
  5
341
100
AcDbEntity
  8
0
  6
CONTINUOUS
 62
               7
100
AcDbLine
 10
-18.799999988148116
 20
-3.5322894090489285
 30
0.0
 11
-18.89999998814811
 21
-3.5322894090489285
 31
0.0
  0
LINE
  5
342
100
AcDbEntity
  8
0
  6
CONTINUOUS
 62
               7
100
AcDbLine
 10
-19.39999998814811
 20
-3.0322894090489285
 30
0.0
 11
-19.39999998814811
 21
-1.0322894090489285
 31
0.0
  0
ARC
  5
343
100
AcDbEntity
  8
0
  6
CONTINUOUS
 62
               7
100
AcDbCircle
 10
-19.499999988148105
 20
-9.9406382597265406
 30
0.0
 40
0.5
100
AcDbArc
 50
179.99999999999963
 51
269.49999999999915
  0
ARC
  5
344
100
AcDbEntity
  8
0
  6
CONTINUOUS
 62
               7
100
AcDbCircle
 10
-19.499999988148105
 20
-1.1239405600447867
 30
0.0
 40
0.5
100
AcDbArc
 50
90.500000000000071
 51
179.99999999999963
  0
LINE
  5
345
100
AcDbEntity
  8
0
  6
CONTINUOUS
 62
               7
100
AcDbLine
 10
-12.699999988148093
 20
-0.5322894090489285
 30
0.0
 11
-18.799999988148116
 21
-0.6144702294615172
 31
0.0
  0
LINE
  5
346
100
AcDbEntity
  8
0
  6
CONTINUOUS
 62
               7
100
AcDbLine
 10
-12.699999988148093
 20
-10.532289410722342
 30
0.0
 11
-19.504363255897303
 21
-10.440619221258601
 31
0.0
  0
LINE
  5
347
100
AcDbEntity
  8
0
  6
CONTINUOUS
 62
               7
100
AcDbLine
 10
-20.39999998814811
 20
-1.1322894090488944
 30
0.0
 11
-20.39999998814811
 21
-7.1322894090488944
 31
0.0
  0
LINE
  5
348
100
AcDbEntity
  8
0
  6
CONTINUOUS
 62
               7
100
AcDbLine
 10
-27.39999998814811
 20
-2.1322894090488944
 30
0.0
 11
-27.399999988148103
 21
-6.1322894090488944
 31
0.0
  0
LINE
  5
349
100
AcDbEntity
  8
0
  6
CONTINUOUS
 62
               7
100
AcDbLine
 10
-27.399999988148103
 20
-6.1322894090488944
 30
0.0
 11
-25.39999998814811
 21
-6.4180036947632289
 31
0.0
  0
LINE
  5
34A
100
AcDbEntity
  8
0
  6
CONTINUOUS
 62
               7
100
AcDbLine
 10
-27.39999998814811
 20
-2.1322894090488944
 30
0.0
 11
-25.39999998814811
 21
-1.8465751233346168
 31
0.0
  0
LINE
  5
34B
100
AcDbEntity
  8
0
  6
CONTINUOUS
 62
               7
100
AcDbLine
 10
-25.39999998814811
 20
-1.8465751233346168
 30
0.0
 11
-25.39999998814811
 21
-6.4180036947632289
 31
0.0
  0
LINE
  5
34C
100
AcDbEntity
  8
0
  6
CONTINUOUS
 62
               7
100
AcDbLine
 10
-24.39999998814811
 20
-1.7037179804775064
 30
0.0
 11
-24.39999998814811
 21
-6.5608608376203392
 31
0.0
  0
LINE
  5
34D
100
AcDbEntity
  8
0
  6
CONTINUOUS
 62
               7
100
AcDbLine
 10
-22.89999998814811
 20
-1.489432266191784
 30
0.0
 11
-22.89999998814811
 21
-6.7751465519060616
 31
0.0
  0
LINE
  5
34E
100
AcDbEntity
  8
0
  6
CONTINUOUS
 62
               7
100
AcDbLine
 10
-21.89999998814811
 20
-1.3465751233346168
 30
0.0
 11
-21.89999998814811
 21
-6.9180036947632289
 31
0.0
  0
LINE
  5
34F
100
AcDbEntity
  8
0
  6
CONTINUOUS
 62
               7
100
AcDbLine
 10
-24.39999998814811
 20
-6.5608608376203392
 30
0.0
 11
-22.89999998814811
 21
-6.7751465519060616
 31
0.0
  0
LINE
  5
350
100
AcDbEntity
  8
0
  6
CONTINUOUS
 62
               7
100
AcDbLine
 10
-21.89999998814811
 20
-6.9180036947632289
 30
0.0
 11
-20.39999998814811
 21
-7.1322894090488944
 31
0.0
  0
LINE
  5
351
100
AcDbEntity
  8
0
  6
CONTINUOUS
 62
               7
100
AcDbLine
 10
-24.39999998814811
 20
-1.7037179804775064
 30
0.0
 11
-22.89999998814811
 21
-1.489432266191784
 31
0.0
  0
LINE
  5
352
100
AcDbEntity
  8
0
  6
CONTINUOUS
 62
               7
100
AcDbLine
 10
-21.89999998814811
 20
-1.3465751233346168
 30
0.0
 11
-20.39999998814811
 21
-1.1322894090488944
 31
0.0
  0
LINE
  5
353
100
AcDbEntity
  8
0
  6
CONTINUOUS
 62
               7
100
AcDbLine
 10
-25.39999998814811
 20
-5.8822894090488944
 30
0.0
 11
-24.39999998814811
 21
-5.8822894090488944
 31
0.0
  0
LINE
  5
354
100
AcDbEntity
  8
0
  6
CONTINUOUS
 62
               7
100
AcDbLine
 10
-25.39999998814811
 20
-2.3822894090488944
 30
0.0
 11
-24.39999998814811
 21
-2.3822894090488944
 31
0.0
  0
LINE
  5
355
100
AcDbEntity
  8
0
  6
CONTINUOUS
 62
               7
100
AcDbLine
 10
-22.89999998814811
 20
-5.8822894090488944
 30
0.0
 11
-21.89999998814811
 21
-5.8822894090488944
 31
0.0
  0
LINE
  5
356
100
AcDbEntity
  8
0
  6
CONTINUOUS
 62
               7
100
AcDbLine
 10
-22.89999998814811
 20
-2.3822894090488944
 30
0.0
 11
-21.89999998814811
 21
-2.3822894090488944
 31
0.0
  0
LINE
  5
357
100
AcDbEntity
  8
0
  6
CONTINUOUS
 62
               7
100
AcDbLine
 10
-32.899999988148096
 20
-2.8322894090489399
 30
0.0
 11
-32.899999988148096
 21
-5.4322894090489058
 31
0.0
  0
LINE
  5
358
100
AcDbEntity
  8
0
  6
CENTER
 62
               2
100
AcDbLine
 10
-32.001543729590026
 20
-3.6822894090489058
 30
0.0
 11
-39.522492207121047
 21
-3.6822894090489058
 31
0.0
  0
LINE
  5
359
100
AcDbEntity
  8
0
  6
CENTER
 62
               2
100
AcDbLine
 10
-32.001543729590026
 20
-4.5822894090489399
 30
0.0
 11
-39.522492207121047
 21
-4.5822894090489399
 31
0.0
  0
LINE
  5
35A
100
AcDbEntity
  8
0
  6
CONTINUOUS
 62
               7
100
AcDbLine
 10
-38.899999988148068
 20
-3.4322894090489058
 30
0.0
 11
-38.899999988148068
 21
-3.9322894090489058
 31
0.0
  0
LINE
  5
35B
100
AcDbEntity
  8
0
  6
CONTINUOUS
 62
               7
100
AcDbLine
 10
-38.899999988148068
 20
-4.3322894090489399
 30
0.0
 11
-38.899999988148068
 21
-4.8322894090489399
 31
0.0
  0
LINE
  5
35C
100
AcDbEntity
  8
0
  6
CONTINUOUS
 62
               7
100
AcDbLine
 10
-36.899999988148068
 20
-3.2322894090489172
 30
0.0
 11
-36.899999988148068
 21
-5.0322894090489285
 31
0.0
  0
LINE
  5
35D
100
AcDbEntity
  8
0
  6
CONTINUOUS
 62
               7
100
AcDbLine
 10
-32.899999988148096
 20
-5.0322894090489285
 30
0.0
 11
-34.899999988148068
 21
-5.0322894090489285
 31
0.0
  0
LINE
  5
35E
100
AcDbEntity
  8
0
  6
CONTINUOUS
 62
               7
100
AcDbLine
 10
-32.899999988148096
 20
-4.1322894090488944
 30
0.0
 11
-34.379999988148086
 21
-4.1322894090488944
 31
0.0
  0
LINE
  5
35F
100
AcDbEntity
  8
0
  6
CONTINUOUS
 62
               7
100
AcDbLine
 10
-35.361880168010003
 20
-4.1322894090488944
 30
0.0
 11
-36.899999988148068
 21
-4.1322894090488944
 31
0.0
  0
LINE
  5
360
100
AcDbEntity
  8
0
  6
CONTINUOUS
 62
               7
100
AcDbLine
 10
-35.881495409895194
 20
-5.0322894090489285
 30
0.0
 11
-36.899999988148068
 21
-5.0322894090489285
 31
0.0
  0
LINE
  5
361
100
AcDbEntity
  8
0
  6
CONTINUOUS
 62
               7
100
AcDbLine
 10
-32.899999988148096
 20
-3.2322894090489172
 30
0.0
 11
-33.859999988148104
 21
-3.2322894090489172
 31
0.0
  0
LINE
  5
362
100
AcDbEntity
  8
0
  6
CONTINUOUS
 62
               7
100
AcDbLine
 10
-34.842264926124813
 20
-3.2322894090489172
 30
0.0
 11
-36.899999988148068
 21
-3.2322894090489172
 31
0.0
  0
LINE
  5
363
100
AcDbEntity
  8
0
  6
CONTINUOUS
 62
               7
100
AcDbLine
 10
-36.899999988148068
 20
-3.4322894090489058
 30
0.0
 11
-38.899999988148068
 21
-3.4322894090489058
 31
0.0
  0
LINE
  5
364
100
AcDbEntity
  8
0
  6
CONTINUOUS
 62
               7
100
AcDbLine
 10
-36.899999988148068
 20
-3.9322894090489058
 30
0.0
 11
-38.899999988148068
 21
-3.9322894090489058
 31
0.0
  0
LINE
  5
365
100
AcDbEntity
  8
0
  6
CONTINUOUS
 62
               7
100
AcDbLine
 10
-36.899999988148068
 20
-4.3322894090489399
 30
0.0
 11
-38.899999988148068
 21
-4.3322894090489399
 31
0.0
  0
LINE
  5
366
100
AcDbEntity
  8
0
  6
CONTINUOUS
 62
               7
100
AcDbLine
 10
-36.899999988148068
 20
-4.8322894090489399
 30
0.0
 11
-38.899999988148068
 21
-4.8322894090489399
 31
0.0
  0
LINE
  5
367
100
AcDbEntity
  8
0
  6
CONTINUOUS
 62
               7
100
AcDbLine
 10
-27.39999998814811
 20
-2.8322894090489399
 30
0.0
 11
-28.937564439240376
 21
-2.8322894090489399
 31
0.0
  0
LINE
  5
368
100
AcDbEntity
  8
0
  6
CONTINUOUS
 62
               7
100
AcDbLine
 10
-27.39999998814811
 20
-5.4322894090489058
 30
0.0
 11
-30.438675139133423
 21
-5.4322894090489058
 31
0.0
  0
LINE
  5
369
100
AcDbEntity
  8
0
  6
CONTINUOUS
 62
               7
100
AcDbLine
 10
-29.86132483846275
 20
-2.8322894090489399
 30
0.0
 11
-32.899999988148096
 21
-2.8322894090489399
 31
0.0
  0
LINE
  5
36A
100
AcDbEntity
  8
0
  6
CONTINUOUS
 62
               7
100
AcDbLine
 10
-31.362435538355797
 20
-5.4322894090489058
 30
0.0
 11
-32.899999988148096
 21
-5.4322894090489058
 31
0.0
  0
LINE
  5
36B
100
AcDbEntity
  8
0
  6
PHANTOM
 62
               2
100
AcDbLine
 10
-34.495854765176773
 20
-2.6322894095837341
 30
0.0
 11
-36.227905571460724
 21
-5.6322894095837341
 31
0.0
  0
LINE
  5
36C
100
AcDbEntity
  8
0
  6
PHANTOM
 62
               2
100
AcDbLine
 10
-33.57209438085556
 20
-2.6322894095837341
 30
0.0
 11
-35.304145202040672
 21
-5.6322894393860565
 31
0.0
  0
LINE
  5
36D
100
AcDbEntity
  8
0
  6
PHANTOM
 62
               2
100
AcDbLine
 10
-29.514914676547065
 20
-2.2322894036232697
 30
0.0
 11
-31.708845719695098
 21
-6.032289445346521
 31
0.0
  0
LINE
  5
36E
100
AcDbEntity
  8
0
  6
PHANTOM
 62
               2
100
AcDbLine
 10
-28.591154277324691
 20
-2.2322894334255921
 30
0.0
 11
-30.785085305571563
 21
-6.032289445346521
 31
0.0
  0
LINE
  5
36F
100
AcDbEntity
  8
0
  6
CONTINUOUS
 62
               7
100
AcDbLine
 10
-20.39999998814811
 20
-1.1322894090488944
 30
0.0
 11
-19.999999988148105
 21
-1.1322894090488944
 31
0.0
  0
LINE
  5
370
100
AcDbEntity
  8
0
  6
CONTINUOUS
 62
               7
100
AcDbLine
 10
-20.39999998814811
 20
-7.1322894090488944
 30
0.0
 11
-19.999999988148105
 21
-7.1322894090488944
 31
0.0
  0
LINE
  5
371
100
AcDbEntity
  8
0
  6
CENTER
 62
               2
100
AcDbLine
 10
-32.899999988148096
 20
-4.1322894090488944
 30
0.0
 11
-18.799999988148116
 21
-4.1322894090488944
 31
0.0
  0
LINE
  5
372
100
AcDbEntity
  8
0
  6
CENTER
 62
               2
100
AcDbLine
 10
-18.195856974999217
 20
-2.0322894090489285
 30
0.0
 11
-20.39999998814811
 21
-2.0322894090489285
 31
0.0
  0
LINE
  5
373
100
AcDbEntity
  8
0
  6
CONTINUOUS
 62
               7
100
AcDbLine
 10
-18.799999988148116
 20
-3.6322894090489513
 30
0.0
 11
-18.799999988148116
 21
-0.5322894090489285
 31
0.0
  0
LINE
  5
374
100
AcDbEntity
  8
0
  6
CONTINUOUS
 62
               7
100
AcDbLine
 10
-18.799999988148116
 20
-3.6322894090489513
 30
0.0
 11
-19.999999988148105
 21
-3.6322894090489513
 31
0.0
  0
LINE
  5
375
100
AcDbEntity
  8
0
  6
CONTINUOUS
 62
               7
100
AcDbLine
 10
-19.999999988148105
 20
-9.9406382597265406
 30
0.0
 11
-19.999999988148105
 21
-1.1239405600447867
 31
0.0
  0
LINE
  5
376
100
AcDbEntity
  8
0
  6
CONTINUOUS
 62
               7
100
AcDbLine
 10
-12.699999988148093
 20
-10.532289410722342
 30
0.0
 11
-12.699999988148093
 21
-0.5322894090489285
 31
0.0
  0
LINE
  5
377
100
AcDbEntity
  8
0
  6
CONTINUOUS
 62
               7
100
AcDbLine
 10
-12.699999988148093
 20
-10.532289410722342
 30
0.0
 11
-9.0000000000000142
 21
-10.5
 31
0.0
  0
LINE
  5
378
100
AcDbEntity
  8
0
  6
CONTINUOUS
 62
               7
100
AcDbLine
 10
-12.699999988148093
 20
-0.5322894090489285
 30
0.0
 11
-9.0000000000000142
 21
-0.5645788197713273
 31
0.0
  0
LINE
  5
379
100
AcDbEntity
  8
0
  6
CENTER
 62
               2
100
AcDbLine
 10
-7.0000000000000142
 20
-5.5322894090489285
 30
0.0
 11
-21.999999988148105
 21
-5.5322894090489285
 31
0.0
  0
LINE
  5
37A
100
AcDbEntity
  8
0
  6
CONTINUOUS
 62
               7
100
AcDbLine
 10
-15.000000009536748
 20
-11.0
 30
0.0
 11
-9.0000000000000142
 21
-11.0
 31
0.0
  0
LINE
  5
37B
100
AcDbEntity
  8
0
  6
CONTINUOUS
 62
               7
100
AcDbLine
 10
-9.0000000000000142
 20
-0.0000000091128811
 30
0.0
 11
-9.0000000000000142
 21
-11.000000009112881
 31
0.0
  0
LINE
  5
37C
100
AcDbEntity
  8
0
  6
CENTER
 62
               2
100
AcDbLine
 10
0.0
 20
1.9999999908871189
 30
0.0
 11
0.0
 21
-19.699999997191952
 31
0.0
  0
ARC
  5
37D
100
AcDbEntity
  8
0
  6
CONTINUOUS
 62
               7
100
AcDbCircle
 10
10.606601717798199
 20
-6.5
 30
0.0
 40
3.5
100
AcDbArc
 50
98.213210701737992
 51
261.78678929826128
  0
ARC
  5
37E
100
AcDbEntity
  8
0
  6
CONTINUOUS
 62
               7
100
AcDbCircle
 10
10.606601717798199
 20
-6.5
 30
0.0
 40
3.5
100
AcDbArc
 50
278.21321070173758
 51
81.786789298261581
  0
ARC
  5
37F
100
AcDbEntity
  8
0
  6
CONTINUOUS
 62
               7
100
AcDbCircle
 10
10.606601717798199
 20
-6.5
 30
0.0
 40
4.0
100
AcDbArc
 50
301.04497562813941
 51
358.95502437185911
  0
ARC
  5
380
100
AcDbEntity
  8
0
  6
CONTINUOUS
 62
               7
100
AcDbCircle
 10
10.606601717798199
 20
-6.5
 30
0.0
 40
4.0
100
AcDbArc
 50
241.04497562813958
 51
298.95502437185922
  0
ARC
  5
381
100
AcDbEntity
  8
0
  6
CONTINUOUS
 62
               7
100
AcDbCircle
 10
10.606601717798199
 20
-6.5
 30
0.0
 40
4.0
100
AcDbArc
 50
181.04497562813958
 51
238.95502437185922
  0
ARC
  5
382
100
AcDbEntity
  8
0
  6
CONTINUOUS
 62
               7
100
AcDbCircle
 10
10.606601717798199
 20
-6.5
 30
0.0
 40
4.0
100
AcDbArc
 50
121.04497562813988
 51
178.95502437185934
  0
ARC
  5
383
100
AcDbEntity
  8
0
  6
CONTINUOUS
 62
               7
100
AcDbCircle
 10
10.606601717798199
 20
-6.5
 30
0.0
 40
4.0
100
AcDbArc
 50
61.044975628139994
 51
118.95502437185961
  0
ARC
  5
384
100
AcDbEntity
  8
0
  6
CONTINUOUS
 62
               7
100
AcDbCircle
 10
10.606601717798199
 20
-6.5
 30
0.0
 40
4.0
100
AcDbArc
 50
1.0449756281401477
 51
58.955024371859722
  0
ARC
  5
385
100
AcDbEntity
  8
0
  6
CONTINUOUS
 62
               7
100
AcDbCircle
 10
10.606601717798199
 20
-6.5
 30
0.0
 40
4.75
100
AcDbArc
 50
22.342807841339578
 51
337.65719215865965
  0
LINE
  5
386
100
AcDbEntity
  8
0
  6
CONTINUOUS
 62
               7
100
AcDbLine
 10
12.627327659961892
 20
-10.0
 30
0.0
 11
14.648053602125586
 21
-6.5
 31
0.0
  0
LINE
  5
387
100
AcDbEntity
  8
0
  6
CONTINUOUS
 62
               7
100
AcDbLine
 10
8.5858757756345057
 20
-10.0
 30
0.0
 11
12.627327659961892
 21
-10.0
 31
0.0
  0
LINE
  5
388
100
AcDbEntity
  8
0
  6
CONTINUOUS
 62
               7
100
AcDbLine
 10
6.5651498334708123
 20
-6.5
 30
0.0
 11
8.5858757756345057
 21
-10.0
 31
0.0
  0
LINE
  5
389
100
AcDbEntity
  8
0
  6
CONTINUOUS
 62
               7
100
AcDbLine
 10
8.5858757756345057
 20
-3.0
 30
0.0
 11
6.5651498334708123
 21
-6.5
 31
0.0
  0
LINE
  5
38A
100
AcDbEntity
  8
0
  6
CONTINUOUS
 62
               7
100
AcDbLine
 10
12.627327659961892
 20
-3.0
 30
0.0
 11
8.5858757756345057
 21
-3.0
 31
0.0
  0
LINE
  5
38B
100
AcDbEntity
  8
0
  6
CONTINUOUS
 62
               7
100
AcDbLine
 10
14.648053602125586
 20
-6.5
 30
0.0
 11
12.627327659961892
 21
-3.0
 31
0.0
  0
LINE
  5
38C
100
AcDbEntity
  8
0
  6
CONTINUOUS
 62
               7
100
AcDbLine
 10
10.106601717798199
 20
-3.0
 30
0.0
 11
10.106601717798199
 21
-10.0
 31
0.0
  0
LINE
  5
38D
100
AcDbEntity
  8
0
  6
CONTINUOUS
 62
               7
100
AcDbLine
 10
11.106601717798199
 20
-3.0
 30
0.0
 11
11.106601717798199
 21
-10.0
 31
0.0
  0
LINE
  5
38E
100
AcDbEntity
  8
0
  6
CONTINUOUS
 62
               7
100
AcDbLine
 10
15.0
 20
-1.0
 30
0.0
 11
-9.0000000000000142
 21
-1.0
 31
0.0
  0
LINE
  5
38F
100
AcDbEntity
  8
0
  6
CONTINUOUS
 62
               7
100
AcDbLine
 10
-15.0
 20
-11.0
 30
0.0
 11
-15.0
 21
-16.799999999999997
 31
0.0
  0
LINE
  5
390
100
AcDbEntity
  8
0
  6
CONTINUOUS
 62
               7
100
AcDbLine
 10
14.0
 20
0.0
 30
0.0
 11
15.0
 21
-1.0
 31
0.0
  0
LINE
  5
391
100
AcDbEntity
  8
0
  6
CONTINUOUS
 62
               7
100
AcDbLine
 10
14.799999999999926
 20
-17.0
 30
0.0
 11
-14.799999999999955
 21
-17.0
 31
0.0
  0
LINE
  5
392
100
AcDbEntity
  8
0
  6
CONTINUOUS
 62
               7
100
AcDbLine
 10
15.0
 20
-1.0
 30
0.0
 11
15.0
 21
-16.799999999999997
 31
0.0
  0
LINE
  5
393
100
AcDbEntity
  8
0
  6
CONTINUOUS
 62
               7
100
AcDbLine
 10
-9.0000000000000142
 20
0.0
 30
0.0
 11
14.0
 21
0.0
 31
0.0
  0
LINE
  5
394
100
AcDbEntity
  8
0
  6
CENTER
 62
               2
100
AcDbLine
 10
18.172485804846445
 20
-6.5
 30
0.0
 11
4.4066017177981962
 21
-6.5
 31
0.0
  0
LINE
  5
395
100
AcDbEntity
  8
0
  6
CENTER
 62
               2
100
AcDbLine
 10
10.606601717798199
 20
-0.2999999999999972
 30
0.0
 11
10.606601717798199
 21
-12.700000000000003
 31
0.0
  0
ENDBLK
  5
396
100
AcDbEntity
  8
0
100
AcDbBlockEnd
  0
BLOCK
  5
397
100
AcDbEntity
  8
0
100
AcDbBlockBegin
  2
NCT30-9
 70
               0
 10
0.0
 20
0.0
 30
0.0
  3
NCT30-9
  1

  0
LINE
  5
398
100
AcDbEntity
  8
0
  6
DASHED
 62
               2
100
AcDbLine
 10
11.030865786510127
 20
-5.3740115370177932
 30
0.0
 11
10.606601717798206
 21
-4.9497474683058726
 31
0.0
  0
LINE
  5
399
100
AcDbEntity
  8
0
  6
DASHED
 62
               2
100
AcDbLine
 10
6.701995743293331
 20
13.419510164565537
 30
0.0
 11
4.4194173824159222
 21
11.136931803688128
 31
0.0
  0
LINE
  5
39A
100
AcDbEntity
  8
0
  6
DASHED
 62
               2
100
AcDbLine
 10
13.41951016456553
 20
6.7019957432933097
 30
0.0
 11
11.136931803688121
 21
4.4194173824159293
 31
0.0
  0
LINE
  5
39B
100
AcDbEntity
  8
0
  6
DASHED
 62
               2
100
AcDbLine
 10
6.7019957432933168
 20
-13.419510164565565
 30
0.0
 11
4.4194173824159222
 21
-11.136931803688157
 31
0.0
  0
LINE
  5
39C
100
AcDbEntity
  8
0
  6
DASHED
 62
               2
100
AcDbLine
 10
13.41951016456553
 20
-6.7019957432933666
 30
0.0
 11
11.136931803688121
 21
-4.4194173824159435
 31
0.0
  0
ARC
  5
39D
100
AcDbEntity
  8
0
  6
CONTINUOUS
 62
               7
100
AcDbCircle
 10
-19.499999988148041
 20
11.408348849004199
 30
0.0
 40
0.5
100
AcDbArc
 50
90.499999999999659
 51
179.99999999999963
  0
ARC
  5
39E
100
AcDbEntity
  8
0
  6
CONTINUOUS
 62
               7
100
AcDbCircle
 10
-19.499999988148041
 20
-7.408348849004156
 30
0.0
 40
0.5
100
AcDbArc
 50
179.99999999999949
 51
269.49999999999909
  0
LINE
  5
39F
100
AcDbEntity
  8
0
  6
CONTINUOUS
 62
               7
100
AcDbLine
 10
-12.699999988148072
 20
-8.0000000000000284
 30
0.0
 11
-18.799999988148052
 21
-7.917819179587454
 31
0.0
  0
LINE
  5
3A0
100
AcDbEntity
  8
0
  6
CONTINUOUS
 62
               7
100
AcDbLine
 10
-12.699999988148072
 20
11.999999999999972
 30
0.0
 11
-19.504363255897225
 21
11.908329810536259
 31
0.0
  0
LINE
  5
3A1
100
AcDbEntity
  8
0
  6
CONTINUOUS
 62
               7
100
AcDbLine
 10
-14.599999988148063
 20
-4.2000000000000881
 30
0.0
 11
-13.699999988148086
 21
-4.2000000000000455
 31
0.0
  0
LINE
  5
3A2
100
AcDbEntity
  8
0
  6
CONTINUOUS
 62
               7
100
AcDbLine
 10
-13.699999988148029
 20
-3.0000000000000284
 30
0.0
 11
-14.599999988148063
 21
-3.0000000000000284
 31
0.0
  0
LINE
  5
3A3
100
AcDbEntity
  8
0
  6
CONTINUOUS
 62
               7
100
AcDbLine
 10
-13.699999988148029
 20
6.9999999999999716
 30
0.0
 11
-14.599999988148063
 21
6.9999999999999716
 31
0.0
  0
LINE
  5
3A4
100
AcDbEntity
  8
0
  6
CONTINUOUS
 62
               7
100
AcDbLine
 10
-14.599999988148063
 20
8.1999999999999318
 30
0.0
 11
-13.699999988148072
 21
8.1999999999999886
 31
0.0
  0
LINE
  5
3A5
100
AcDbEntity
  8
0
  6
PHANTOM
 62
               2
100
AcDbLine
 10
-28.591154277324627
 20
10.199999975623371
 30
0.0
 11
-30.785085305571549
 21
6.3999999637024132
 31
0.0
  0
LINE
  5
3A6
100
AcDbEntity
  8
0
  6
PHANTOM
 62
               2
100
AcDbLine
 10
-29.514914676547029
 20
10.200000005425693
 30
0.0
 11
-31.708845719695049
 21
6.3999999637024416
 31
0.0
  0
LINE
  5
3A7
100
AcDbEntity
  8
0
  6
PHANTOM
 62
               2
100
AcDbLine
 10
-33.572094380855511
 20
9.7999999994652285
 30
0.0
 11
-35.304145202040665
 21
6.7999999696629061
 31
0.0
  0
LINE
  5
3A8
100
AcDbEntity
  8
0
  6
PHANTOM
 62
               2
100
AcDbLine
 10
-34.49585476517678
 20
9.7999999994652285
 30
0.0
 11
-36.227905571460717
 21
6.7999999994652285
 31
0.0
  0
LINE
  5
3A9
100
AcDbEntity
  8
0
  6
CONTINUOUS
 62
               7
100
AcDbLine
 10
-31.362435538355768
 20
7.0
 30
0.0
 11
-32.899999988148075
 21
7.0
 31
0.0
  0
LINE
  5
3AA
100
AcDbEntity
  8
0
  6
CONTINUOUS
 62
               7
100
AcDbLine
 10
-29.861324838462714
 20
9.6000000000000227
 30
0.0
 11
-32.899999988148075
 21
9.6000000000000227
 31
0.0
  0
LINE
  5
3AB
100
AcDbEntity
  8
0
  6
CONTINUOUS
 62
               7
100
AcDbLine
 10
-27.399999988148032
 20
7.0
 30
0.0
 11
-30.438675139133323
 21
7.0
 31
0.0
  0
LINE
  5
3AC
100
AcDbEntity
  8
0
  6
CONTINUOUS
 62
               7
100
AcDbLine
 10
-27.399999988148032
 20
9.6000000000000227
 30
0.0
 11
-28.937564439240354
 21
9.6000000000000512
 31
0.0
  0
LINE
  5
3AD
100
AcDbEntity
  8
0
  6
CONTINUOUS
 62
               7
100
AcDbLine
 10
-36.89999998814806
 20
7.6000000000000227
 30
0.0
 11
-38.899999988148046
 21
7.5999999999999943
 31
0.0
  0
LINE
  5
3AE
100
AcDbEntity
  8
0
  6
CONTINUOUS
 62
               7
100
AcDbLine
 10
-36.899999988148018
 20
8.1000000000000227
 30
0.0
 11
-38.899999988148046
 21
8.1000000000000227
 31
0.0
  0
LINE
  5
3AF
100
AcDbEntity
  8
0
  6
CONTINUOUS
 62
               7
100
AcDbLine
 10
-36.89999998814806
 20
8.5
 30
0.0
 11
-38.899999988148046
 21
8.5
 31
0.0
  0
LINE
  5
3B0
100
AcDbEntity
  8
0
  6
CONTINUOUS
 62
               7
100
AcDbLine
 10
-36.899999988148032
 20
9.0
 30
0.0
 11
-38.899999988148046
 21
9.0
 31
0.0
  0
LINE
  5
3B1
100
AcDbEntity
  8
0
  6
CONTINUOUS
 62
               7
100
AcDbLine
 10
-34.842264926124777
 20
9.2000000000000739
 30
0.0
 11
-36.899999988148075
 21
9.2000000000000455
 31
0.0
  0
LINE
  5
3B2
100
AcDbEntity
  8
0
  6
CONTINUOUS
 62
               7
100
AcDbLine
 10
-32.899999988148032
 20
9.2000000000000455
 30
0.0
 11
-33.859999988148054
 21
9.2000000000000455
 31
0.0
  0
LINE
  5
3B3
100
AcDbEntity
  8
0
  6
CONTINUOUS
 62
               7
100
AcDbLine
 10
-35.881495409895116
 20
7.4000000000000909
 30
0.0
 11
-36.899999988148032
 21
7.4000000000000341
 31
0.0
  0
LINE
  5
3B4
100
AcDbEntity
  8
0
  6
CONTINUOUS
 62
               7
100
AcDbLine
 10
-35.361880168009968
 20
8.3000000000000114
 30
0.0
 11
-36.89999998814806
 21
8.3000000000000114
 31
0.0
  0
LINE
  5
3B5
100
AcDbEntity
  8
0
  6
CONTINUOUS
 62
               7
100
AcDbLine
 10
-32.899999988148032
 20
8.3000000000000114
 30
0.0
 11
-34.37999998814805
 21
8.3000000000000114
 31
0.0
  0
LINE
  5
3B6
100
AcDbEntity
  8
0
  6
CONTINUOUS
 62
               7
100
AcDbLine
 10
-32.899999988148075
 20
7.4000000000000341
 30
0.0
 11
-34.899999988148046
 21
7.4000000000000909
 31
0.0
  0
LINE
  5
3B7
100
AcDbEntity
  8
0
  6
CONTINUOUS
 62
               7
100
AcDbLine
 10
-36.899999988148075
 20
9.2000000000000455
 30
0.0
 11
-36.899999988148032
 21
7.4000000000000341
 31
0.0
  0
LINE
  5
3B8
100
AcDbEntity
  8
0
  6
CONTINUOUS
 62
               7
100
AcDbLine
 10
-38.899999988148046
 20
8.1000000000000227
 30
0.0
 11
-38.899999988148046
 21
7.5999999999999943
 31
0.0
  0
LINE
  5
3B9
100
AcDbEntity
  8
0
  6
CONTINUOUS
 62
               7
100
AcDbLine
 10
-38.899999988148046
 20
9.0
 30
0.0
 11
-38.899999988148046
 21
8.5
 31
0.0
  0
LINE
  5
3BA
100
AcDbEntity
  8
0
  6
CENTER
 62
               2
100
AcDbLine
 10
-32.00154372958999
 20
7.8500000000000227
 30
0.0
 11
-39.522492207121054
 21
7.8500000000000227
 31
0.0
  0
LINE
  5
3BB
100
AcDbEntity
  8
0
  6
CENTER
 62
               2
100
AcDbLine
 10
-32.00154372958999
 20
8.7499999999999716
 30
0.0
 11
-39.522492207121012
 21
8.75
 31
0.0
  0
LINE
  5
3BC
100
AcDbEntity
  8
0
  6
CONTINUOUS
 62
               7
100
AcDbLine
 10
-32.899999988148075
 20
9.6000000000000227
 30
0.0
 11
-32.899999988148075
 21
7.0
 31
0.0
  0
LINE
  5
3BD
100
AcDbEntity
  8
0
  6
CONTINUOUS
 62
               7
100
AcDbLine
 10
-22.899999988148075
 20
10.050000000000011
 30
0.0
 11
-21.899999988148075
 21
10.050000000000011
 31
0.0
  0
LINE
  5
3BE
100
AcDbEntity
  8
0
  6
CONTINUOUS
 62
               7
100
AcDbLine
 10
-22.899999988148075
 20
6.5500000000000114
 30
0.0
 11
-21.899999988148075
 21
6.5500000000000114
 31
0.0
  0
LINE
  5
3BF
100
AcDbEntity
  8
0
  6
CONTINUOUS
 62
               7
100
AcDbLine
 10
-25.39999998814806
 20
10.049999999999955
 30
0.0
 11
-24.399999988148046
 21
10.049999999999983
 31
0.0
  0
LINE
  5
3C0
100
AcDbEntity
  8
0
  6
CONTINUOUS
 62
               7
100
AcDbLine
 10
-25.39999998814806
 20
6.5500000000000114
 30
0.0
 11
-24.399999988148046
 21
6.5500000000000114
 31
0.0
  0
LINE
  5
3C1
100
AcDbEntity
  8
0
  6
CONTINUOUS
 62
               7
100
AcDbLine
 10
-21.89999998814806
 20
11.085714285714289
 30
0.0
 11
-20.39999998814806
 21
11.299999999999983
 31
0.0
  0
LINE
  5
3C2
100
AcDbEntity
  8
0
  6
CONTINUOUS
 62
               7
100
AcDbLine
 10
-24.399999988148046
 20
10.728571428571456
 30
0.0
 11
-22.899999988148075
 21
10.942857142857179
 31
0.0
  0
LINE
  5
3C3
100
AcDbEntity
  8
0
  6
CONTINUOUS
 62
               7
100
AcDbLine
 10
-21.899999988148032
 20
5.5142857142857338
 30
0.0
 11
-20.39999998814806
 21
5.3000000000000114
 31
0.0
  0
LINE
  5
3C4
100
AcDbEntity
  8
0
  6
CONTINUOUS
 62
               7
100
AcDbLine
 10
-24.399999988148046
 20
5.8714285714285666
 30
0.0
 11
-22.899999988148032
 21
5.6571428571428442
 31
0.0
  0
LINE
  5
3C5
100
AcDbEntity
  8
0
  6
CONTINUOUS
 62
               7
100
AcDbLine
 10
-21.89999998814806
 20
11.085714285714289
 30
0.0
 11
-21.899999988148032
 21
5.5142857142857338
 31
0.0
  0
LINE
  5
3C6
100
AcDbEntity
  8
0
  6
CONTINUOUS
 62
               7
100
AcDbLine
 10
-22.899999988148075
 20
10.942857142857179
 30
0.0
 11
-22.899999988148032
 21
5.6571428571428442
 31
0.0
  0
LINE
  5
3C7
100
AcDbEntity
  8
0
  6
CONTINUOUS
 62
               7
100
AcDbLine
 10
-24.399999988148046
 20
10.728571428571456
 30
0.0
 11
-24.399999988148046
 21
5.8714285714285666
 31
0.0
  0
LINE
  5
3C8
100
AcDbEntity
  8
0
  6
CONTINUOUS
 62
               7
100
AcDbLine
 10
-25.399999988148046
 20
10.585714285714261
 30
0.0
 11
-25.39999998814806
 21
6.0142857142857338
 31
0.0
  0
LINE
  5
3C9
100
AcDbEntity
  8
0
  6
CONTINUOUS
 62
               7
100
AcDbLine
 10
-27.399999988148075
 20
10.300000000000011
 30
0.0
 11
-25.399999988148046
 21
10.585714285714261
 31
0.0
  0
LINE
  5
3CA
100
AcDbEntity
  8
0
  6
CONTINUOUS
 62
               7
100
AcDbLine
 10
-27.399999988148075
 20
6.2999999999999829
 30
0.0
 11
-25.39999998814806
 21
6.0142857142857338
 31
0.0
  0
LINE
  5
3CB
100
AcDbEntity
  8
0
  6
CONTINUOUS
 62
               7
100
AcDbLine
 10
-27.399999988148075
 20
10.300000000000011
 30
0.0
 11
-27.399999988148075
 21
6.2999999999999829
 31
0.0
  0
LINE
  5
3CC
100
AcDbEntity
  8
0
  6
CONTINUOUS
 62
               7
100
AcDbLine
 10
-20.39999998814806
 20
11.299999999999983
 30
0.0
 11
-19.999999988148069
 21
11.300000000000011
 31
0.0
  0
LINE
  5
3CD
100
AcDbEntity
  8
0
  6
CONTINUOUS
 62
               7
100
AcDbLine
 10
-20.39999998814806
 20
5.3000000000000114
 30
0.0
 11
-19.999999988148041
 21
5.3000000000000114
 31
0.0
  0
LINE
  5
3CE
100
AcDbEntity
  8
0
  6
CONTINUOUS
 62
               7
100
AcDbLine
 10
-20.39999998814806
 20
11.299999999999983
 30
0.0
 11
-20.39999998814806
 21
5.3000000000000114
 31
0.0
  0
LINE
  5
3CF
100
AcDbEntity
  8
0
  6
CENTER
 62
               2
100
AcDbLine
 10
-32.899999988148032
 20
8.3000000000000114
 30
0.0
 11
-18.799999988148024
 21
8.3000000000000114
 31
0.0
  0
LINE
  5
3D0
100
AcDbEntity
  8
0
  6
CONTINUOUS
 62
               7
100
AcDbLine
 10
-13.699999988148029
 20
6.9999999999999716
 30
0.0
 11
-13.699999988148072
 21
8.1999999999999886
 31
0.0
  0
LINE
  5
3D1
100
AcDbEntity
  8
0
  6
CONTINUOUS
 62
               7
100
AcDbLine
 10
-14.599999988148063
 20
6.9999999999999716
 30
0.0
 11
-14.599999988148063
 21
8.1999999999999318
 31
0.0
  0
LINE
  5
3D2
100
AcDbEntity
  8
0
  6
CONTINUOUS
 62
               7
100
AcDbLine
 10
-13.699999988148072
 20
7.0999999999999091
 30
0.0
 11
-14.549999988148066
 21
7.0999999999999659
 31
0.0
  0
LINE
  5
3D3
100
AcDbEntity
  8
0
  6
CONTINUOUS
 62
               7
100
AcDbLine
 10
-13.699999988148072
 20
8.0999999999999091
 30
0.0
 11
-14.549999988148066
 21
8.0999999999999659
 31
0.0
  0
LINE
  5
3D4
100
AcDbEntity
  8
0
  6
CONTINUOUS
 62
               7
100
AcDbLine
 10
-14.549999988148066
 20
7.0999999999999659
 30
0.0
 11
-14.549999988148066
 21
8.0999999999999659
 31
0.0
  0
LINE
  5
3D5
100
AcDbEntity
  8
0
  6
CONTINUOUS
 62
               7
100
AcDbLine
 10
-13.849999988148049
 20
7.0999999999999091
 30
0.0
 11
-13.849999988148049
 21
8.0999999999999091
 31
0.0
  0
LINE
  5
3D6
100
AcDbEntity
  8
0
  6
CONTINUOUS
 62
               7
100
AcDbLine
 10
-13.849999988148049
 20
-4.1000000000000654
 30
0.0
 11
-13.849999988148049
 21
-3.1000000000000512
 31
0.0
  0
LINE
  5
3D7
100
AcDbEntity
  8
0
  6
CONTINUOUS
 62
               7
100
AcDbLine
 10
-14.549999988148024
 20
-4.1000000000000654
 30
0.0
 11
-14.549999988148024
 21
-3.1000000000000654
 31
0.0
  0
LINE
  5
3D8
100
AcDbEntity
  8
0
  6
CONTINUOUS
 62
               7
100
AcDbLine
 10
-13.699999988148072
 20
-3.1000000000000512
 30
0.0
 11
-14.549999988148024
 21
-3.1000000000000654
 31
0.0
  0
LINE
  5
3D9
100
AcDbEntity
  8
0
  6
CONTINUOUS
 62
               7
100
AcDbLine
 10
-13.699999988148072
 20
-4.1000000000000654
 30
0.0
 11
-14.549999988148024
 21
-4.1000000000000654
 31
0.0
  0
LINE
  5
3DA
100
AcDbEntity
  8
0
  6
CONTINUOUS
 62
               7
100
AcDbLine
 10
-14.599999988148063
 20
-4.2000000000000881
 30
0.0
 11
-14.599999988148063
 21
-3.0000000000000284
 31
0.0
  0
LINE
  5
3DB
100
AcDbEntity
  8
0
  6
CONTINUOUS
 62
               7
100
AcDbLine
 10
-13.699999988148086
 20
-4.2000000000000455
 30
0.0
 11
-13.699999988148029
 21
-3.0000000000000284
 31
0.0
  0
LINE
  5
3DC
100
AcDbEntity
  8
0
  6
CENTER
 62
               2
100
AcDbLine
 10
-18.195856974999124
 20
-6.5000000000000142
 30
0.0
 11
-20.435449279208406
 21
-6.5000000000000568
 31
0.0
  0
LINE
  5
3DD
100
AcDbEntity
  8
0
  6
CONTINUOUS
 62
               7
100
AcDbLine
 10
-18.799999988148052
 20
-8.0000000000000284
 30
0.0
 11
-18.799999988148052
 21
-4.9000000000000625
 31
0.0
  0
LINE
  5
3DE
100
AcDbEntity
  8
0
  6
CONTINUOUS
 62
               7
100
AcDbLine
 10
-18.799999988148052
 20
-4.9000000000000625
 30
0.0
 11
-19.999999988148041
 21
-4.9000000000000625
 31
0.0
  0
LINE
  5
3DF
100
AcDbEntity
  8
0
  6
CONTINUOUS
 62
               7
100
AcDbLine
 10
-19.999999988148041
 20
-7.408348849004156
 30
0.0
 11
-19.999999988148041
 21
11.408348849004199
 31
0.0
  0
LINE
  5
3E0
100
AcDbEntity
  8
0
  6
CONTINUOUS
 62
               7
100
AcDbLine
 10
-12.699999988148072
 20
-8.0000000000000284
 30
0.0
 11
-12.699999988148072
 21
11.999999999999972
 31
0.0
  0
LINE
  5
3E1
100
AcDbEntity
  8
0
  6
CONTINUOUS
 62
               7
100
AcDbLine
 10
-19.399999988148075
 20
-7.5000000000000142
 30
0.0
 11
-19.39999998814806
 21
-5.5000000000000284
 31
0.0
  0
LINE
  5
3E2
100
AcDbEntity
  8
0
  6
CONTINUOUS
 62
               7
100
AcDbLine
 10
-18.799999988148066
 20
-5.0000000000000142
 30
0.0
 11
-18.899999988148075
 21
-5.0000000000000284
 31
0.0
  0
ARC
  5
3E3
100
AcDbEntity
  8
0
  6
CONTINUOUS
 62
               7
100
AcDbCircle
 10
-18.899999988148075
 20
-5.5000000000000142
 30
0.0
 40
0.5
100
AcDbArc
 50
89.999999999999815
 51
179.99999999999963
  0
ARC
  5
3E4
100
AcDbEntity
  8
0
  6
CONTINUOUS
 62
               7
100
AcDbCircle
 10
-18.899999988148075
 20
-7.5000000000000284
 30
0.0
 40
0.5
100
AcDbArc
 50
179.99999999999963
 51
269.99999999999937
  0
LINE
  5
3E5
100
AcDbEntity
  8
0
  6
CONTINUOUS
 62
               7
100
AcDbLine
 10
-18.799999988148066
 20
-8.0000000000000284
 30
0.0
 11
-18.899999988148075
 21
-8.0000000000000142
 31
0.0
  0
LINE
  5
3E6
100
AcDbEntity
  8
0
  6
CONTINUOUS
 62
               7
100
AcDbLine
 10
-19.182320272248525
 20
-7.9126684591599599
 30
0.0
 11
-19.504363255897267
 21
-7.9083298105363014
 31
0.0
  0
LINE
  5
3E7
100
AcDbEntity
  8
0
  6
CENTER
 62
               2
100
AcDbLine
 10
12.086209641638497
 20
12.086209641638504
 30
0.0
 11
-0.0000000000000071
 21
-0.0000000000000142
 31
0.0
  0
LINE
  5
3E8
100
AcDbEntity
  8
0
  6
CENTER
 62
               2
100
AcDbLine
 10
-0.0000000000000071
 20
17.0
 30
0.0
 11
-0.0000000000000071
 21
-17.000000000000014
 31
0.0
  0
LINE
  5
3E9
100
AcDbEntity
  8
0
  6
CENTER
 62
               2
100
AcDbLine
 10
-0.0000000000000071
 20
0.0
 30
0.0
 11
12.020815280171298
 21
-12.020815280171306
 31
0.0
  0
ARC
  5
3EA
100
AcDbEntity
  8
0
  6
CONTINUOUS
 62
               7
100
AcDbCircle
 10
-0.0000000000000071
 20
-0.0000000000000142
 30
0.0
 40
15.0
100
AcDbArc
 50
212.23165347074774
 51
126.86989764584351
  0
ARC
  5
3EB
100
AcDbEntity
  8
0
  6
CONTINUOUS
 62
               7
100
AcDbCircle
 10
-0.0000000000000071
 20
-0.0000000000000142
 30
0.0
 40
13.999999999999996
100
AcDbArc
 50
229.99479911513939
 51
130.00520088485979
  0
CIRCLE
  5
3EC
100
AcDbEntity
  8
0
  6
CONTINUOUS
 62
               7
100
AcDbCircle
 10
-0.0000000000000071
 20
-0.0000000000000142
 30
0.0
 40
2.1000000000000001
  0
CIRCLE
  5
3ED
100
AcDbEntity
  8
0
  6
CONTINUOUS
 62
               2
100
AcDbCircle
 10
-0.0000000000000071
 20
-0.0000000000000142
 30
0.0
 40
2.5
  0
LINE
  5
3EE
100
AcDbEntity
  8
0
  6
DASHED
 62
               2
100
AcDbLine
 10
9.6166522241370487
 20
10.323759005323581
 30
0.0
 11
8.5559920523572188
 21
9.2630988335437792
 31
0.0
  0
LINE
  5
3EF
100
AcDbEntity
  8
0
  6
DASHED
 62
               2
100
AcDbLine
 10
6.752869760331528
 20
12.480434687942534
 30
0.0
 11
5.3386561979584357
 21
11.066221125569456
 31
0.0
  0
LINE
  5
3F0
100
AcDbEntity
  8
0
  6
DASHED
 62
               2
100
AcDbLine
 10
8.181225458328349
 20
11.052078989945727
 30
0.0
 11
6.7670118959552568
 21
9.637865427572649
 31
0.0
  0
LINE
  5
3F1
100
AcDbEntity
  8
0
  6
DASHED
 62
               2
100
AcDbLine
 10
7.459976541518067
 20
12.480434687942534
 30
0.0
 11
9.6166522241370487
 21
10.323759005323581
 31
0.0
  0
ARC
  5
3F2
100
AcDbEntity
  8
0
  6
DASHED
 62
               2
100
AcDbCircle
 10
1.588027190242677
 20
8.6191156083133933
 30
0.0
 40
7.0277716396203269
100
AcDbArc
 50
20.2546208573625
 51
33.328410201475762
  0
ARC
  5
3F3
100
AcDbEntity
  8
0
  6
DASHED
 62
               2
100
AcDbCircle
 10
6.9050016264477208
 20
6.8774184484742307
 30
0.0
 40
4.3653794686807261
100
AcDbArc
 50
51.834711780667043
 51
73.001229803738639
  0
LINE
  5
3F4
100
AcDbEntity
  8
0
  6
DASHED
 62
               2
100
AcDbLine
 10
6.752869760331528
 20
12.480434687942534
 30
0.0
 11
7.459976541518067
 21
12.480434687942534
 31
0.0
  0
LINE
  5
3F5
100
AcDbEntity
  8
0
  6
DASHED
 62
               2
100
AcDbLine
 10
11.052078989945734
 20
8.1812254583283561
 30
0.0
 11
9.6378654275726419
 21
6.7670118959552497
 31
0.0
  0
LINE
  5
3F6
100
AcDbEntity
  8
0
  6
DASHED
 62
               2
100
AcDbLine
 10
12.480434687942555
 20
6.7528697603315209
 30
0.0
 11
11.066221125569463
 21
5.3386561979584144
 31
0.0
  0
LINE
  5
3F7
100
AcDbEntity
  8
0
  6
DASHED
 62
               2
100
AcDbLine
 10
10.323759005323602
 20
9.6166522241370558
 30
0.0
 11
9.2630988335437721
 21
8.5559920523572259
 31
0.0
  0
ARC
  5
3F8
100
AcDbEntity
  8
0
  6
DASHED
 62
               2
100
AcDbCircle
 10
6.8787258008815044
 20
6.9056845717350939
 30
0.0
 40
4.363929581700825
100
AcDbArc
 50
16.995213414137279
 51
38.168845001456681
  0
LINE
  5
3F9
100
AcDbEntity
  8
0
  6
DASHED
 62
               2
100
AcDbLine
 10
10.323759005323602
 20
9.6166522241370558
 30
0.0
 11
12.480434687942555
 21
7.4599765415180741
 31
0.0
  0
ARC
  5
3FA
100
AcDbEntity
  8
0
  6
DASHED
 62
               2
100
AcDbCircle
 10
8.6184109863969169
 20
1.5866317625257267
 30
0.0
 40
7.0293247160888015
100
AcDbArc
 50
56.673040373502339
 51
69.743928567659154
  0
LINE
  5
3FB
100
AcDbEntity
  8
0
  6
DASHED
 62
               2
100
AcDbLine
 10
12.480434687942555
 20
7.4599765415180741
 30
0.0
 11
12.480434687942555
 21
6.7528697603315209
 31
0.0
  0
LINE
  5
3FC
100
AcDbEntity
  8
0
  6
DASHED
 62
               2
100
AcDbLine
 10
8.5559920523572188
 20
9.2630988335437792
 30
0.0
 11
9.2630988335437721
 21
8.5559920523572259
 31
0.0
  0
LINE
  5
3FD
100
AcDbEntity
  8
0
  6
DASHED
 62
               2
100
AcDbLine
 10
5.3386561979584357
 20
11.066221125569456
 30
0.0
 11
11.066221125569463
 21
5.3386561979584144
 31
0.0
  0
LINE
  5
3FE
100
AcDbEntity
  8
0
  6
DASHED
 62
               2
100
AcDbLine
 10
4.9497474683058371
 20
10.606601717798185
 30
0.0
 11
5.3740115370177577
 21
11.030865786510134
 31
0.0
  0
LINE
  5
3FF
100
AcDbEntity
  8
0
  6
DASHED
 62
               2
100
AcDbLine
 10
10.606601717798206
 20
4.9497474683058158
 30
0.0
 11
11.030865786510141
 21
5.3740115370177364
 31
0.0
  0
CIRCLE
  5
400
100
AcDbEntity
  8
0
  6
CENTER
 62
               2
100
AcDbCircle
 10
-0.0000000000000071
 20
-0.0000000000000142
 30
0.0
 40
11.0
  0
CIRCLE
  5
401
100
AcDbEntity
  8
0
  6
CONTINUOUS
 62
               2
100
AcDbCircle
 10
-0.0000000000000071
 20
11.0
 30
0.0
 40
2.0
  0
CIRCLE
  5
402
100
AcDbEntity
  8
0
  6
CONTINUOUS
 62
               2
100
AcDbCircle
 10
-0.0000000000000071
 20
-11.0
 30
0.0
 40
2.0
  0
CIRCLE
  5
403
100
AcDbEntity
  8
0
  6
CONTINUOUS
 62
               2
100
AcDbCircle
 10
10.999999999999993
 20
-0.0000000000000142
 30
0.0
 40
2.0
  0
CIRCLE
  5
404
100
AcDbEntity
  8
0
  6
CONTINUOUS
 62
               7
100
AcDbCircle
 10
-0.0000000000000071
 20
11.0
 30
0.0
 40
1.6499999999999999
  0
CIRCLE
  5
405
100
AcDbEntity
  8
0
  6
CONTINUOUS
 62
               7
100
AcDbCircle
 10
-0.0000000000000071
 20
-11.0
 30
0.0
 40
1.6499999999999999
  0
CIRCLE
  5
406
100
AcDbEntity
  8
0
  6
CONTINUOUS
 62
               7
100
AcDbCircle
 10
10.999999999999993
 20
-0.0000000000000142
 30
0.0
 40
1.6499999999999999
  0
LINE
  5
407
100
AcDbEntity
  8
0
  6
DASHED
 62
               2
100
AcDbLine
 10
4.4194173824159222
 20
11.136931803688128
 30
0.0
 11
11.136931803688121
 21
4.4194173824159293
 31
0.0
  0
LINE
  5
408
100
AcDbEntity
  8
0
  6
DASHED
 62
               2
100
AcDbLine
 10
6.2932503525602712
 20
9.2630988335437792
 30
0.0
 11
3.6092813728416999
 21
6.5791298538251795
 31
0.0
  0
LINE
  5
409
100
AcDbEntity
  8
0
  6
DASHED
 62
               2
100
AcDbLine
 10
9.2630988335437721
 20
6.2932503525602783
 30
0.0
 11
6.8978536841752813
 21
3.9280052031917876
 31
0.0
  0
LINE
  5
40A
100
AcDbEntity
  8
0
  6
DASHED
 62
               2
100
AcDbLine
 10
9.5459415460183763
 20
6.0104076400856457
 30
0.0
 11
7.3599785512218361
 21
3.824444645289077
 31
0.0
  0
LINE
  5
40B
100
AcDbEntity
  8
0
  6
DASHED
 62
               2
100
AcDbLine
 10
6.0104076400856528
 20
9.5459415460183834
 30
0.0
 11
3.6451624907171762
 21
7.1806963966499211
 31
0.0
  0
LINE
  5
40C
100
AcDbEntity
  8
0
  6
CONTINUOUS
 62
               7
100
AcDbLine
 10
-8.9999999999999787
 20
-12.000000000000028
 30
0.0
 11
-8.9999999999999787
 21
11.96771058927763
 31
0.0
  0
LINE
  5
40D
100
AcDbEntity
  8
0
  6
DASHED
 62
               2
100
AcDbLine
 10
10.323759005323588
 20
-9.61665222413707
 30
0.0
 11
9.2630988335437721
 21
-8.5559920523572686
 31
0.0
  0
LINE
  5
40E
100
AcDbEntity
  8
0
  6
DASHED
 62
               2
100
AcDbLine
 10
12.480434687942555
 20
-6.7528697603315635
 30
0.0
 11
11.066221125569463
 21
-5.3386561979584712
 31
0.0
  0
LINE
  5
40F
100
AcDbEntity
  8
0
  6
DASHED
 62
               2
100
AcDbLine
 10
12.480434687942555
 20
-7.4599765415181167
 30
0.0
 11
10.323759005323588
 21
-9.61665222413707
 31
0.0
  0
ARC
  5
410
100
AcDbEntity
  8
0
  6
DASHED
 62
               2
100
AcDbCircle
 10
6.8774184484742378
 20
-6.9050016264477421
 30
0.0
 40
4.3653794686807261
100
AcDbArc
 50
321.83471178066645
 51
343.001229803738
  0
LINE
  5
411
100
AcDbEntity
  8
0
  6
DASHED
 62
               2
100
AcDbLine
 10
9.2630988335437721
 20
-8.5559920523572686
 30
0.0
 11
8.5559920523572188
 21
-9.2630988335437934
 31
0.0
  0
LINE
  5
412
100
AcDbEntity
  8
0
  6
DASHED
 62
               2
100
AcDbLine
 10
11.066221125569463
 20
-5.3386561979584712
 30
0.0
 11
5.3386561979584357
 21
-11.066221125569498
 31
0.0
  0
LINE
  5
413
100
AcDbEntity
  8
0
  6
DASHED
 62
               2
100
AcDbLine
 10
11.136931803688121
 20
-4.4194173824159435
 30
0.0
 11
4.4194173824159222
 21
-11.136931803688157
 31
0.0
  0
LINE
  5
414
100
AcDbEntity
  8
0
  6
DASHED
 62
               2
100
AcDbLine
 10
9.2630988335437721
 20
-6.2932503525603067
 30
0.0
 11
6.5791298538252008
 21
-3.6092813728417497
 31
0.0
  0
LINE
  5
415
100
AcDbEntity
  8
0
  6
DASHED
 62
               2
100
AcDbLine
 10
6.2932503525602712
 20
-9.2630988335438076
 30
0.0
 11
3.9280052031917805
 21
-6.8978536841753311
 31
0.0
  0
LINE
  5
416
100
AcDbEntity
  8
0
  6
DASHED
 62
               2
100
AcDbLine
 10
6.0104076400856528
 20
-9.545941546018426
 30
0.0
 11
3.8244446452890983
 21
-7.3599785512218574
 31
0.0
  0
LINE
  5
417
100
AcDbEntity
  8
0
  6
DASHED
 62
               2
100
AcDbLine
 10
9.5459415460183905
 20
-6.0104076400856883
 30
0.0
 11
7.180696396649914
 21
-3.6451624907171976
 31
0.0
  0
LINE
  5
418
100
AcDbEntity
  8
0
  6
DASHED
 62
               2
100
AcDbLine
 10
12.480434687942555
 20
-6.7528697603315635
 30
0.0
 11
12.480434687942555
 21
-7.4599765415181167
 31
0.0
  0
ARC
  5
419
100
AcDbEntity
  8
0
  6
DASHED
 62
               2
100
AcDbCircle
 10
8.6191156083133862
 20
-1.5880271902427268
 30
0.0
 40
7.0277716396203269
100
AcDbArc
 50
290.25462085736189
 51
303.32841020147521
  0
LINE
  5
41A
100
AcDbEntity
  8
0
  6
DASHED
 62
               2
100
AcDbLine
 10
11.052078989945734
 20
-8.1812254583283845
 30
0.0
 11
9.6378654275726419
 21
-6.7670118959552923
 31
0.0
  0
LINE
  5
41B
100
AcDbEntity
  8
0
  6
DASHED
 62
               2
100
AcDbLine
 10
8.181225458328349
 20
-11.05207898994577
 30
0.0
 11
6.7670118959552568
 21
-9.6378654275726774
 31
0.0
  0
LINE
  5
41C
100
AcDbEntity
  8
0
  6
DASHED
 62
               2
100
AcDbLine
 10
9.6166522241370487
 20
-10.323759005323623
 30
0.0
 11
8.5559920523572188
 21
-9.2630988335437934
 31
0.0
  0
LINE
  5
41D
100
AcDbEntity
  8
0
  6
DASHED
 62
               2
100
AcDbLine
 10
4.9497474683058371
 20
-10.606601717798256
 30
0.0
 11
5.3740115370177577
 21
-11.030865786510176
 31
0.0
  0
LINE
  5
41E
100
AcDbEntity
  8
0
  6
DASHED
 62
               2
100
AcDbLine
 10
7.459976541518067
 20
-12.480434687942605
 30
0.0
 11
6.752869760331528
 21
-12.480434687942605
 31
0.0
  0
ARC
  5
41F
100
AcDbEntity
  8
0
  6
DASHED
 62
               2
100
AcDbCircle
 10
1.5866317625257338
 20
-8.6184109863969383
 30
0.0
 40
7.0293247160888015
100
AcDbArc
 50
326.67304037350175
 51
339.74392856765854
  0
LINE
  5
420
100
AcDbEntity
  8
0
  6
DASHED
 62
               2
100
AcDbLine
 10
9.6166522241370487
 20
-10.323759005323623
 30
0.0
 11
7.459976541518067
 21
-12.480434687942605
 31
0.0
  0
ARC
  5
421
100
AcDbEntity
  8
0
  6
DASHED
 62
               2
100
AcDbCircle
 10
6.9056845717351152
 20
-6.8787258008815542
 30
0.0
 40
4.363929581700825
100
AcDbArc
 50
286.99521341413669
 51
308.16884500145608
  0
LINE
  5
422
100
AcDbEntity
  8
0
  6
DASHED
 62
               2
100
AcDbLine
 10
6.752869760331528
 20
-12.480434687942605
 30
0.0
 11
5.3386561979584357
 21
-11.066221125569498
 31
0.0
  0
LINE
  5
423
100
AcDbEntity
  8
0
  6
CONTINUOUS
 62
               7
100
AcDbLine
 10
-12.699999988148072
 20
-8.0000000000000284
 30
0.0
 11
-8.9999999999999787
 21
-7.9677105892776865
 31
0.0
  0
LINE
  5
424
100
AcDbEntity
  8
0
  6
CONTINUOUS
 62
               7
100
AcDbLine
 10
-12.699999988148072
 20
11.999999999999972
 30
0.0
 11
-8.9999999999999787
 21
11.96771058927763
 31
0.0
  0
LINE
  5
425
100
AcDbEntity
  8
0
  6
CENTER
 62
               2
100
AcDbLine
 10
-23.230084930827196
 20
-0.0000000000000142
 30
0.0
 11
17.193376937818151
 21
-0.0000000000000142
 31
0.0
  0
ENDBLK
  5
426
100
AcDbEntity
  8
0
100
AcDbBlockEnd
  0
BLOCK
  5
427
100
AcDbEntity
  8
0
100
AcDbBlockBegin
  2
NCT30-10
 70
               0
 10
0.0
 20
0.0
 30
0.0
  3
NCT30-10
  1

  0
LINE
  5
428
100
AcDbEntity
  8
0
  6
CONTINUOUS
 62
               7
100
AcDbLine
 10
-20.399999988148139
 20
-1.1322894090488944
 30
0.0
 11
-20.399999988148139
 21
-7.1322894090488944
 31
0.0
  0
LINE
  5
429
100
AcDbEntity
  8
0
  6
CONTINUOUS
 62
               7
100
AcDbLine
 10
-20.399999988148139
 20
-7.1322894090488944
 30
0.0
 11
-19.999999988148105
 21
-7.1322894090488944
 31
0.0
  0
LINE
  5
42A
100
AcDbEntity
  8
0
  6
CONTINUOUS
 62
               7
100
AcDbLine
 10
-20.399999988148139
 20
-1.1322894090488944
 30
0.0
 11
-19.999999988148105
 21
-1.1322894090488944
 31
0.0
  0
LINE
  5
42B
100
AcDbEntity
  8
0
  6
CONTINUOUS
 62
               7
100
AcDbLine
 10
-35.361880168009989
 20
-4.1322894090488944
 30
0.0
 11
-36.899999988148082
 21
-4.1322894090488944
 31
0.0
  0
LINE
  5
42C
100
AcDbEntity
  8
0
  6
CONTINUOUS
 62
               7
100
AcDbLine
 10
-32.899999988148082
 20
-4.1322894090488944
 30
0.0
 11
-34.3799999881481
 21
-4.1322894090488944
 31
0.0
  0
LINE
  5
42D
100
AcDbEntity
  8
0
  6
CONTINUOUS
 62
               7
100
AcDbLine
 10
-46.618721475951205
 20
-7.5322894090488717
 30
0.0
 11
-47.629633835914333
 21
-7.5322894090488717
 31
0.0
  0
LINE
  5
42E
100
AcDbEntity
  8
0
  6
CONTINUOUS
 62
               7
100
AcDbLine
 10
-46.590784868351946
 20
-6.7322894090489172
 30
0.0
 11
-47.629633835914333
 21
-6.7322894090489172
 31
0.0
  0
LINE
  5
42F
100
AcDbEntity
  8
0
  6
CONTINUOUS
 62
               7
100
AcDbLine
 10
-50.429633846632967
 20
-6.7322894090489172
 30
0.0
 11
-51.179633835914345
 21
-6.7322894090489172
 31
0.0
  0
LINE
  5
430
100
AcDbEntity
  8
0
  6
CONTINUOUS
 62
               7
100
AcDbLine
 10
-50.429633846632967
 20
-7.5322894090488717
 30
0.0
 11
-51.158409009878724
 21
-7.5322894090488717
 31
0.0
  0
LINE
  5
431
100
AcDbEntity
  8
0
  6
CONTINUOUS
 62
               7
100
AcDbLine
 10
-46.618721475951205
 20
-4.5322894090488717
 30
0.0
 11
-47.629633835914333
 21
-4.5322894090488717
 31
0.0
  0
LINE
  5
432
100
AcDbEntity
  8
0
  6
CONTINUOUS
 62
               7
100
AcDbLine
 10
-46.590784868351946
 20
-3.7322894090489172
 30
0.0
 11
-47.629633835914333
 21
-3.7322894090489172
 31
0.0
  0
LINE
  5
433
100
AcDbEntity
  8
0
  6
CONTINUOUS
 62
               7
100
AcDbLine
 10
-50.429633846632967
 20
-3.7322894090489172
 30
0.0
 11
-51.179633835914345
 21
-3.7322894090489172
 31
0.0
  0
LINE
  5
434
100
AcDbEntity
  8
0
  6
CONTINUOUS
 62
               7
100
AcDbLine
 10
-50.429633846632967
 20
-4.5322894090488717
 30
0.0
 11
-51.158409009878724
 21
-4.5322894090488717
 31
0.0
  0
LINE
  5
435
100
AcDbEntity
  8
0
  6
CONTINUOUS
 62
               7
100
AcDbLine
 10
-50.429633846632967
 20
-1.5322894090488717
 30
0.0
 11
-51.158409009878724
 21
-1.5322894090488717
 31
0.0
  0
LINE
  5
436
100
AcDbEntity
  8
0
  6
CONTINUOUS
 62
               7
100
AcDbLine
 10
-50.429633846632967
 20
-0.7322894090489172
 30
0.0
 11
-51.179633835914345
 21
-0.7322894090489172
 31
0.0
  0
LINE
  5
437
100
AcDbEntity
  8
0
  6
CONTINUOUS
 62
               7
100
AcDbLine
 10
-46.618721475951205
 20
-1.5322894090488717
 30
0.0
 11
-47.629633835914333
 21
-1.5322894090488717
 31
0.0
  0
LINE
  5
438
100
AcDbEntity
  8
0
  6
CONTINUOUS
 62
               7
100
AcDbLine
 10
-46.590784868351946
 20
-0.7322894090489172
 30
0.0
 11
-47.629633835914333
 21
-0.7322894090489172
 31
0.0
  0
LINE
  5
439
100
AcDbEntity
  8
0
  6
CONTINUOUS
 62
               7
100
AcDbLine
 10
-57.629633835914333
 20
-1.6572893989906561
 30
0.0
 11
-57.429633835914345
 21
-1.6572893989906561
 31
0.0
  0
LINE
  5
43A
100
AcDbEntity
  8
0
  6
CONTINUOUS
 62
               7
100
AcDbLine
 10
-57.629633835914333
 20
-1.9572894120291267
 30
0.0
 11
-57.629633835914333
 21
-1.6572893989906561
 31
0.0
  0
LINE
  5
43B
100
AcDbEntity
  8
0
  6
CONTINUOUS
 62
               7
100
AcDbLine
 10
-53.773410791972438
 20
-0.3088096740338528
 30
0.0
 11
-55.983888596400973
 21
-0.625187933493919
 31
0.0
  0
LINE
  5
43C
100
AcDbEntity
  8
0
  6
CONTINUOUS
 62
               7
100
AcDbLine
 10
-53.776043973329266
 20
-0.4102056216659662
 30
0.0
 11
-55.797893173015908
 21
-0.6995861028479453
 31
0.0
  0
LINE
  5
43D
100
AcDbEntity
  8
0
  6
CONTINUOUS
 62
               7
100
AcDbLine
 10
-53.776044003131588
 20
-0.4102056169584785
 30
0.0
 11
-53.42963381803294
 21
-0.6102056199387107
 31
0.0
  0
LINE
  5
43E
100
AcDbEntity
  8
0
  6
CONTINUOUS
 62
               7
100
AcDbLine
 10
-53.773410791972438
 20
-0.3088096740338528
 30
0.0
 11
-53.429633835914345
 21
-0.5072893921552009
 31
0.0
  0
LINE
  5
43F
100
AcDbEntity
  8
0
  6
CONTINUOUS
 62
               7
100
AcDbLine
 10
-56.278634932659159
 20
-0.507289398990622
 30
0.0
 11
-55.528634932659159
 21
-0.8072893989906333
 31
0.0
  0
LINE
  5
440
100
AcDbEntity
  8
0
  6
CONTINUOUS
 62
               7
100
AcDbLine
 10
-56.297893173015908
 20
-0.6072893989905879
 30
0.0
 11
-55.797893173015908
 21
-0.8072893989906333
 31
0.0
  0
LINE
  5
441
100
AcDbEntity
  8
0
  6
CONTINUOUS
 62
               7
100
AcDbLine
 10
-56.929633847835262
 20
-0.6072893989905879
 30
0.0
 11
-56.297893173015908
 21
-0.6072893989905879
 31
0.0
  0
LINE
  5
442
100
AcDbEntity
  8
0
  6
CONTINUOUS
 62
               7
100
AcDbLine
 10
-56.929633847835262
 20
-0.507289398990622
 30
0.0
 11
-56.278634932659159
 21
-0.507289398990622
 31
0.0
  0
LINE
  5
443
100
AcDbEntity
  8
0
  6
CONTINUOUS
 62
               7
100
AcDbLine
 10
-55.797893173015908
 20
-1.8572893989905879
 30
0.0
 11
-54.149249144466935
 21
-1.8572893989905879
 31
0.0
  0
LINE
  5
444
100
AcDbEntity
  8
0
  6
CONTINUOUS
 62
               7
100
AcDbLine
 10
-54.149249158265789
 20
-1.8572894030884299
 30
0.0
 11
-53.976044021012981
 21
-1.757289379246572
 31
0.0
  0
LINE
  5
445
100
AcDbEntity
  8
0
  6
CONTINUOUS
 62
               7
100
AcDbLine
 10
-54.122454218032559
 20
-1.9572894120291267
 30
0.0
 11
-53.776044003131588
 21
-1.757289379246572
 31
0.0
  0
LINE
  5
446
100
AcDbEntity
  8
0
  6
CONTINUOUS
 62
               7
100
AcDbLine
 10
-53.776044003131588
 20
-1.7572894090488944
 30
0.0
 11
-53.429633859039271
 21
-1.9572893989906106
 31
0.0
  0
LINE
  5
447
100
AcDbEntity
  8
0
  6
CONTINUOUS
 62
               7
100
AcDbLine
 10
-53.429633835914345
 20
-1.9572893989906106
 30
0.0
 11
-47.629633835914333
 21
-1.9572893989906106
 31
0.0
  0
ARC
  5
448
100
AcDbEntity
  8
0
  6
CONTINUOUS
 62
               7
100
AcDbCircle
 10
-55.697893173015885
 20
-1.8572893989905879
 30
0.0
 40
0.1
100
AcDbArc
 50
89.999999999999815
 51
179.99999999999963
  0
ARC
  5
449
100
AcDbEntity
  8
0
  6
CONTINUOUS
 62
               7
100
AcDbCircle
 10
-53.529633835914368
 20
-1.8572893989905879
 30
0.0
 40
0.1
100
AcDbArc
 50
0.0
 51
89.999999999999815
  0
LINE
  5
44A
100
AcDbEntity
  8
0
  6
CONTINUOUS
 62
               7
100
AcDbLine
 10
-55.697893164518078
 20
-1.757289398990622
 30
0.0
 11
-53.529633841874798
 21
-1.757289398990622
 31
0.0
  0
LINE
  5
44B
100
AcDbEntity
  8
0
  6
CONTINUOUS
 62
               7
100
AcDbLine
 10
-53.429633835914345
 20
-1.9572894120291267
 30
0.0
 11
-53.429633835914345
 21
-1.8572893881872687
 31
0.0
  0
LINE
  5
44C
100
AcDbEntity
  8
0
  6
CONTINUOUS
 62
               7
100
AcDbLine
 10
-55.797893173015908
 20
-1.9572894120291267
 30
0.0
 11
-55.797893173015908
 21
-1.8572893881872687
 31
0.0
  0
ARC
  5
44D
100
AcDbEntity
  8
0
  6
CONTINUOUS
 62
               7
100
AcDbCircle
 10
-56.397893173015873
 20
-1.8572893989905879
 30
0.0
 40
0.1
100
AcDbArc
 50
0.0
 51
89.999999999999815
  0
LINE
  5
44E
100
AcDbEntity
  8
0
  6
CONTINUOUS
 62
               7
100
AcDbLine
 10
-56.297893173015908
 20
-1.9572894120291267
 30
0.0
 11
-56.297893173015908
 21
-1.8572893881872687
 31
0.0
  0
ARC
  5
44F
100
AcDbEntity
  8
0
  6
CONTINUOUS
 62
               7
100
AcDbCircle
 10
-56.829633835914379
 20
-1.8572893989905879
 30
0.0
 40
0.1
100
AcDbArc
 50
89.999999999999815
 51
179.99999999999963
  0
LINE
  5
450
100
AcDbEntity
  8
0
  6
CONTINUOUS
 62
               7
100
AcDbLine
 10
-56.829633823993404
 20
-1.757289398990622
 30
0.0
 11
-56.397893173015873
 21
-1.757289398990622
 31
0.0
  0
LINE
  5
451
100
AcDbEntity
  8
0
  6
CONTINUOUS
 62
               7
100
AcDbLine
 10
-56.929633847835262
 20
-1.8544940030624275
 30
0.0
 11
-56.729633835914356
 21
-1.8544940030624275
 31
0.0
  0
LINE
  5
452
100
AcDbEntity
  8
0
  6
CONTINUOUS
 62
               7
100
AcDbLine
 10
-56.297893173015908
 20
-1.9572893989906106
 30
0.0
 11
-54.122454203003898
 21
-1.9572893989906106
 31
0.0
  0
LINE
  5
453
100
AcDbEntity
  8
0
  6
CONTINUOUS
 62
               7
100
AcDbLine
 10
-54.629633835914333
 20
-2.4572893989906106
 30
0.0
 11
-54.60647178318375
 21
-2.3600087775221255
 31
0.0
  0
LINE
  5
454
100
AcDbEntity
  8
0
  6
CONTINUOUS
 62
               7
100
AcDbLine
 10
-56.729633835914356
 20
-1.8544940030624275
 30
0.0
 11
-54.60647178318375
 21
-2.3600087775221255
 31
0.0
  0
LINE
  5
455
100
AcDbEntity
  8
0
  6
CONTINUOUS
 62
               7
100
AcDbLine
 10
-56.729633835914356
 20
-1.9572893989906106
 30
0.0
 11
-54.629633835914333
 21
-2.4572893989906106
 31
0.0
  0
LINE
  5
456
100
AcDbEntity
  8
0
  6
CONTINUOUS
 62
               7
100
AcDbLine
 10
-56.929633835914345
 20
-1.9572894120291267
 30
0.0
 11
-56.929633835914345
 21
-1.8572893881872687
 31
0.0
  0
LINE
  5
457
100
AcDbEntity
  8
0
  6
CONTINUOUS
 62
               7
100
AcDbLine
 10
-53.429633835914345
 20
-0.3072893989906333
 30
0.0
 11
-51.429633847835262
 21
-0.3072893989906333
 31
0.0
  0
ARC
  5
458
100
AcDbEntity
  8
0
  6
CONTINUOUS
 62
               7
100
AcDbCircle
 10
-53.679633835914345
 20
-0.5572893989906333
 30
0.0
 40
0.25
100
AcDbArc
 50
270.00000000000023
 51
0.0
  0
ARC
  5
459
100
AcDbEntity
  8
0
  6
CONTINUOUS
 62
               7
100
AcDbCircle
 10
-56.679633835914345
 20
-0.5572893989906333
 30
0.0
 40
0.25
100
AcDbArc
 50
179.99999999999963
 51
269.99999999999937
  0
LINE
  5
45A
100
AcDbEntity
  8
0
  6
CONTINUOUS
 62
               7
100
AcDbLine
 10
-56.679633847835262
 20
-0.8072893989906333
 30
0.0
 11
-53.679633835914345
 21
-0.8072893989906333
 31
0.0
  0
LINE
  5
45B
100
AcDbEntity
  8
0
  6
CONTINUOUS
 62
               7
100
AcDbLine
 10
-56.929633835914345
 20
-0.5572894060686622
 30
0.0
 11
-56.929633835914345
 21
-0.3072893989906333
 31
0.0
  0
LINE
  5
45C
100
AcDbEntity
  8
0
  6
CONTINUOUS
 62
               7
100
AcDbLine
 10
-53.429633835914345
 20
-0.5572894060686622
 30
0.0
 11
-53.429633835914345
 21
-0.3072893989906333
 31
0.0
  0
ARC
  5
45D
100
AcDbEntity
  8
0
  6
CONTINUOUS
 62
               7
100
AcDbCircle
 10
-50.929633835914345
 20
-1.431483061145741
 30
0.0
 40
0.25
100
AcDbArc
 50
179.99999999999963
 51
284.99999339411909
  0
LINE
  5
45E
100
AcDbEntity
  8
0
  6
CONTINUOUS
 62
               7
100
AcDbLine
 10
-50.864929101827343
 20
-1.6729645276144538
 30
0.0
 11
-50.429633877637585
 21
-1.5563275212124381
 31
0.0
  0
ARC
  5
45F
100
AcDbEntity
  8
0
  6
CONTINUOUS
 62
               7
100
AcDbCircle
 10
-51.429633835914345
 20
-0.5572893989906333
 30
0.0
 40
0.25
100
AcDbArc
 50
0.0
 51
89.999999999999815
  0
LINE
  5
460
100
AcDbEntity
  8
0
  6
CONTINUOUS
 62
               7
100
AcDbLine
 10
-51.179633835914345
 20
-1.4314830744341407
 30
0.0
 11
-51.179633835914345
 21
-0.5572894060686622
 31
0.0
  0
LINE
  5
461
100
AcDbEntity
  8
0
  6
CONTINUOUS
 62
               7
100
AcDbLine
 10
-57.429633847835262
 20
-0.3072893989906333
 30
0.0
 11
-56.929633847835262
 21
-0.3072893989906333
 31
0.0
  0
ARC
  5
462
100
AcDbEntity
  8
0
  6
CONTINUOUS
 62
               7
100
AcDbCircle
 10
-50.179633835914345
 20
-0.6072893989905879
 30
0.0
 40
0.25
100
AcDbArc
 50
89.999999999999815
 51
179.99999999999963
  0
ARC
  5
463
100
AcDbEntity
  8
0
  6
CONTINUOUS
 62
               7
100
AcDbCircle
 10
-47.879633835914333
 20
-0.6072893989905879
 30
0.0
 40
0.25
100
AcDbArc
 50
0.0
 51
89.999999999999815
  0
LINE
  5
464
100
AcDbEntity
  8
0
  6
CONTINUOUS
 62
               7
100
AcDbLine
 10
-50.179633847835262
 20
-0.3572893989905879
 30
0.0
 11
-47.879633835914333
 21
-0.3572893989905879
 31
0.0
  0
LINE
  5
465
100
AcDbEntity
  8
0
  6
CONTINUOUS
 62
               7
100
AcDbLine
 10
-57.629633835914333
 20
-1.9572893989906106
 30
0.0
 11
-56.729633835914356
 21
-1.9572893989906106
 31
0.0
  0
LINE
  5
466
100
AcDbEntity
  8
0
  6
CONTINUOUS
 62
               7
100
AcDbLine
 10
-47.629633835914333
 20
-1.7572893941477332
 30
0.0
 11
-47.629633835914333
 21
-0.6072893989905879
 31
0.0
  0
LINE
  5
467
100
AcDbEntity
  8
0
  6
CONTINUOUS
 62
               7
100
AcDbLine
 10
-50.429633835914345
 20
-1.5563275063112769
 30
0.0
 11
-50.429633835914345
 21
-0.6072893881872687
 31
0.0
  0
LINE
  5
468
100
AcDbEntity
  8
0
  6
CONTINUOUS
 62
               7
100
AcDbLine
 10
-45.879633835914333
 20
-0.5457400226667915
 30
0.0
 11
-46.017303365048988
 21
-0.3072893989906333
 31
0.0
  0
LINE
  5
469
100
AcDbEntity
  8
0
  6
CONTINUOUS
 62
               7
100
AcDbLine
 10
-46.629633834983011
 20
-1.8447783136442695
 30
0.0
 11
-46.575943539655114
 21
-0.3072893989906333
 31
0.0
  0
LINE
  5
46A
100
AcDbEntity
  8
0
  6
CONTINUOUS
 62
               7
100
AcDbLine
 10
-45.122649683083196
 20
-2.0447780633047614
 30
0.0
 11
-45.183324124417723
 21
-0.3072893989906333
 31
0.0
  0
LINE
  5
46B
100
AcDbEntity
  8
0
  6
CONTINUOUS
 62
               7
100
AcDbLine
 10
-46.629633850815495
 20
-1.8447781050280128
 30
0.0
 11
-45.741964329606517
 21
-0.3072893989906333
 31
0.0
  0
LINE
  5
46C
100
AcDbEntity
  8
0
  6
CONTINUOUS
 62
               7
100
AcDbLine
 10
-47.629633865716656
 20
-1.9572893989906106
 30
0.0
 11
-46.629633865716656
 21
-2.0447780614421163
 31
0.0
  0
LINE
  5
46D
100
AcDbEntity
  8
0
  6
CONTINUOUS
 62
               7
100
AcDbLine
 10
-47.629633865716656
 20
-1.7572893997356687
 30
0.0
 11
-46.629633865716656
 21
-1.8447780621871743
 31
0.0
  0
LINE
  5
46E
100
AcDbEntity
  8
0
  6
CONTINUOUS
 62
               7
100
AcDbLine
 10
-57.429633835914345
 20
-1.9572894120291267
 30
0.0
 11
-57.429633835914345
 21
-0.3072894060686622
 31
0.0
  0
LINE
  5
46F
100
AcDbEntity
  8
0
  6
CONTINUOUS
 62
               7
100
AcDbLine
 10
-46.629633835914333
 20
-2.0447780633047614
 30
0.0
 11
-45.122649683083196
 21
-2.0447780633047614
 31
0.0
  0
LINE
  5
470
100
AcDbEntity
  8
0
  6
CONTINUOUS
 62
               7
100
AcDbLine
 10
-45.183324116801558
 20
-0.3072893989906333
 30
0.0
 11
-46.575943539655114
 21
-0.3072893989906333
 31
0.0
  0
LINE
  5
471
100
AcDbEntity
  8
0
  6
CONTINUOUS
 62
               7
100
AcDbLine
 10
-57.629633835914333
 20
-4.6572893989906561
 30
0.0
 11
-57.429633835914345
 21
-4.6572893989906561
 31
0.0
  0
LINE
  5
472
100
AcDbEntity
  8
0
  6
CONTINUOUS
 62
               7
100
AcDbLine
 10
-57.629633835914333
 20
-4.9572894120291267
 30
0.0
 11
-57.629633835914333
 21
-4.6572893989906561
 31
0.0
  0
LINE
  5
473
100
AcDbEntity
  8
0
  6
CONTINUOUS
 62
               7
100
AcDbLine
 10
-53.773410791972438
 20
-3.3088096740338528
 30
0.0
 11
-55.983888596400973
 21
-3.625187933493919
 31
0.0
  0
LINE
  5
474
100
AcDbEntity
  8
0
  6
CONTINUOUS
 62
               7
100
AcDbLine
 10
-53.776043973329266
 20
-3.4102056216659662
 30
0.0
 11
-55.797893173015908
 21
-3.6995861028479453
 31
0.0
  0
LINE
  5
475
100
AcDbEntity
  8
0
  6
CONTINUOUS
 62
               7
100
AcDbLine
 10
-53.776044003131588
 20
-3.4102056169584785
 30
0.0
 11
-53.42963381803294
 21
-3.6102056199387107
 31
0.0
  0
LINE
  5
476
100
AcDbEntity
  8
0
  6
CONTINUOUS
 62
               7
100
AcDbLine
 10
-53.773410791972438
 20
-3.3088096740338528
 30
0.0
 11
-53.429633835914345
 21
-3.5072893921552009
 31
0.0
  0
LINE
  5
477
100
AcDbEntity
  8
0
  6
CONTINUOUS
 62
               7
100
AcDbLine
 10
-56.278634932659159
 20
-3.507289398990622
 30
0.0
 11
-55.528634932659159
 21
-3.8072893989906333
 31
0.0
  0
LINE
  5
478
100
AcDbEntity
  8
0
  6
CONTINUOUS
 62
               7
100
AcDbLine
 10
-56.297893173015908
 20
-3.6072893989905879
 30
0.0
 11
-55.797893173015908
 21
-3.8072893989906333
 31
0.0
  0
LINE
  5
479
100
AcDbEntity
  8
0
  6
CONTINUOUS
 62
               7
100
AcDbLine
 10
-56.929633847835262
 20
-3.6072893989905879
 30
0.0
 11
-56.297893173015908
 21
-3.6072893989905879
 31
0.0
  0
LINE
  5
47A
100
AcDbEntity
  8
0
  6
CONTINUOUS
 62
               7
100
AcDbLine
 10
-56.929633847835262
 20
-3.507289398990622
 30
0.0
 11
-56.278634932659159
 21
-3.507289398990622
 31
0.0
  0
LINE
  5
47B
100
AcDbEntity
  8
0
  6
CONTINUOUS
 62
               7
100
AcDbLine
 10
-55.797893173015908
 20
-4.8572893989905879
 30
0.0
 11
-54.149249144466935
 21
-4.8572893989905879
 31
0.0
  0
LINE
  5
47C
100
AcDbEntity
  8
0
  6
CONTINUOUS
 62
               7
100
AcDbLine
 10
-54.149249158265789
 20
-4.8572894030884299
 30
0.0
 11
-53.976044021012981
 21
-4.757289379246572
 31
0.0
  0
LINE
  5
47D
100
AcDbEntity
  8
0
  6
CONTINUOUS
 62
               7
100
AcDbLine
 10
-54.122454218032559
 20
-4.9572894120291267
 30
0.0
 11
-53.776044003131588
 21
-4.757289379246572
 31
0.0
  0
LINE
  5
47E
100
AcDbEntity
  8
0
  6
CONTINUOUS
 62
               7
100
AcDbLine
 10
-53.776044003131588
 20
-4.7572894090488944
 30
0.0
 11
-53.429633859039271
 21
-4.9572893989906106
 31
0.0
  0
LINE
  5
47F
100
AcDbEntity
  8
0
  6
CONTINUOUS
 62
               7
100
AcDbLine
 10
-53.429633835914345
 20
-4.9572893989906106
 30
0.0
 11
-47.629633835914333
 21
-4.9572893989906106
 31
0.0
  0
ARC
  5
480
100
AcDbEntity
  8
0
  6
CONTINUOUS
 62
               7
100
AcDbCircle
 10
-55.697893173015885
 20
-4.8572893989905879
 30
0.0
 40
0.1
100
AcDbArc
 50
89.999999999999815
 51
179.99999999999963
  0
ARC
  5
481
100
AcDbEntity
  8
0
  6
CONTINUOUS
 62
               7
100
AcDbCircle
 10
-53.529633835914368
 20
-4.8572893989905879
 30
0.0
 40
0.1
100
AcDbArc
 50
0.0
 51
89.999999999999815
  0
LINE
  5
482
100
AcDbEntity
  8
0
  6
CONTINUOUS
 62
               7
100
AcDbLine
 10
-55.697893164518078
 20
-4.757289398990622
 30
0.0
 11
-53.529633841874798
 21
-4.757289398990622
 31
0.0
  0
LINE
  5
483
100
AcDbEntity
  8
0
  6
CONTINUOUS
 62
               7
100
AcDbLine
 10
-53.429633835914345
 20
-4.9572894120291267
 30
0.0
 11
-53.429633835914345
 21
-4.8572893881872687
 31
0.0
  0
LINE
  5
484
100
AcDbEntity
  8
0
  6
CONTINUOUS
 62
               7
100
AcDbLine
 10
-55.797893173015908
 20
-4.9572894120291267
 30
0.0
 11
-55.797893173015908
 21
-4.8572893881872687
 31
0.0
  0
ARC
  5
485
100
AcDbEntity
  8
0
  6
CONTINUOUS
 62
               7
100
AcDbCircle
 10
-56.397893173015873
 20
-4.8572893989905879
 30
0.0
 40
0.1
100
AcDbArc
 50
0.0
 51
89.999999999999815
  0
LINE
  5
486
100
AcDbEntity
  8
0
  6
CONTINUOUS
 62
               7
100
AcDbLine
 10
-56.297893173015908
 20
-4.9572894120291267
 30
0.0
 11
-56.297893173015908
 21
-4.8572893881872687
 31
0.0
  0
ARC
  5
487
100
AcDbEntity
  8
0
  6
CONTINUOUS
 62
               7
100
AcDbCircle
 10
-56.829633835914379
 20
-4.8572893989905879
 30
0.0
 40
0.1
100
AcDbArc
 50
89.999999999999815
 51
179.99999999999963
  0
LINE
  5
488
100
AcDbEntity
  8
0
  6
CONTINUOUS
 62
               7
100
AcDbLine
 10
-56.829633823993404
 20
-4.757289398990622
 30
0.0
 11
-56.397893173015873
 21
-4.757289398990622
 31
0.0
  0
LINE
  5
489
100
AcDbEntity
  8
0
  6
CONTINUOUS
 62
               7
100
AcDbLine
 10
-56.929633847835262
 20
-4.8544940030624275
 30
0.0
 11
-56.729633835914356
 21
-4.8544940030624275
 31
0.0
  0
LINE
  5
48A
100
AcDbEntity
  8
0
  6
CONTINUOUS
 62
               7
100
AcDbLine
 10
-56.297893173015908
 20
-4.9572893989906106
 30
0.0
 11
-54.122454203003898
 21
-4.9572893989906106
 31
0.0
  0
LINE
  5
48B
100
AcDbEntity
  8
0
  6
CONTINUOUS
 62
               7
100
AcDbLine
 10
-54.629633835914333
 20
-5.4572893989906106
 30
0.0
 11
-54.60647178318375
 21
-5.3600087775221255
 31
0.0
  0
LINE
  5
48C
100
AcDbEntity
  8
0
  6
CONTINUOUS
 62
               7
100
AcDbLine
 10
-56.729633835914356
 20
-4.8544940030624275
 30
0.0
 11
-54.60647178318375
 21
-5.3600087775221255
 31
0.0
  0
LINE
  5
48D
100
AcDbEntity
  8
0
  6
CONTINUOUS
 62
               7
100
AcDbLine
 10
-56.729633835914356
 20
-4.9572893989906106
 30
0.0
 11
-54.629633835914333
 21
-5.4572893989906106
 31
0.0
  0
LINE
  5
48E
100
AcDbEntity
  8
0
  6
CONTINUOUS
 62
               7
100
AcDbLine
 10
-56.929633835914345
 20
-4.9572894120291267
 30
0.0
 11
-56.929633835914345
 21
-4.8572893881872687
 31
0.0
  0
LINE
  5
48F
100
AcDbEntity
  8
0
  6
CONTINUOUS
 62
               7
100
AcDbLine
 10
-53.429633835914345
 20
-3.3072893989906333
 30
0.0
 11
-51.429633847835262
 21
-3.3072893989906333
 31
0.0
  0
ARC
  5
490
100
AcDbEntity
  8
0
  6
CONTINUOUS
 62
               7
100
AcDbCircle
 10
-53.679633835914345
 20
-3.5572893989906333
 30
0.0
 40
0.25
100
AcDbArc
 50
270.00000000000023
 51
0.0
  0
ARC
  5
491
100
AcDbEntity
  8
0
  6
CONTINUOUS
 62
               7
100
AcDbCircle
 10
-56.679633835914345
 20
-3.5572893989906333
 30
0.0
 40
0.25
100
AcDbArc
 50
179.99999999999963
 51
269.99999999999937
  0
LINE
  5
492
100
AcDbEntity
  8
0
  6
CONTINUOUS
 62
               7
100
AcDbLine
 10
-56.679633847835262
 20
-3.8072893989906333
 30
0.0
 11
-53.679633835914345
 21
-3.8072893989906333
 31
0.0
  0
LINE
  5
493
100
AcDbEntity
  8
0
  6
CONTINUOUS
 62
               7
100
AcDbLine
 10
-56.929633835914345
 20
-3.5572894060686622
 30
0.0
 11
-56.929633835914345
 21
-3.3072893989906333
 31
0.0
  0
LINE
  5
494
100
AcDbEntity
  8
0
  6
CONTINUOUS
 62
               7
100
AcDbLine
 10
-53.429633835914345
 20
-3.5572894060686622
 30
0.0
 11
-53.429633835914345
 21
-3.3072893989906333
 31
0.0
  0
ARC
  5
495
100
AcDbEntity
  8
0
  6
CONTINUOUS
 62
               7
100
AcDbCircle
 10
-50.929633835914345
 20
-4.431483061145741
 30
0.0
 40
0.25
100
AcDbArc
 50
179.99999999999963
 51
284.99999339411909
  0
LINE
  5
496
100
AcDbEntity
  8
0
  6
CONTINUOUS
 62
               7
100
AcDbLine
 10
-50.864929101827343
 20
-4.6729645276144538
 30
0.0
 11
-50.429633877637585
 21
-4.5563275212124381
 31
0.0
  0
ARC
  5
497
100
AcDbEntity
  8
0
  6
CONTINUOUS
 62
               7
100
AcDbCircle
 10
-51.429633835914345
 20
-3.5572893989906333
 30
0.0
 40
0.25
100
AcDbArc
 50
0.0
 51
89.999999999999815
  0
LINE
  5
498
100
AcDbEntity
  8
0
  6
CONTINUOUS
 62
               7
100
AcDbLine
 10
-51.179633835914345
 20
-4.4314830744341407
 30
0.0
 11
-51.179633835914345
 21
-3.5572894060686622
 31
0.0
  0
LINE
  5
499
100
AcDbEntity
  8
0
  6
CONTINUOUS
 62
               7
100
AcDbLine
 10
-57.429633847835262
 20
-3.3072893989906333
 30
0.0
 11
-56.929633847835262
 21
-3.3072893989906333
 31
0.0
  0
ARC
  5
49A
100
AcDbEntity
  8
0
  6
CONTINUOUS
 62
               7
100
AcDbCircle
 10
-50.179633835914345
 20
-3.6072893989905879
 30
0.0
 40
0.25
100
AcDbArc
 50
89.999999999999815
 51
179.99999999999963
  0
ARC
  5
49B
100
AcDbEntity
  8
0
  6
CONTINUOUS
 62
               7
100
AcDbCircle
 10
-47.879633835914333
 20
-3.6072893989905879
 30
0.0
 40
0.25
100
AcDbArc
 50
0.0
 51
89.999999999999815
  0
LINE
  5
49C
100
AcDbEntity
  8
0
  6
CONTINUOUS
 62
               7
100
AcDbLine
 10
-50.179633847835262
 20
-3.3572893989905879
 30
0.0
 11
-47.879633835914333
 21
-3.3572893989905879
 31
0.0
  0
LINE
  5
49D
100
AcDbEntity
  8
0
  6
CONTINUOUS
 62
               7
100
AcDbLine
 10
-57.629633835914333
 20
-4.9572893989906106
 30
0.0
 11
-56.729633835914356
 21
-4.9572893989906106
 31
0.0
  0
LINE
  5
49E
100
AcDbEntity
  8
0
  6
CONTINUOUS
 62
               7
100
AcDbLine
 10
-47.629633835914333
 20
-4.7572893941477332
 30
0.0
 11
-47.629633835914333
 21
-3.6072893989905879
 31
0.0
  0
LINE
  5
49F
100
AcDbEntity
  8
0
  6
CONTINUOUS
 62
               7
100
AcDbLine
 10
-50.429633835914345
 20
-4.5563275063112769
 30
0.0
 11
-50.429633835914345
 21
-3.6072893881872687
 31
0.0
  0
LINE
  5
4A0
100
AcDbEntity
  8
0
  6
CONTINUOUS
 62
               7
100
AcDbLine
 10
-45.879633835914333
 20
-3.5457400226667914
 30
0.0
 11
-46.017303365048988
 21
-3.3072893989906333
 31
0.0
  0
LINE
  5
4A1
100
AcDbEntity
  8
0
  6
CONTINUOUS
 62
               7
100
AcDbLine
 10
-46.629633834983011
 20
-4.8447783136442695
 30
0.0
 11
-46.575943539655114
 21
-3.3072893989906333
 31
0.0
  0
LINE
  5
4A2
100
AcDbEntity
  8
0
  6
CONTINUOUS
 62
               7
100
AcDbLine
 10
-45.122649683083196
 20
-5.0447780633047614
 30
0.0
 11
-45.183324124417723
 21
-3.3072893989906333
 31
0.0
  0
LINE
  5
4A3
100
AcDbEntity
  8
0
  6
CONTINUOUS
 62
               7
100
AcDbLine
 10
-46.629633850815495
 20
-4.8447781050280128
 30
0.0
 11
-45.741964329606517
 21
-3.3072893989906333
 31
0.0
  0
LINE
  5
4A4
100
AcDbEntity
  8
0
  6
CONTINUOUS
 62
               7
100
AcDbLine
 10
-47.629633865716656
 20
-4.9572893989906106
 30
0.0
 11
-46.629633865716656
 21
-5.0447780614421163
 31
0.0
  0
LINE
  5
4A5
100
AcDbEntity
  8
0
  6
CONTINUOUS
 62
               7
100
AcDbLine
 10
-47.629633865716656
 20
-4.7572893997356687
 30
0.0
 11
-46.629633865716656
 21
-4.8447780621871743
 31
0.0
  0
LINE
  5
4A6
100
AcDbEntity
  8
0
  6
CONTINUOUS
 62
               7
100
AcDbLine
 10
-57.429633835914345
 20
-4.9572894120291267
 30
0.0
 11
-57.429633835914345
 21
-3.3072894060686622
 31
0.0
  0
LINE
  5
4A7
100
AcDbEntity
  8
0
  6
CONTINUOUS
 62
               7
100
AcDbLine
 10
-46.629633835914333
 20
-5.0447780633047614
 30
0.0
 11
-45.122649683083196
 21
-5.0447780633047614
 31
0.0
  0
LINE
  5
4A8
100
AcDbEntity
  8
0
  6
CONTINUOUS
 62
               7
100
AcDbLine
 10
-45.183324116801558
 20
-3.3072893989906333
 30
0.0
 11
-46.575943539655114
 21
-3.3072893989906333
 31
0.0
  0
LINE
  5
4A9
100
AcDbEntity
  8
0
  6
CONTINUOUS
 62
               7
100
AcDbLine
 10
-57.629633835914333
 20
-7.6572893989906561
 30
0.0
 11
-57.429633835914345
 21
-7.6572893989906561
 31
0.0
  0
LINE
  5
4AA
100
AcDbEntity
  8
0
  6
CONTINUOUS
 62
               7
100
AcDbLine
 10
-57.629633835914333
 20
-7.9572894120291267
 30
0.0
 11
-57.629633835914333
 21
-7.6572893989906561
 31
0.0
  0
LINE
  5
4AB
100
AcDbEntity
  8
0
  6
CONTINUOUS
 62
               7
100
AcDbLine
 10
-53.773410791972438
 20
-6.3088096740338528
 30
0.0
 11
-55.983888596400973
 21
-6.625187933493919
 31
0.0
  0
LINE
  5
4AC
100
AcDbEntity
  8
0
  6
CONTINUOUS
 62
               7
100
AcDbLine
 10
-53.776043973329266
 20
-6.4102056216659662
 30
0.0
 11
-55.797893173015908
 21
-6.6995861028479453
 31
0.0
  0
LINE
  5
4AD
100
AcDbEntity
  8
0
  6
CONTINUOUS
 62
               7
100
AcDbLine
 10
-53.776044003131588
 20
-6.4102056169584785
 30
0.0
 11
-53.42963381803294
 21
-6.6102056199387107
 31
0.0
  0
LINE
  5
4AE
100
AcDbEntity
  8
0
  6
CONTINUOUS
 62
               7
100
AcDbLine
 10
-53.773410791972438
 20
-6.3088096740338528
 30
0.0
 11
-53.429633835914345
 21
-6.5072893921552009
 31
0.0
  0
LINE
  5
4AF
100
AcDbEntity
  8
0
  6
CONTINUOUS
 62
               7
100
AcDbLine
 10
-56.278634932659159
 20
-6.507289398990622
 30
0.0
 11
-55.528634932659159
 21
-6.8072893989906333
 31
0.0
  0
LINE
  5
4B0
100
AcDbEntity
  8
0
  6
CONTINUOUS
 62
               7
100
AcDbLine
 10
-56.297893173015908
 20
-6.6072893989905879
 30
0.0
 11
-55.797893173015908
 21
-6.8072893989906333
 31
0.0
  0
LINE
  5
4B1
100
AcDbEntity
  8
0
  6
CONTINUOUS
 62
               7
100
AcDbLine
 10
-56.929633847835262
 20
-6.6072893989905879
 30
0.0
 11
-56.297893173015908
 21
-6.6072893989905879
 31
0.0
  0
LINE
  5
4B2
100
AcDbEntity
  8
0
  6
CONTINUOUS
 62
               7
100
AcDbLine
 10
-56.929633847835262
 20
-6.507289398990622
 30
0.0
 11
-56.278634932659159
 21
-6.507289398990622
 31
0.0
  0
LINE
  5
4B3
100
AcDbEntity
  8
0
  6
CONTINUOUS
 62
               7
100
AcDbLine
 10
-55.797893173015908
 20
-7.8572893989905879
 30
0.0
 11
-54.149249144466935
 21
-7.8572893989905879
 31
0.0
  0
LINE
  5
4B4
100
AcDbEntity
  8
0
  6
CONTINUOUS
 62
               7
100
AcDbLine
 10
-54.149249158265789
 20
-7.8572894030884299
 30
0.0
 11
-53.976044021012981
 21
-7.757289379246572
 31
0.0
  0
LINE
  5
4B5
100
AcDbEntity
  8
0
  6
CONTINUOUS
 62
               7
100
AcDbLine
 10
-54.122454218032559
 20
-7.9572894120291267
 30
0.0
 11
-53.776044003131588
 21
-7.757289379246572
 31
0.0
  0
LINE
  5
4B6
100
AcDbEntity
  8
0
  6
CONTINUOUS
 62
               7
100
AcDbLine
 10
-53.776044003131588
 20
-7.7572894090488944
 30
0.0
 11
-53.429633859039271
 21
-7.9572893989906106
 31
0.0
  0
LINE
  5
4B7
100
AcDbEntity
  8
0
  6
CONTINUOUS
 62
               7
100
AcDbLine
 10
-53.429633835914345
 20
-7.9572893989906106
 30
0.0
 11
-47.629633835914333
 21
-7.9572893989906106
 31
0.0
  0
ARC
  5
4B8
100
AcDbEntity
  8
0
  6
CONTINUOUS
 62
               7
100
AcDbCircle
 10
-55.697893173015885
 20
-7.8572893989905879
 30
0.0
 40
0.1
100
AcDbArc
 50
89.999999999999815
 51
179.99999999999963
  0
ARC
  5
4B9
100
AcDbEntity
  8
0
  6
CONTINUOUS
 62
               7
100
AcDbCircle
 10
-53.529633835914368
 20
-7.8572893989905879
 30
0.0
 40
0.1
100
AcDbArc
 50
0.0
 51
89.999999999999815
  0
LINE
  5
4BA
100
AcDbEntity
  8
0
  6
CONTINUOUS
 62
               7
100
AcDbLine
 10
-55.697893164518078
 20
-7.757289398990622
 30
0.0
 11
-53.529633841874798
 21
-7.757289398990622
 31
0.0
  0
LINE
  5
4BB
100
AcDbEntity
  8
0
  6
CONTINUOUS
 62
               7
100
AcDbLine
 10
-53.429633835914345
 20
-7.9572894120291267
 30
0.0
 11
-53.429633835914345
 21
-7.8572893881872687
 31
0.0
  0
LINE
  5
4BC
100
AcDbEntity
  8
0
  6
CONTINUOUS
 62
               7
100
AcDbLine
 10
-55.797893173015908
 20
-7.9572894120291267
 30
0.0
 11
-55.797893173015908
 21
-7.8572893881872687
 31
0.0
  0
ARC
  5
4BD
100
AcDbEntity
  8
0
  6
CONTINUOUS
 62
               7
100
AcDbCircle
 10
-56.397893173015873
 20
-7.8572893989905879
 30
0.0
 40
0.1
100
AcDbArc
 50
0.0
 51
89.999999999999815
  0
LINE
  5
4BE
100
AcDbEntity
  8
0
  6
CONTINUOUS
 62
               7
100
AcDbLine
 10
-56.297893173015908
 20
-7.9572894120291267
 30
0.0
 11
-56.297893173015908
 21
-7.8572893881872687
 31
0.0
  0
ARC
  5
4BF
100
AcDbEntity
  8
0
  6
CONTINUOUS
 62
               7
100
AcDbCircle
 10
-56.829633835914379
 20
-7.8572893989905879
 30
0.0
 40
0.1
100
AcDbArc
 50
89.999999999999815
 51
179.99999999999963
  0
LINE
  5
4C0
100
AcDbEntity
  8
0
  6
CONTINUOUS
 62
               7
100
AcDbLine
 10
-56.829633823993404
 20
-7.757289398990622
 30
0.0
 11
-56.397893173015873
 21
-7.757289398990622
 31
0.0
  0
LINE
  5
4C1
100
AcDbEntity
  8
0
  6
CONTINUOUS
 62
               7
100
AcDbLine
 10
-56.929633847835262
 20
-7.8544940030624275
 30
0.0
 11
-56.729633835914356
 21
-7.8544940030624275
 31
0.0
  0
LINE
  5
4C2
100
AcDbEntity
  8
0
  6
CONTINUOUS
 62
               7
100
AcDbLine
 10
-56.297893173015908
 20
-7.9572893989906106
 30
0.0
 11
-54.122454203003898
 21
-7.9572893989906106
 31
0.0
  0
LINE
  5
4C3
100
AcDbEntity
  8
0
  6
CONTINUOUS
 62
               7
100
AcDbLine
 10
-54.629633835914333
 20
-8.4572893989906106
 30
0.0
 11
-54.60647178318375
 21
-8.3600087775221255
 31
0.0
  0
LINE
  5
4C4
100
AcDbEntity
  8
0
  6
CONTINUOUS
 62
               7
100
AcDbLine
 10
-56.729633835914356
 20
-7.8544940030624275
 30
0.0
 11
-54.60647178318375
 21
-8.3600087775221255
 31
0.0
  0
LINE
  5
4C5
100
AcDbEntity
  8
0
  6
CONTINUOUS
 62
               7
100
AcDbLine
 10
-56.729633835914356
 20
-7.9572893989906106
 30
0.0
 11
-54.629633835914333
 21
-8.4572893989906106
 31
0.0
  0
LINE
  5
4C6
100
AcDbEntity
  8
0
  6
CONTINUOUS
 62
               7
100
AcDbLine
 10
-56.929633835914345
 20
-7.9572894120291267
 30
0.0
 11
-56.929633835914345
 21
-7.8572893881872687
 31
0.0
  0
LINE
  5
4C7
100
AcDbEntity
  8
0
  6
CONTINUOUS
 62
               7
100
AcDbLine
 10
-53.429633835914345
 20
-6.3072893989906333
 30
0.0
 11
-51.429633847835262
 21
-6.3072893989906333
 31
0.0
  0
ARC
  5
4C8
100
AcDbEntity
  8
0
  6
CONTINUOUS
 62
               7
100
AcDbCircle
 10
-53.679633835914345
 20
-6.5572893989906333
 30
0.0
 40
0.25
100
AcDbArc
 50
270.00000000000023
 51
0.0
  0
ARC
  5
4C9
100
AcDbEntity
  8
0
  6
CONTINUOUS
 62
               7
100
AcDbCircle
 10
-56.679633835914345
 20
-6.5572893989906333
 30
0.0
 40
0.25
100
AcDbArc
 50
179.99999999999963
 51
269.99999999999937
  0
LINE
  5
4CA
100
AcDbEntity
  8
0
  6
CONTINUOUS
 62
               7
100
AcDbLine
 10
-56.679633847835262
 20
-6.8072893989906333
 30
0.0
 11
-53.679633835914345
 21
-6.8072893989906333
 31
0.0
  0
LINE
  5
4CB
100
AcDbEntity
  8
0
  6
CONTINUOUS
 62
               7
100
AcDbLine
 10
-56.929633835914345
 20
-6.5572894060686622
 30
0.0
 11
-56.929633835914345
 21
-6.3072893989906333
 31
0.0
  0
LINE
  5
4CC
100
AcDbEntity
  8
0
  6
CONTINUOUS
 62
               7
100
AcDbLine
 10
-53.429633835914345
 20
-6.5572894060686622
 30
0.0
 11
-53.429633835914345
 21
-6.3072893989906333
 31
0.0
  0
ARC
  5
4CD
100
AcDbEntity
  8
0
  6
CONTINUOUS
 62
               7
100
AcDbCircle
 10
-50.929633835914345
 20
-7.431483061145741
 30
0.0
 40
0.25
100
AcDbArc
 50
179.99999999999963
 51
284.99999339411909
  0
LINE
  5
4CE
100
AcDbEntity
  8
0
  6
CONTINUOUS
 62
               7
100
AcDbLine
 10
-50.864929101827343
 20
-7.6729645276144538
 30
0.0
 11
-50.429633877637585
 21
-7.5563275212124381
 31
0.0
  0
ARC
  5
4CF
100
AcDbEntity
  8
0
  6
CONTINUOUS
 62
               7
100
AcDbCircle
 10
-51.429633835914345
 20
-6.5572893989906333
 30
0.0
 40
0.25
100
AcDbArc
 50
0.0
 51
89.999999999999815
  0
LINE
  5
4D0
100
AcDbEntity
  8
0
  6
CONTINUOUS
 62
               7
100
AcDbLine
 10
-51.179633835914345
 20
-7.4314830744341407
 30
0.0
 11
-51.179633835914345
 21
-6.5572894060686622
 31
0.0
  0
LINE
  5
4D1
100
AcDbEntity
  8
0
  6
CONTINUOUS
 62
               7
100
AcDbLine
 10
-57.429633847835262
 20
-6.3072893989906333
 30
0.0
 11
-56.929633847835262
 21
-6.3072893989906333
 31
0.0
  0
ARC
  5
4D2
100
AcDbEntity
  8
0
  6
CONTINUOUS
 62
               7
100
AcDbCircle
 10
-50.179633835914345
 20
-6.6072893989905879
 30
0.0
 40
0.25
100
AcDbArc
 50
89.999999999999815
 51
179.99999999999963
  0
ARC
  5
4D3
100
AcDbEntity
  8
0
  6
CONTINUOUS
 62
               7
100
AcDbCircle
 10
-47.879633835914333
 20
-6.6072893989905879
 30
0.0
 40
0.25
100
AcDbArc
 50
0.0
 51
89.999999999999815
  0
LINE
  5
4D4
100
AcDbEntity
  8
0
  6
CONTINUOUS
 62
               7
100
AcDbLine
 10
-50.179633847835262
 20
-6.3572893989905879
 30
0.0
 11
-47.879633835914333
 21
-6.3572893989905879
 31
0.0
  0
LINE
  5
4D5
100
AcDbEntity
  8
0
  6
CONTINUOUS
 62
               7
100
AcDbLine
 10
-57.629633835914333
 20
-7.9572893989906106
 30
0.0
 11
-56.729633835914356
 21
-7.9572893989906106
 31
0.0
  0
LINE
  5
4D6
100
AcDbEntity
  8
0
  6
CONTINUOUS
 62
               7
100
AcDbLine
 10
-47.629633835914333
 20
-7.7572893941477332
 30
0.0
 11
-47.629633835914333
 21
-6.6072893989905879
 31
0.0
  0
LINE
  5
4D7
100
AcDbEntity
  8
0
  6
CONTINUOUS
 62
               7
100
AcDbLine
 10
-50.429633835914345
 20
-7.5563275063112769
 30
0.0
 11
-50.429633835914345
 21
-6.6072893881872687
 31
0.0
  0
LINE
  5
4D8
100
AcDbEntity
  8
0
  6
CONTINUOUS
 62
               7
100
AcDbLine
 10
-45.879633835914333
 20
-6.5457400226667914
 30
0.0
 11
-46.017303365048988
 21
-6.3072893989906333
 31
0.0
  0
LINE
  5
4D9
100
AcDbEntity
  8
0
  6
CONTINUOUS
 62
               7
100
AcDbLine
 10
-46.629633834983011
 20
-7.8447783136442695
 30
0.0
 11
-46.575943539655114
 21
-6.3072893989906333
 31
0.0
  0
LINE
  5
4DA
100
AcDbEntity
  8
0
  6
CONTINUOUS
 62
               7
100
AcDbLine
 10
-45.122649683083196
 20
-8.0447780633047614
 30
0.0
 11
-45.183324124417723
 21
-6.3072893989906333
 31
0.0
  0
LINE
  5
4DB
100
AcDbEntity
  8
0
  6
CONTINUOUS
 62
               7
100
AcDbLine
 10
-46.629633850815495
 20
-7.8447781050280128
 30
0.0
 11
-45.741964329606517
 21
-6.3072893989906333
 31
0.0
  0
LINE
  5
4DC
100
AcDbEntity
  8
0
  6
CONTINUOUS
 62
               7
100
AcDbLine
 10
-47.629633865716656
 20
-7.9572893989906106
 30
0.0
 11
-46.629633865716656
 21
-8.0447780614421163
 31
0.0
  0
LINE
  5
4DD
100
AcDbEntity
  8
0
  6
CONTINUOUS
 62
               7
100
AcDbLine
 10
-47.629633865716656
 20
-7.7572893997356687
 30
0.0
 11
-46.629633865716656
 21
-7.8447780621871743
 31
0.0
  0
LINE
  5
4DE
100
AcDbEntity
  8
0
  6
CONTINUOUS
 62
               7
100
AcDbLine
 10
-57.429633835914345
 20
-7.9572894120291267
 30
0.0
 11
-57.429633835914345
 21
-6.3072894060686622
 31
0.0
  0
LINE
  5
4DF
100
AcDbEntity
  8
0
  6
CONTINUOUS
 62
               7
100
AcDbLine
 10
-46.629633835914333
 20
-8.0447780633047614
 30
0.0
 11
-45.122649683083196
 21
-8.0447780633047614
 31
0.0
  0
LINE
  5
4E0
100
AcDbEntity
  8
0
  6
CONTINUOUS
 62
               7
100
AcDbLine
 10
-45.183324116801558
 20
-6.3072893989906333
 30
0.0
 11
-46.575943539655114
 21
-6.3072893989906333
 31
0.0
  0
ARC
  5
4E1
100
AcDbEntity
  8
0
  6
CONTINUOUS
 62
               7
100
AcDbCircle
 10
-41.551368390972996
 20
-5.7322894090489172
 30
0.0
 40
5.0
100
AcDbArc
 50
59.999999999999865
 51
89.999999999999815
  0
ARC
  5
4E2
100
AcDbEntity
  8
0
  6
CONTINUOUS
 62
               7
100
AcDbCircle
 10
-41.765727744917925
 20
-6.5322894090488717
 30
0.0
 40
5.0
100
AcDbArc
 50
59.999999999999865
 51
89.999999999999815
  0
ARC
  5
4E3
100
AcDbEntity
  8
0
  6
CONTINUOUS
 62
               7
100
AcDbCircle
 10
-41.551368390972996
 20
-2.5322894090488717
 30
0.0
 40
5.0
100
AcDbArc
 50
269.99999999999937
 51
299.99999999999932
  0
ARC
  5
4E4
100
AcDbEntity
  8
0
  6
CONTINUOUS
 62
               7
100
AcDbCircle
 10
-41.765727744917925
 20
-1.7322894090489172
 30
0.0
 40
5.0
100
AcDbArc
 50
269.99999999999937
 51
299.99999999999932
  0
LINE
  5
4E5
100
AcDbEntity
  8
0
  6
CONTINUOUS
 62
               7
100
AcDbLine
 10
-36.473353838599408
 20
-3.8143402166177793
 30
0.0
 11
-39.265727744917925
 21
-2.2021623901267162
 31
0.0
  0
LINE
  5
4E6
100
AcDbEntity
  8
0
  6
CONTINUOUS
 62
               7
100
AcDbLine
 10
-36.258994484654536
 20
-3.0143402166178248
 30
0.0
 11
-39.051368390972996
 21
-1.4021623901267048
 31
0.0
  0
LINE
  5
4E7
100
AcDbEntity
  8
0
  6
CONTINUOUS
 62
               7
100
AcDbLine
 10
-36.473353838599408
 20
-4.4502386014800095
 30
0.0
 11
-39.265727744917925
 21
-6.0624164279711295
 31
0.0
  0
LINE
  5
4E8
100
AcDbEntity
  8
0
  6
CONTINUOUS
 62
               7
100
AcDbLine
 10
-36.258994484654536
 20
-5.2502386014800209
 30
0.0
 11
-39.051368390972996
 21
-6.862416427971084
 31
0.0
  0
LINE
  5
4E9
100
AcDbEntity
  8
0
  6
CONTINUOUS
 62
               7
100
AcDbLine
 10
-45.140546181302696
 20
-1.5322894090488717
 30
0.0
 11
-41.765727744917925
 21
-1.5322894090488717
 31
0.0
  0
LINE
  5
4EA
100
AcDbEntity
  8
0
  6
CONTINUOUS
 62
               7
100
AcDbLine
 10
-45.168482796985145
 20
-0.7322894090489172
 30
0.0
 11
-41.551368390972996
 21
-0.7322894090489172
 31
0.0
  0
LINE
  5
4EB
100
AcDbEntity
  8
0
  6
CONTINUOUS
 62
               7
100
AcDbLine
 10
-45.140546181302696
 20
-7.5322894090488717
 30
0.0
 11
-41.551368390972996
 21
-7.5322894090488717
 31
0.0
  0
LINE
  5
4EC
100
AcDbEntity
  8
0
  6
CONTINUOUS
 62
               7
100
AcDbLine
 10
-45.168482796985145
 20
-6.7322894090489172
 30
0.0
 11
-41.765727744917925
 21
-6.7322894090489172
 31
0.0
  0
LINE
  5
4ED
100
AcDbEntity
  8
0
  6
CONTINUOUS
 62
               7
100
AcDbLine
 10
-34.871132439562885
 20
-3.2822894090488717
 30
0.0
 11
-35.258994484654536
 21
-3.2822894090488717
 31
0.0
  0
LINE
  5
4EE
100
AcDbEntity
  8
0
  6
CONTINUOUS
 62
               7
100
AcDbLine
 10
-35.333012654571931
 20
-4.0822894090489399
 30
0.0
 11
-35.473353838599408
 21
-4.0822894090489399
 31
0.0
  0
LINE
  5
4EF
100
AcDbEntity
  8
0
  6
CONTINUOUS
 62
               7
100
AcDbLine
 10
-35.390747681448104
 20
-4.1822894090489058
 30
0.0
 11
-35.473353838599408
 21
-4.1822894090489058
 31
0.0
  0
LINE
  5
4F0
100
AcDbEntity
  8
0
  6
CONTINUOUS
 62
               7
100
AcDbLine
 10
-45.168482796985145
 20
-3.7322894090489172
 30
0.0
 11
-36.615470006110755
 21
-3.7322894090489172
 31
0.0
  0
LINE
  5
4F1
100
AcDbEntity
  8
0
  6
CONTINUOUS
 62
               7
100
AcDbLine
 10
-45.140546181302696
 20
-4.5322894090488717
 30
0.0
 11
-36.615470006110755
 21
-4.5322894090488717
 31
0.0
  0
ARC
  5
4F2
100
AcDbEntity
  8
0
  6
CONTINUOUS
 62
               7
100
AcDbCircle
 10
-35.258994484654536
 20
-1.2822894090488717
 30
0.0
 40
2.0
100
AcDbArc
 50
239.99999999999946
 51
269.99999999999937
  0
ARC
  5
4F3
100
AcDbEntity
  8
0
  6
CONTINUOUS
 62
               7
100
AcDbCircle
 10
-35.473353838599408
 20
-2.0822894090489399
 30
0.0
 40
2.0
100
AcDbArc
 50
239.99999999999946
 51
269.99999999999937
  0
LINE
  5
4F4
100
AcDbEntity
  8
0
  6
CONTINUOUS
 62
               7
100
AcDbLine
 10
-32.899999988148082
 20
-4.0822894090489399
 30
0.0
 11
-34.40925226913653
 21
-4.0822894090489399
 31
0.0
  0
LINE
  5
4F5
100
AcDbEntity
  8
0
  6
CONTINUOUS
 62
               7
100
AcDbLine
 10
-32.899999988148082
 20
-3.2822894090488717
 30
0.0
 11
-33.947372054742246
 21
-3.2822894090488717
 31
0.0
  0
ARC
  5
4F6
100
AcDbEntity
  8
0
  6
CONTINUOUS
 62
               7
100
AcDbCircle
 10
-35.473353838599408
 20
-6.1822894090489058
 30
0.0
 40
2.0
100
AcDbArc
 50
89.999999999999815
 51
119.99999999999973
  0
ARC
  5
4F7
100
AcDbEntity
  8
0
  6
CONTINUOUS
 62
               7
100
AcDbCircle
 10
-35.258994484654536
 20
-6.9822894090489172
 30
0.0
 40
2.0
100
AcDbArc
 50
109.20488889817132
 51
119.99999999999982
  0
LINE
  5
4F8
100
AcDbEntity
  8
0
  6
CONTINUOUS
 62
               7
100
AcDbLine
 10
-32.899999988148082
 20
-4.1822894090489058
 30
0.0
 11
-34.466987295935851
 21
-4.1822894090489058
 31
0.0
  0
LINE
  5
4F9
100
AcDbEntity
  8
0
  6
CONTINUOUS
 62
               7
100
AcDbLine
 10
-32.899999988148082
 20
-4.9822894090489172
 30
0.0
 11
-34.928867510330193
 21
-4.9822894090489172
 31
0.0
  0
LINE
  5
4FA
100
AcDbEntity
  8
0
  6
PHANTOM
 62
               2
100
AcDbLine
 10
-28.591154277324691
 20
-2.2322894334255352
 30
0.0
 11
-30.78508530557157
 21
-6.0322894453464642
 31
0.0
  0
LINE
  5
4FB
100
AcDbEntity
  8
0
  6
PHANTOM
 62
               2
100
AcDbLine
 10
-29.514914676547065
 20
-2.2322894036232128
 30
0.0
 11
-31.708845719695105
 21
-6.0322894453464642
 31
0.0
  0
LINE
  5
4FC
100
AcDbEntity
  8
0
  6
PHANTOM
 62
               2
100
AcDbLine
 10
-33.572094380855575
 20
-2.6322894095836773
 30
0.0
 11
-35.304145202040687
 21
-5.6322894393859997
 31
0.0
  0
LINE
  5
4FD
100
AcDbEntity
  8
0
  6
PHANTOM
 62
               2
100
AcDbLine
 10
-34.495854765176787
 20
-2.6322894095836773
 30
0.0
 11
-36.227905571460738
 21
-5.6322894095836773
 31
0.0
  0
LINE
  5
4FE
100
AcDbEntity
  8
0
  6
CONTINUOUS
 62
               7
100
AcDbLine
 10
-31.362435538355797
 20
-5.4322894090489058
 30
0.0
 11
-32.899999988148082
 21
-5.4322894090489058
 31
0.0
  0
LINE
  5
4FF
100
AcDbEntity
  8
0
  6
CONTINUOUS
 62
               7
100
AcDbLine
 10
-29.86132483846275
 20
-2.8322894090489399
 30
0.0
 11
-32.899999988148082
 21
-2.8322894090489399
 31
0.0
  0
LINE
  5
500
100
AcDbEntity
  8
0
  6
CONTINUOUS
 62
               7
100
AcDbLine
 10
-27.399999988148082
 20
-5.4322894090489058
 30
0.0
 11
-30.438675139133423
 21
-5.4322894090489058
 31
0.0
  0
LINE
  5
501
100
AcDbEntity
  8
0
  6
CONTINUOUS
 62
               7
100
AcDbLine
 10
-27.399999988148082
 20
-2.8322894090489399
 30
0.0
 11
-28.937564439240376
 21
-2.8322894090489399
 31
0.0
  0
LINE
  5
502
100
AcDbEntity
  8
0
  6
CONTINUOUS
 62
               7
100
AcDbLine
 10
-32.899999988148082
 20
-2.8322894090489399
 30
0.0
 11
-32.899999988148082
 21
-5.4322894090489058
 31
0.0
  0
LINE
  5
503
100
AcDbEntity
  8
0
  6
CONTINUOUS
 62
               7
100
AcDbLine
 10
-22.899999988148139
 20
-2.3822894090488944
 30
0.0
 11
-21.899999988148139
 21
-2.3822894090488944
 31
0.0
  0
LINE
  5
504
100
AcDbEntity
  8
0
  6
CONTINUOUS
 62
               7
100
AcDbLine
 10
-22.899999988148139
 20
-5.8822894090488944
 30
0.0
 11
-21.899999988148139
 21
-5.8822894090488944
 31
0.0
  0
LINE
  5
505
100
AcDbEntity
  8
0
  6
CONTINUOUS
 62
               7
100
AcDbLine
 10
-25.399999988148082
 20
-2.3822894090488944
 30
0.0
 11
-24.399999988148139
 21
-2.3822894090488944
 31
0.0
  0
LINE
  5
506
100
AcDbEntity
  8
0
  6
CONTINUOUS
 62
               7
100
AcDbLine
 10
-25.399999988148082
 20
-5.8822894090488944
 30
0.0
 11
-24.399999988148139
 21
-5.8822894090488944
 31
0.0
  0
LINE
  5
507
100
AcDbEntity
  8
0
  6
CONTINUOUS
 62
               7
100
AcDbLine
 10
-24.399999988148139
 20
-1.7037179804774496
 30
0.0
 11
-22.899999988148139
 21
-1.489432266191784
 31
0.0
  0
LINE
  5
508
100
AcDbEntity
  8
0
  6
CONTINUOUS
 62
               7
100
AcDbLine
 10
-24.399999988148139
 20
-6.5608608376203392
 30
0.0
 11
-22.899999988148139
 21
-6.7751465519060616
 31
0.0
  0
LINE
  5
509
100
AcDbEntity
  8
0
  6
CONTINUOUS
 62
               7
100
AcDbLine
 10
-21.899999988148139
 20
-1.3465751233346168
 30
0.0
 11
-21.899999988148139
 21
-6.9180036947632289
 31
0.0
  0
LINE
  5
50A
100
AcDbEntity
  8
0
  6
CONTINUOUS
 62
               7
100
AcDbLine
 10
-22.899999988148139
 20
-1.489432266191784
 30
0.0
 11
-22.899999988148139
 21
-6.7751465519060616
 31
0.0
  0
LINE
  5
50B
100
AcDbEntity
  8
0
  6
CONTINUOUS
 62
               7
100
AcDbLine
 10
-24.399999988148139
 20
-1.7037179804774496
 30
0.0
 11
-24.399999988148139
 21
-6.5608608376203392
 31
0.0
  0
LINE
  5
50C
100
AcDbEntity
  8
0
  6
CONTINUOUS
 62
               7
100
AcDbLine
 10
-25.399999988148082
 20
-1.8465751233346168
 30
0.0
 11
-25.399999988148082
 21
-6.4180036947632289
 31
0.0
  0
LINE
  5
50D
100
AcDbEntity
  8
0
  6
CONTINUOUS
 62
               7
100
AcDbLine
 10
-27.399999988148082
 20
-2.1322894090488944
 30
0.0
 11
-25.399999988148082
 21
-1.8465751233346168
 31
0.0
  0
LINE
  5
50E
100
AcDbEntity
  8
0
  6
CONTINUOUS
 62
               7
100
AcDbLine
 10
-27.399999988148082
 20
-6.1322894090488944
 30
0.0
 11
-25.399999988148082
 21
-6.4180036947632289
 31
0.0
  0
LINE
  5
50F
100
AcDbEntity
  8
0
  6
CONTINUOUS
 62
               7
100
AcDbLine
 10
-27.399999988148082
 20
-2.1322894090488944
 30
0.0
 11
-27.399999988148082
 21
-6.1322894090488944
 31
0.0
  0
LINE
  5
510
100
AcDbEntity
  8
0
  6
CENTER
 62
               2
100
AcDbLine
 10
-32.899999988148082
 20
-4.1322894090488944
 30
0.0
 11
-18.799999988148116
 21
-4.1322894090488944
 31
0.0
  0
LINE
  5
511
100
AcDbEntity
  8
0
  6
CONTINUOUS
 62
               7
100
AcDbLine
 10
-21.899999988148139
 20
-6.9180036947632289
 30
0.0
 11
-20.399999988148139
 21
-7.1322894090488944
 31
0.0
  0
LINE
  5
512
100
AcDbEntity
  8
0
  6
CONTINUOUS
 62
               7
100
AcDbLine
 10
-21.899999988148139
 20
-1.3465751233346168
 30
0.0
 11
-20.399999988148139
 21
-1.1322894090488944
 31
0.0
  0
LINE
  5
513
100
AcDbEntity
  8
0
  6
CENTER
 62
               2
100
AcDbLine
 10
10.606601717798199
 20
-0.299999999999983
 30
0.0
 11
10.606601717798199
 21
-12.700000000000017
 31
0.0
  0
LINE
  5
514
100
AcDbEntity
  8
0
  6
CENTER
 62
               2
100
AcDbLine
 10
18.172485804846445
 20
-6.5
 30
0.0
 11
4.4066017177981962
 21
-6.5
 31
0.0
  0
LINE
  5
515
100
AcDbEntity
  8
0
  6
CONTINUOUS
 62
               7
100
AcDbLine
 10
-9.0000000000000142
 20
0.0
 30
0.0
 11
14.0
 21
0.0
 31
0.0
  0
LINE
  5
516
100
AcDbEntity
  8
0
  6
CONTINUOUS
 62
               7
100
AcDbLine
 10
15.0
 20
-1.0
 30
0.0
 11
15.0
 21
-16.799999999999983
 31
0.0
  0
LINE
  5
517
100
AcDbEntity
  8
0
  6
CONTINUOUS
 62
               7
100
AcDbLine
 10
14.799999999999926
 20
-17.0
 30
0.0
 11
-14.799999999999955
 21
-17.0
 31
0.0
  0
LINE
  5
518
100
AcDbEntity
  8
0
  6
CONTINUOUS
 62
               7
100
AcDbLine
 10
14.0
 20
0.0
 30
0.0
 11
15.0
 21
-1.0
 31
0.0
  0
LINE
  5
519
100
AcDbEntity
  8
0
  6
CONTINUOUS
 62
               7
100
AcDbLine
 10
-15.0
 20
-11.0
 30
0.0
 11
-15.0
 21
-16.799999999999983
 31
0.0
  0
LINE
  5
51A
100
AcDbEntity
  8
0
  6
CONTINUOUS
 62
               7
100
AcDbLine
 10
15.0
 20
-1.0
 30
0.0
 11
-9.0000000000000142
 21
-1.0
 31
0.0
  0
LINE
  5
51B
100
AcDbEntity
  8
0
  6
CONTINUOUS
 62
               7
100
AcDbLine
 10
11.106601717798199
 20
-3.0
 30
0.0
 11
11.106601717798199
 21
-10.0
 31
0.0
  0
LINE
  5
51C
100
AcDbEntity
  8
0
  6
CONTINUOUS
 62
               7
100
AcDbLine
 10
10.106601717798199
 20
-3.0
 30
0.0
 11
10.106601717798199
 21
-10.0
 31
0.0
  0
LINE
  5
51D
100
AcDbEntity
  8
0
  6
CONTINUOUS
 62
               7
100
AcDbLine
 10
14.648053602125586
 20
-6.5
 30
0.0
 11
12.627327659961892
 21
-3.0
 31
0.0
  0
LINE
  5
51E
100
AcDbEntity
  8
0
  6
CONTINUOUS
 62
               7
100
AcDbLine
 10
12.627327659961892
 20
-3.0
 30
0.0
 11
8.5858757756345057
 21
-3.0
 31
0.0
  0
LINE
  5
51F
100
AcDbEntity
  8
0
  6
CONTINUOUS
 62
               7
100
AcDbLine
 10
8.5858757756345057
 20
-3.0
 30
0.0
 11
6.5651498334708123
 21
-6.5
 31
0.0
  0
LINE
  5
520
100
AcDbEntity
  8
0
  6
CONTINUOUS
 62
               7
100
AcDbLine
 10
6.5651498334708123
 20
-6.5
 30
0.0
 11
8.5858757756345057
 21
-10.0
 31
0.0
  0
LINE
  5
521
100
AcDbEntity
  8
0
  6
CONTINUOUS
 62
               7
100
AcDbLine
 10
8.5858757756345057
 20
-10.0
 30
0.0
 11
12.627327659961892
 21
-10.0
 31
0.0
  0
LINE
  5
522
100
AcDbEntity
  8
0
  6
CONTINUOUS
 62
               7
100
AcDbLine
 10
12.627327659961892
 20
-10.0
 30
0.0
 11
14.648053602125586
 21
-6.5
 31
0.0
  0
ARC
  5
523
100
AcDbEntity
  8
0
  6
CONTINUOUS
 62
               7
100
AcDbCircle
 10
10.606601717798199
 20
-6.5
 30
0.0
 40
4.75
100
AcDbArc
 50
22.342807841339578
 51
337.65719215865965
  0
ARC
  5
524
100
AcDbEntity
  8
0
  6
CONTINUOUS
 62
               7
100
AcDbCircle
 10
10.606601717798199
 20
-6.5
 30
0.0
 40
4.0
100
AcDbArc
 50
1.0449756281401477
 51
58.955024371859722
  0
ARC
  5
525
100
AcDbEntity
  8
0
  6
CONTINUOUS
 62
               7
100
AcDbCircle
 10
10.606601717798199
 20
-6.5
 30
0.0
 40
4.0
100
AcDbArc
 50
61.044975628139994
 51
118.95502437185961
  0
ARC
  5
526
100
AcDbEntity
  8
0
  6
CONTINUOUS
 62
               7
100
AcDbCircle
 10
10.606601717798199
 20
-6.5
 30
0.0
 40
4.0
100
AcDbArc
 50
121.04497562813988
 51
178.95502437185934
  0
ARC
  5
527
100
AcDbEntity
  8
0
  6
CONTINUOUS
 62
               7
100
AcDbCircle
 10
10.606601717798199
 20
-6.5
 30
0.0
 40
4.0
100
AcDbArc
 50
181.04497562813958
 51
238.95502437185922
  0
ARC
  5
528
100
AcDbEntity
  8
0
  6
CONTINUOUS
 62
               7
100
AcDbCircle
 10
10.606601717798199
 20
-6.5
 30
0.0
 40
4.0
100
AcDbArc
 50
241.04497562813958
 51
298.95502437185922
  0
ARC
  5
529
100
AcDbEntity
  8
0
  6
CONTINUOUS
 62
               7
100
AcDbCircle
 10
10.606601717798199
 20
-6.5
 30
0.0
 40
4.0
100
AcDbArc
 50
301.04497562813941
 51
358.95502437185911
  0
ARC
  5
52A
100
AcDbEntity
  8
0
  6
CONTINUOUS
 62
               7
100
AcDbCircle
 10
10.606601717798199
 20
-6.5
 30
0.0
 40
3.5
100
AcDbArc
 50
278.21321070173758
 51
81.786789298261581
  0
ARC
  5
52B
100
AcDbEntity
  8
0
  6
CONTINUOUS
 62
               7
100
AcDbCircle
 10
10.606601717798199
 20
-6.5
 30
0.0
 40
3.5
100
AcDbArc
 50
98.213210701737992
 51
261.78678929826128
  0
LINE
  5
52C
100
AcDbEntity
  8
0
  6
CENTER
 62
               2
100
AcDbLine
 10
0.0
 20
1.9999999908871189
 30
0.0
 11
0.0
 21
-19.699999997191952
 31
0.0
  0
LINE
  5
52D
100
AcDbEntity
  8
0
  6
CONTINUOUS
 62
               7
100
AcDbLine
 10
-9.0000000000000142
 20
-0.0000000091128811
 30
0.0
 11
-9.0000000000000142
 21
-11.000000009112881
 31
0.0
  0
LINE
  5
52E
100
AcDbEntity
  8
0
  6
CONTINUOUS
 62
               7
100
AcDbLine
 10
-15.000000009536748
 20
-11.0
 30
0.0
 11
-9.0000000000000142
 21
-11.0
 31
0.0
  0
LINE
  5
52F
100
AcDbEntity
  8
0
  6
CENTER
 62
               2
100
AcDbLine
 10
-7.0000000000000142
 20
-5.5322894090489285
 30
0.0
 11
-21.999999988148105
 21
-5.5322894090489285
 31
0.0
  0
LINE
  5
530
100
AcDbEntity
  8
0
  6
CONTINUOUS
 62
               7
100
AcDbLine
 10
-12.699999988148093
 20
-0.5322894090489285
 30
0.0
 11
-9.0000000000000142
 21
-0.5645788197713273
 31
0.0
  0
LINE
  5
531
100
AcDbEntity
  8
0
  6
CONTINUOUS
 62
               7
100
AcDbLine
 10
-12.699999988148093
 20
-10.532289410722342
 30
0.0
 11
-9.0000000000000142
 21
-10.5
 31
0.0
  0
LINE
  5
532
100
AcDbEntity
  8
0
  6
CONTINUOUS
 62
               7
100
AcDbLine
 10
-12.699999988148093
 20
-10.532289410722342
 30
0.0
 11
-12.699999988148093
 21
-0.5322894090489285
 31
0.0
  0
LINE
  5
533
100
AcDbEntity
  8
0
  6
CONTINUOUS
 62
               7
100
AcDbLine
 10
-19.999999988148105
 20
-9.9406382597265406
 30
0.0
 11
-19.999999988148105
 21
-1.1239405600447867
 31
0.0
  0
LINE
  5
534
100
AcDbEntity
  8
0
  6
CONTINUOUS
 62
               7
100
AcDbLine
 10
-18.799999988148116
 20
-3.6322894090489513
 30
0.0
 11
-19.999999988148105
 21
-3.6322894090489513
 31
0.0
  0
LINE
  5
535
100
AcDbEntity
  8
0
  6
CONTINUOUS
 62
               7
100
AcDbLine
 10
-18.799999988148116
 20
-3.6322894090489513
 30
0.0
 11
-18.799999988148116
 21
-0.5322894090489285
 31
0.0
  0
LINE
  5
536
100
AcDbEntity
  8
0
  6
CENTER
 62
               2
100
AcDbLine
 10
-18.195856974999217
 20
-2.0322894090489285
 30
0.0
 11
-20.39999998814811
 21
-2.0322894090489285
 31
0.0
  0
LINE
  5
537
100
AcDbEntity
  8
0
  6
CONTINUOUS
 62
               7
100
AcDbLine
 10
-12.699999988148093
 20
-10.532289410722342
 30
0.0
 11
-19.504363255897303
 21
-10.440619221258601
 31
0.0
  0
LINE
  5
538
100
AcDbEntity
  8
0
  6
CONTINUOUS
 62
               7
100
AcDbLine
 10
-12.699999988148093
 20
-0.5322894090489285
 30
0.0
 11
-18.799999988148116
 21
-0.6144702294615172
 31
0.0
  0
ARC
  5
539
100
AcDbEntity
  8
0
  6
CONTINUOUS
 62
               7
100
AcDbCircle
 10
-19.499999988148105
 20
-1.1239405600447867
 30
0.0
 40
0.5
100
AcDbArc
 50
90.500000000000071
 51
179.99999999999963
  0
ARC
  5
53A
100
AcDbEntity
  8
0
  6
CONTINUOUS
 62
               7
100
AcDbCircle
 10
-19.499999988148105
 20
-9.9406382597265406
 30
0.0
 40
0.5
100
AcDbArc
 50
179.99999999999963
 51
269.49999999999915
  0
LINE
  5
53B
100
AcDbEntity
  8
0
  6
CONTINUOUS
 62
               7
100
AcDbLine
 10
-19.39999998814811
 20
-3.0322894090489285
 30
0.0
 11
-19.39999998814811
 21
-1.0322894090489285
 31
0.0
  0
LINE
  5
53C
100
AcDbEntity
  8
0
  6
CONTINUOUS
 62
               7
100
AcDbLine
 10
-18.799999988148116
 20
-3.5322894090489285
 30
0.0
 11
-18.89999998814811
 21
-3.5322894090489285
 31
0.0
  0
LINE
  5
53D
100
AcDbEntity
  8
0
  6
CONTINUOUS
 62
               7
100
AcDbLine
 10
-18.799999988148116
 20
-0.5322894090489285
 30
0.0
 11
-18.89999998814811
 21
-0.5322894090489285
 31
0.0
  0
ARC
  5
53E
100
AcDbEntity
  8
0
  6
CONTINUOUS
 62
               7
100
AcDbCircle
 10
-18.89999998814811
 20
-3.0322894090489285
 30
0.0
 40
0.5
100
AcDbArc
 50
179.99999999999963
 51
269.99999999999937
  0
ARC
  5
53F
100
AcDbEntity
  8
0
  6
CONTINUOUS
 62
               7
100
AcDbCircle
 10
-18.89999998814811
 20
-1.0322894090489285
 30
0.0
 40
0.5
100
AcDbArc
 50
89.999999999999815
 51
179.99999999999963
  0
LINE
  5
540
100
AcDbEntity
  8
0
  6
CONTINUOUS
 62
               7
100
AcDbLine
 10
-19.182320272248589
 20
-0.6196209498889971
 30
0.0
 11
-19.504363255897303
 21
-0.6239595985126698
 31
0.0
  0
LINE
  5
541
100
AcDbEntity
  8
0
  6
CONTINUOUS
 62
               4
100
AcDbLine
 10
-3.5
 20
-18.0
 30
0.0
 11
3.5
 21
-18.0
 31
0.0
  0
LINE
  5
542
100
AcDbEntity
  8
0
  6
CONTINUOUS
 62
               4
100
AcDbLine
 10
3.5
 20
-17.0
 30
0.0
 11
3.5
 21
-18.0
 31
0.0
  0
LINE
  5
543
100
AcDbEntity
  8
0
  6
CONTINUOUS
 62
               4
100
AcDbLine
 10
-3.5
 20
-17.0
 30
0.0
 11
-3.5
 21
-18.0
 31
0.0
  0
LINE
  5
544
100
AcDbEntity
  8
0
  6
CONTINUOUS
 62
               7
100
AcDbLine
 10
15.0
 20
-16.799999999999983
 30
0.0
 11
-15.0
 21
-16.799999999999983
 31
0.0
  0
LINE
  5
545
100
AcDbEntity
  8
0
  6
CONTINUOUS
 62
               7
100
AcDbLine
 10
-15.0
 20
-16.799999999999983
 30
0.0
 11
-14.799999999999955
 21
-17.0
 31
0.0
  0
LINE
  5
546
100
AcDbEntity
  8
0
  6
CONTINUOUS
 62
               7
100
AcDbLine
 10
15.0
 20
-16.799999999999983
 30
0.0
 11
14.799999999999926
 21
-17.0
 31
0.0
  0
ENDBLK
  5
547
100
AcDbEntity
  8
0
100
AcDbBlockEnd
  0
BLOCK
  5
548
100
AcDbEntity
  8
0
100
AcDbBlockBegin
  2
NCT30-11
 70
               0
 10
0.0
 20
0.0
 30
0.0
  3
NCT30-11
  1

  0
LINE
  5
549
100
AcDbEntity
  8
0
  6
CONTINUOUS
 62
               7
100
AcDbLine
 10
-20.399999988148068
 20
5.3000000000000114
 30
0.0
 11
-19.999999988148033
 21
5.3000000000000114
 31
0.0
  0
LINE
  5
54A
100
AcDbEntity
  8
0
  6
CONTINUOUS
 62
               7
100
AcDbLine
 10
-20.399999988148068
 20
11.300000000000011
 30
0.0
 11
-19.999999988148033
 21
11.300000000000011
 31
0.0
  0
LINE
  5
54B
100
AcDbEntity
  8
0
  6
CONTINUOUS
 62
               7
100
AcDbLine
 10
-20.399999988148068
 20
11.300000000000011
 30
0.0
 11
-20.399999988148068
 21
5.3000000000000114
 31
0.0
  0
LINE
  5
54C
100
AcDbEntity
  8
0
  6
CONTINUOUS
 62
               7
100
AcDbLine
 10
-35.361880168009947
 20
8.3000000000000114
 30
0.0
 11
-36.899999988148011
 21
8.3000000000000114
 31
0.0
  0
LINE
  5
54D
100
AcDbEntity
  8
0
  6
CONTINUOUS
 62
               7
100
AcDbLine
 10
-32.899999988148039
 20
8.3000000000000114
 30
0.0
 11
-34.379999988148029
 21
8.3000000000000114
 31
0.0
  0
LINE
  5
54E
100
AcDbEntity
  8
0
  6
CONTINUOUS
 62
               7
100
AcDbLine
 10
-45.122649683083125
 20
4.5
 30
0.0
 11
-45.122649683083125
 21
6.1000000000000227
 31
0.0
  0
LINE
  5
54F
100
AcDbEntity
  8
0
  6
CONTINUOUS
 62
               7
100
AcDbLine
 10
-57.429633835914274
 20
6.1000000007438189
 30
0.0
 11
-57.429633835914274
 21
4.5
 31
0.0
  0
LINE
  5
550
100
AcDbEntity
  8
0
  6
CONTINUOUS
 62
               7
100
AcDbLine
 10
-57.629633835914262
 20
5.6000000007438189
 30
0.0
 11
-57.629633835914262
 21
5.0000000003719265
 31
0.0
  0
LINE
  5
551
100
AcDbEntity
  8
0
  6
CONTINUOUS
 62
               7
100
AcDbLine
 10
-57.429633846632896
 20
5.6000000003718924
 30
0.0
 11
-57.629633835914262
 21
5.6000000003718924
 31
0.0
  0
LINE
  5
552
100
AcDbEntity
  8
0
  6
CONTINUOUS
 62
               7
100
AcDbLine
 10
-57.429633846632896
 20
5.0000000003719265
 30
0.0
 11
-57.629633835914262
 21
5.0000000003719265
 31
0.0
  0
LINE
  5
553
100
AcDbEntity
  8
0
  6
CONTINUOUS
 62
               7
100
AcDbLine
 10
-46.575943539655043
 20
6.1000000007438189
 30
0.0
 11
-46.575943539655043
 21
4.5
 31
0.0
  0
LINE
  5
554
100
AcDbEntity
  8
0
  6
CONTINUOUS
 62
               7
100
AcDbLine
 10
-47.629633835914262
 20
6.1000000007438189
 30
0.0
 11
-47.629633835914262
 21
4.5
 31
0.0
  0
LINE
  5
555
100
AcDbEntity
  8
0
  6
CONTINUOUS
 62
               7
100
AcDbLine
 10
-50.429633835914274
 20
6.1000000007438189
 30
0.0
 11
-50.429633835914274
 21
4.5
 31
0.0
  0
LINE
  5
556
100
AcDbEntity
  8
0
  6
CONTINUOUS
 62
               7
100
AcDbLine
 10
-51.179633835914274
 20
6.1000000007438189
 30
0.0
 11
-51.179633835914274
 21
4.5
 31
0.0
  0
LINE
  5
557
100
AcDbEntity
  8
0
  6
CONTINUOUS
 62
               7
100
AcDbLine
 10
-53.429633835914274
 20
6.1000000007438189
 30
0.0
 11
-53.429633835914274
 21
4.5
 31
0.0
  0
LINE
  5
558
100
AcDbEntity
  8
0
  6
CONTINUOUS
 62
               7
100
AcDbLine
 10
-56.929633835914274
 20
6.1000000007438189
 30
0.0
 11
-56.929633835914274
 21
4.5
 31
0.0
  0
LINE
  5
559
100
AcDbEntity
  8
0
  6
CONTINUOUS
 62
               7
100
AcDbLine
 10
-57.429633835914274
 20
4.5
 30
0.0
 11
-45.122649683083125
 21
4.5
 31
0.0
  0
LINE
  5
55A
100
AcDbEntity
  8
0
  6
CONTINUOUS
 62
               7
100
AcDbLine
 10
-57.429633835914274
 20
6.1000000000000227
 30
0.0
 11
-45.122649683083125
 21
6.1000000000000227
 31
0.0
  0
LINE
  5
55B
100
AcDbEntity
  8
0
  6
CONTINUOUS
 62
               7
100
AcDbLine
 10
-45.122649683083125
 20
7.5
 30
0.0
 11
-45.122649683083125
 21
9.1000000000000227
 31
0.0
  0
LINE
  5
55C
100
AcDbEntity
  8
0
  6
CONTINUOUS
 62
               7
100
AcDbLine
 10
-57.429633835914274
 20
9.1000000007438189
 30
0.0
 11
-57.429633835914274
 21
7.5
 31
0.0
  0
LINE
  5
55D
100
AcDbEntity
  8
0
  6
CONTINUOUS
 62
               7
100
AcDbLine
 10
-57.629633835914262
 20
8.6000000007438189
 30
0.0
 11
-57.629633835914262
 21
8.0000000003719265
 31
0.0
  0
LINE
  5
55E
100
AcDbEntity
  8
0
  6
CONTINUOUS
 62
               7
100
AcDbLine
 10
-57.429633846632896
 20
8.6000000003718924
 30
0.0
 11
-57.629633835914262
 21
8.6000000003718924
 31
0.0
  0
LINE
  5
55F
100
AcDbEntity
  8
0
  6
CONTINUOUS
 62
               7
100
AcDbLine
 10
-57.429633846632896
 20
8.0000000003719265
 30
0.0
 11
-57.629633835914262
 21
8.0000000003719265
 31
0.0
  0
LINE
  5
560
100
AcDbEntity
  8
0
  6
CONTINUOUS
 62
               7
100
AcDbLine
 10
-46.575943539655043
 20
9.1000000007438189
 30
0.0
 11
-46.575943539655043
 21
7.5
 31
0.0
  0
LINE
  5
561
100
AcDbEntity
  8
0
  6
CONTINUOUS
 62
               7
100
AcDbLine
 10
-47.629633835914262
 20
9.1000000007438189
 30
0.0
 11
-47.629633835914262
 21
7.5
 31
0.0
  0
LINE
  5
562
100
AcDbEntity
  8
0
  6
CONTINUOUS
 62
               7
100
AcDbLine
 10
-50.429633835914274
 20
9.1000000007438189
 30
0.0
 11
-50.429633835914274
 21
7.5
 31
0.0
  0
LINE
  5
563
100
AcDbEntity
  8
0
  6
CONTINUOUS
 62
               7
100
AcDbLine
 10
-51.179633835914274
 20
9.1000000007438189
 30
0.0
 11
-51.179633835914274
 21
7.5
 31
0.0
  0
LINE
  5
564
100
AcDbEntity
  8
0
  6
CONTINUOUS
 62
               7
100
AcDbLine
 10
-53.429633835914274
 20
9.1000000007438189
 30
0.0
 11
-53.429633835914274
 21
7.5
 31
0.0
  0
LINE
  5
565
100
AcDbEntity
  8
0
  6
CONTINUOUS
 62
               7
100
AcDbLine
 10
-56.929633835914274
 20
9.1000000007438189
 30
0.0
 11
-56.929633835914274
 21
7.5
 31
0.0
  0
LINE
  5
566
100
AcDbEntity
  8
0
  6
CONTINUOUS
 62
               7
100
AcDbLine
 10
-57.429633835914274
 20
7.5
 30
0.0
 11
-45.122649683083125
 21
7.5
 31
0.0
  0
LINE
  5
567
100
AcDbEntity
  8
0
  6
CONTINUOUS
 62
               7
100
AcDbLine
 10
-57.429633835914274
 20
9.1000000000000227
 30
0.0
 11
-45.122649683083125
 21
9.1000000000000227
 31
0.0
  0
LINE
  5
568
100
AcDbEntity
  8
0
  6
CONTINUOUS
 62
               7
100
AcDbLine
 10
-56.929633835914274
 20
12.100000000743819
 30
0.0
 11
-56.929633835914274
 21
10.5
 31
0.0
  0
LINE
  5
569
100
AcDbEntity
  8
0
  6
CONTINUOUS
 62
               7
100
AcDbLine
 10
-53.429633835914274
 20
12.100000000743819
 30
0.0
 11
-53.429633835914274
 21
10.5
 31
0.0
  0
LINE
  5
56A
100
AcDbEntity
  8
0
  6
CONTINUOUS
 62
               7
100
AcDbLine
 10
-51.179633835914274
 20
12.100000000743819
 30
0.0
 11
-51.179633835914274
 21
10.5
 31
0.0
  0
LINE
  5
56B
100
AcDbEntity
  8
0
  6
CONTINUOUS
 62
               7
100
AcDbLine
 10
-50.429633835914274
 20
12.100000000743819
 30
0.0
 11
-50.429633835914274
 21
10.5
 31
0.0
  0
LINE
  5
56C
100
AcDbEntity
  8
0
  6
CONTINUOUS
 62
               7
100
AcDbLine
 10
-47.629633835914262
 20
12.100000000743819
 30
0.0
 11
-47.629633835914262
 21
10.5
 31
0.0
  0
LINE
  5
56D
100
AcDbEntity
  8
0
  6
CONTINUOUS
 62
               7
100
AcDbLine
 10
-46.575943539655043
 20
12.100000000743819
 30
0.0
 11
-46.575943539655043
 21
10.5
 31
0.0
  0
LINE
  5
56E
100
AcDbEntity
  8
0
  6
CONTINUOUS
 62
               7
100
AcDbLine
 10
-57.429633846632896
 20
11.000000000371926
 30
0.0
 11
-57.629633835914262
 21
11.000000000371926
 31
0.0
  0
LINE
  5
56F
100
AcDbEntity
  8
0
  6
CONTINUOUS
 62
               7
100
AcDbLine
 10
-57.429633846632896
 20
11.600000000371892
 30
0.0
 11
-57.629633835914262
 21
11.600000000371892
 31
0.0
  0
LINE
  5
570
100
AcDbEntity
  8
0
  6
CONTINUOUS
 62
               7
100
AcDbLine
 10
-57.629633835914262
 20
11.600000000743819
 30
0.0
 11
-57.629633835914262
 21
11.000000000371926
 31
0.0
  0
LINE
  5
571
100
AcDbEntity
  8
0
  6
CONTINUOUS
 62
               7
100
AcDbLine
 10
-57.429633835914274
 20
12.100000000743819
 30
0.0
 11
-57.429633835914274
 21
10.5
 31
0.0
  0
LINE
  5
572
100
AcDbEntity
  8
0
  6
CONTINUOUS
 62
               7
100
AcDbLine
 10
-57.429633835914274
 20
10.5
 30
0.0
 11
-45.122649683083125
 21
10.5
 31
0.0
  0
LINE
  5
573
100
AcDbEntity
  8
0
  6
CONTINUOUS
 62
               7
100
AcDbLine
 10
-57.429633835914274
 20
12.100000000000023
 30
0.0
 11
-45.122649683083125
 21
12.100000000000023
 31
0.0
  0
LINE
  5
574
100
AcDbEntity
  8
0
  6
PHANTOM
 62
               2
100
AcDbLine
 10
-34.495854765176716
 20
9.7999999994651716
 30
0.0
 11
-36.227905571460667
 21
6.7999999994651716
 31
0.0
  0
ARC
  5
575
100
AcDbEntity
  8
0
  6
CONTINUOUS
 62
               7
100
AcDbCircle
 10
-35.258994484654409
 20
5.4499999999999886
 30
0.0
 40
2.0
100
AcDbArc
 50
109.20488889817132
 51
119.99999999999982
  0
ARC
  5
576
100
AcDbEntity
  8
0
  6
CONTINUOUS
 62
               7
100
AcDbCircle
 10
-35.473353838599337
 20
6.25
 30
0.0
 40
2.0
100
AcDbArc
 50
89.999999999999815
 51
119.99999999999973
  0
ARC
  5
577
100
AcDbEntity
  8
0
  6
CONTINUOUS
 62
               7
100
AcDbCircle
 10
-35.473353838599337
 20
10.350000000000023
 30
0.0
 40
2.0
100
AcDbArc
 50
239.99999999999946
 51
269.99999999999937
  0
ARC
  5
578
100
AcDbEntity
  8
0
  6
CONTINUOUS
 62
               7
100
AcDbCircle
 10
-35.258994484654409
 20
11.149999999999977
 30
0.0
 40
2.0
100
AcDbArc
 50
239.99999999999946
 51
269.99999999999937
  0
LINE
  5
579
100
AcDbEntity
  8
0
  6
CONTINUOUS
 62
               7
100
AcDbLine
 10
-45.122649683083125
 20
7.8999999999999773
 30
0.0
 11
-36.615470006110684
 21
7.8999999999999773
 31
0.0
  0
LINE
  5
57A
100
AcDbEntity
  8
0
  6
CONTINUOUS
 62
               7
100
AcDbLine
 10
-45.122649683083125
 20
8.6999999999999886
 30
0.0
 11
-36.615470006110684
 21
8.6999999999999886
 31
0.0
  0
LINE
  5
57B
100
AcDbEntity
  8
0
  6
CONTINUOUS
 62
               7
100
AcDbLine
 10
-35.390747681447976
 20
8.25
 30
0.0
 11
-35.473353838599337
 21
8.25
 31
0.0
  0
LINE
  5
57C
100
AcDbEntity
  8
0
  6
CONTINUOUS
 62
               7
100
AcDbLine
 10
-35.33301265457186
 20
8.3500000000000227
 30
0.0
 11
-35.473353838599337
 21
8.3500000000000227
 31
0.0
  0
LINE
  5
57D
100
AcDbEntity
  8
0
  6
CONTINUOUS
 62
               7
100
AcDbLine
 10
-34.871132439562814
 20
9.1499999999999773
 30
0.0
 11
-35.258994484654409
 21
9.1499999999999773
 31
0.0
  0
LINE
  5
57E
100
AcDbEntity
  8
0
  6
CONTINUOUS
 62
               7
100
AcDbLine
 10
-45.122649683083125
 20
5.6999999999999886
 30
0.0
 11
-41.765727744917854
 21
5.6999999999999886
 31
0.0
  0
LINE
  5
57F
100
AcDbEntity
  8
0
  6
CONTINUOUS
 62
               7
100
AcDbLine
 10
-45.122649683083125
 20
4.8999999999999773
 30
0.0
 11
-41.551368390972925
 21
4.8999999999999773
 31
0.0
  0
LINE
  5
580
100
AcDbEntity
  8
0
  6
CONTINUOUS
 62
               7
100
AcDbLine
 10
-45.122649683083125
 20
10.5
 30
0.0
 11
-45.122649683083125
 21
12.100000000000023
 31
0.0
  0
LINE
  5
581
100
AcDbEntity
  8
0
  6
CONTINUOUS
 62
               7
100
AcDbLine
 10
-45.122649683083125
 20
11.699999999999989
 30
0.0
 11
-41.551368390972925
 21
11.699999999999989
 31
0.0
  0
LINE
  5
582
100
AcDbEntity
  8
0
  6
CONTINUOUS
 62
               7
100
AcDbLine
 10
-45.122649683083125
 20
10.899999999999977
 30
0.0
 11
-41.765727744917854
 21
10.899999999999977
 31
0.0
  0
LINE
  5
583
100
AcDbEntity
  8
0
  6
CONTINUOUS
 62
               7
100
AcDbLine
 10
-36.258994484654409
 20
7.1820508075688849
 30
0.0
 11
-39.051368390972925
 21
5.5698729810778218
 31
0.0
  0
LINE
  5
584
100
AcDbEntity
  8
0
  6
CONTINUOUS
 62
               7
100
AcDbLine
 10
-36.473353838599337
 20
7.9820508075688394
 30
0.0
 11
-39.265727744917854
 21
6.3698729810778332
 31
0.0
  0
LINE
  5
585
100
AcDbEntity
  8
0
  6
CONTINUOUS
 62
               7
100
AcDbLine
 10
-36.258994484654409
 20
9.4179491924311378
 30
0.0
 11
-39.051368390972925
 21
11.030127018922201
 31
0.0
  0
LINE
  5
586
100
AcDbEntity
  8
0
  6
CONTINUOUS
 62
               7
100
AcDbLine
 10
-36.473353838599337
 20
8.6179491924311264
 30
0.0
 11
-39.265727744917854
 21
10.23012701892219
 31
0.0
  0
ARC
  5
587
100
AcDbEntity
  8
0
  6
CONTINUOUS
 62
               7
100
AcDbCircle
 10
-41.765727744917854
 20
10.699999999999989
 30
0.0
 40
5.0
100
AcDbArc
 50
269.99999999999937
 51
299.99999999999932
  0
ARC
  5
588
100
AcDbEntity
  8
0
  6
CONTINUOUS
 62
               7
100
AcDbCircle
 10
-41.551368390972925
 20
9.8999999999999773
 30
0.0
 40
5.0
100
AcDbArc
 50
269.99999999999937
 51
299.99999999999932
  0
ARC
  5
589
100
AcDbEntity
  8
0
  6
CONTINUOUS
 62
               7
100
AcDbCircle
 10
-41.765727744917854
 20
5.8999999999999773
 30
0.0
 40
5.0
100
AcDbArc
 50
59.999999999999865
 51
89.999999999999815
  0
ARC
  5
58A
100
AcDbEntity
  8
0
  6
CONTINUOUS
 62
               7
100
AcDbCircle
 10
-41.551368390972925
 20
6.6999999999999886
 30
0.0
 40
5.0
100
AcDbArc
 50
59.999999999999865
 51
89.999999999999815
  0
LINE
  5
58B
100
AcDbEntity
  8
0
  6
CONTINUOUS
 62
               7
100
AcDbLine
 10
-32.899999988148011
 20
8.3500000000000227
 30
0.0
 11
-34.409252269136459
 21
8.3500000000000227
 31
0.0
  0
LINE
  5
58C
100
AcDbEntity
  8
0
  6
CONTINUOUS
 62
               7
100
AcDbLine
 10
-32.899999988148011
 20
9.1499999999999773
 30
0.0
 11
-33.947372054742118
 21
9.1499999999999773
 31
0.0
  0
LINE
  5
58D
100
AcDbEntity
  8
0
  6
CONTINUOUS
 62
               7
100
AcDbLine
 10
-32.899999988148011
 20
8.25
 30
0.0
 11
-34.46698729593578
 21
8.25
 31
0.0
  0
LINE
  5
58E
100
AcDbEntity
  8
0
  6
CONTINUOUS
 62
               7
100
AcDbLine
 10
-32.899999988148011
 20
7.4499999999999886
 30
0.0
 11
-34.928867510330065
 21
7.4499999999999886
 31
0.0
  0
LINE
  5
58F
100
AcDbEntity
  8
0
  6
PHANTOM
 62
               2
100
AcDbLine
 10
-33.572094380855503
 20
9.7999999994651716
 30
0.0
 11
-35.304145202040615
 21
6.7999999696628493
 31
0.0
  0
LINE
  5
590
100
AcDbEntity
  8
0
  6
CONTINUOUS
 62
               7
100
AcDbLine
 10
-27.399999988148011
 20
10.300000000000011
 30
0.0
 11
-27.399999988148011
 21
6.3000000000000114
 31
0.0
  0
LINE
  5
591
100
AcDbEntity
  8
0
  6
CONTINUOUS
 62
               7
100
AcDbLine
 10
-27.399999988148011
 20
6.3000000000000114
 30
0.0
 11
-25.399999988148011
 21
6.0142857142857338
 31
0.0
  0
LINE
  5
592
100
AcDbEntity
  8
0
  6
CONTINUOUS
 62
               7
100
AcDbLine
 10
-27.399999988148011
 20
10.300000000000011
 30
0.0
 11
-25.399999988148011
 21
10.585714285714289
 31
0.0
  0
LINE
  5
593
100
AcDbEntity
  8
0
  6
CONTINUOUS
 62
               7
100
AcDbLine
 10
-25.399999988148011
 20
10.585714285714289
 30
0.0
 11
-25.399999988148011
 21
6.0142857142857338
 31
0.0
  0
LINE
  5
594
100
AcDbEntity
  8
0
  6
CONTINUOUS
 62
               7
100
AcDbLine
 10
-24.399999988148068
 20
10.728571428571399
 30
0.0
 11
-24.399999988148068
 21
5.8714285714285666
 31
0.0
  0
LINE
  5
595
100
AcDbEntity
  8
0
  6
CONTINUOUS
 62
               7
100
AcDbLine
 10
-22.899999988148068
 20
10.942857142857179
 30
0.0
 11
-22.899999988148068
 21
5.6571428571428442
 31
0.0
  0
LINE
  5
596
100
AcDbEntity
  8
0
  6
CONTINUOUS
 62
               7
100
AcDbLine
 10
-21.899999988148068
 20
11.085714285714289
 30
0.0
 11
-21.899999988148068
 21
5.5142857142857338
 31
0.0
  0
LINE
  5
597
100
AcDbEntity
  8
0
  6
CONTINUOUS
 62
               7
100
AcDbLine
 10
-24.399999988148068
 20
5.8714285714285666
 30
0.0
 11
-22.899999988148068
 21
5.6571428571428442
 31
0.0
  0
LINE
  5
598
100
AcDbEntity
  8
0
  6
CONTINUOUS
 62
               7
100
AcDbLine
 10
-24.399999988148068
 20
10.728571428571399
 30
0.0
 11
-22.899999988148068
 21
10.942857142857179
 31
0.0
  0
LINE
  5
599
100
AcDbEntity
  8
0
  6
CONTINUOUS
 62
               7
100
AcDbLine
 10
-25.399999988148011
 20
6.5500000000000114
 30
0.0
 11
-24.399999988148068
 21
6.5500000000000114
 31
0.0
  0
LINE
  5
59A
100
AcDbEntity
  8
0
  6
CONTINUOUS
 62
               7
100
AcDbLine
 10
-25.399999988148011
 20
10.050000000000011
 30
0.0
 11
-24.399999988148068
 21
10.050000000000011
 31
0.0
  0
LINE
  5
59B
100
AcDbEntity
  8
0
  6
CONTINUOUS
 62
               7
100
AcDbLine
 10
-22.899999988148068
 20
6.5500000000000114
 30
0.0
 11
-21.899999988148068
 21
6.5500000000000114
 31
0.0
  0
LINE
  5
59C
100
AcDbEntity
  8
0
  6
CONTINUOUS
 62
               7
100
AcDbLine
 10
-22.899999988148068
 20
10.050000000000011
 30
0.0
 11
-21.899999988148068
 21
10.050000000000011
 31
0.0
  0
LINE
  5
59D
100
AcDbEntity
  8
0
  6
CONTINUOUS
 62
               7
100
AcDbLine
 10
-32.899999988148011
 20
9.6000000000000227
 30
0.0
 11
-32.899999988148011
 21
7.0
 31
0.0
  0
LINE
  5
59E
100
AcDbEntity
  8
0
  6
CONTINUOUS
 62
               7
100
AcDbLine
 10
-27.399999988148011
 20
9.6000000000000227
 30
0.0
 11
-28.937564439240305
 21
9.6000000000000227
 31
0.0
  0
LINE
  5
59F
100
AcDbEntity
  8
0
  6
CONTINUOUS
 62
               7
100
AcDbLine
 10
-27.399999988148011
 20
7.0
 30
0.0
 11
-30.438675139133352
 21
7.0
 31
0.0
  0
LINE
  5
5A0
100
AcDbEntity
  8
0
  6
CONTINUOUS
 62
               7
100
AcDbLine
 10
-29.861324838462679
 20
9.6000000000000227
 30
0.0
 11
-32.899999988148011
 21
9.6000000000000227
 31
0.0
  0
LINE
  5
5A1
100
AcDbEntity
  8
0
  6
CONTINUOUS
 62
               7
100
AcDbLine
 10
-31.362435538355726
 20
7.0
 30
0.0
 11
-32.899999988148011
 21
7.0
 31
0.0
  0
LINE
  5
5A2
100
AcDbEntity
  8
0
  6
PHANTOM
 62
               2
100
AcDbLine
 10
-29.514914676546994
 20
10.200000005425636
 30
0.0
 11
-31.708845719695034
 21
6.3999999637023848
 31
0.0
  0
LINE
  5
5A3
100
AcDbEntity
  8
0
  6
PHANTOM
 62
               2
100
AcDbLine
 10
-28.59115427732462
 20
10.199999975623314
 30
0.0
 11
-30.785085305571499
 21
6.3999999637023848
 31
0.0
  0
LINE
  5
5A4
100
AcDbEntity
  8
0
  6
CENTER
 62
               2
100
AcDbLine
 10
-32.899999988148011
 20
8.3000000000000114
 30
0.0
 11
-18.799999988148045
 21
8.3000000000000114
 31
0.0
  0
LINE
  5
5A5
100
AcDbEntity
  8
0
  6
CONTINUOUS
 62
               7
100
AcDbLine
 10
-21.899999988148068
 20
11.085714285714289
 30
0.0
 11
-20.399999988148068
 21
11.300000000000011
 31
0.0
  0
LINE
  5
5A6
100
AcDbEntity
  8
0
  6
CONTINUOUS
 62
               7
100
AcDbLine
 10
-21.899999988148068
 20
5.5142857142857338
 30
0.0
 11
-20.399999988148068
 21
5.3000000000000114
 31
0.0
  0
LINE
  5
5A7
100
AcDbEntity
  8
0
  6
CENTER
 62
               2
100
AcDbLine
 10
-23.230084930827189
 20
-0.0000000000000142
 30
0.0
 11
17.193376937818158
 21
-0.0000000000000142
 31
0.0
  0
LINE
  5
5A8
100
AcDbEntity
  8
0
  6
CONTINUOUS
 62
               7
100
AcDbLine
 10
-12.699999988148065
 20
11.999999999999972
 30
0.0
 11
-8.9999999999999716
 21
11.96771058927763
 31
0.0
  0
LINE
  5
5A9
100
AcDbEntity
  8
0
  6
CONTINUOUS
 62
               7
100
AcDbLine
 10
-12.699999988148065
 20
-8.0000000000000284
 30
0.0
 11
-8.9999999999999716
 21
-7.9677105892776865
 31
0.0
  0
LINE
  5
5AA
100
AcDbEntity
  8
0
  6
DASHED
 62
               2
100
AcDbLine
 10
6.7528697603315351
 20
-12.480434687942605
 30
0.0
 11
5.3386561979584428
 21
-11.066221125569498
 31
0.0
  0
ARC
  5
5AB
100
AcDbEntity
  8
0
  6
DASHED
 62
               2
100
AcDbCircle
 10
6.9056845717351223
 20
-6.8787258008815542
 30
0.0
 40
4.363929581700825
100
AcDbArc
 50
286.99521341413669
 51
308.16884500145608
  0
LINE
  5
5AC
100
AcDbEntity
  8
0
  6
DASHED
 62
               2
100
AcDbLine
 10
9.6166522241370558
 20
-10.323759005323623
 30
0.0
 11
7.4599765415180741
 21
-12.480434687942605
 31
0.0
  0
ARC
  5
5AD
100
AcDbEntity
  8
0
  6
DASHED
 62
               2
100
AcDbCircle
 10
1.5866317625257409
 20
-8.6184109863969383
 30
0.0
 40
7.0293247160888015
100
AcDbArc
 50
326.67304037350175
 51
339.74392856765854
  0
LINE
  5
5AE
100
AcDbEntity
  8
0
  6
DASHED
 62
               2
100
AcDbLine
 10
7.4599765415180741
 20
-12.480434687942605
 30
0.0
 11
6.7528697603315351
 21
-12.480434687942605
 31
0.0
  0
LINE
  5
5AF
100
AcDbEntity
  8
0
  6
DASHED
 62
               2
100
AcDbLine
 10
4.9497474683058442
 20
-10.606601717798256
 30
0.0
 11
5.3740115370177648
 21
-11.030865786510176
 31
0.0
  0
LINE
  5
5B0
100
AcDbEntity
  8
0
  6
DASHED
 62
               2
100
AcDbLine
 10
9.6166522241370558
 20
-10.323759005323623
 30
0.0
 11
8.5559920523572259
 21
-9.2630988335437934
 31
0.0
  0
LINE
  5
5B1
100
AcDbEntity
  8
0
  6
DASHED
 62
               2
100
AcDbLine
 10
8.1812254583283561
 20
-11.05207898994577
 30
0.0
 11
6.7670118959552639
 21
-9.6378654275726774
 31
0.0
  0
LINE
  5
5B2
100
AcDbEntity
  8
0
  6
DASHED
 62
               2
100
AcDbLine
 10
11.052078989945741
 20
-8.1812254583283845
 30
0.0
 11
9.637865427572649
 21
-6.7670118959552923
 31
0.0
  0
ARC
  5
5B3
100
AcDbEntity
  8
0
  6
DASHED
 62
               2
100
AcDbCircle
 10
8.6191156083133933
 20
-1.5880271902427268
 30
0.0
 40
7.0277716396203269
100
AcDbArc
 50
290.25462085736189
 51
303.32841020147521
  0
LINE
  5
5B4
100
AcDbEntity
  8
0
  6
DASHED
 62
               2
100
AcDbLine
 10
12.480434687942562
 20
-6.7528697603315635
 30
0.0
 11
12.480434687942562
 21
-7.4599765415181167
 31
0.0
  0
LINE
  5
5B5
100
AcDbEntity
  8
0
  6
DASHED
 62
               2
100
AcDbLine
 10
9.5459415460183976
 20
-6.0104076400856883
 30
0.0
 11
7.1806963966499211
 21
-3.6451624907171976
 31
0.0
  0
LINE
  5
5B6
100
AcDbEntity
  8
0
  6
DASHED
 62
               2
100
AcDbLine
 10
6.0104076400856599
 20
-9.545941546018426
 30
0.0
 11
3.8244446452891054
 21
-7.3599785512218574
 31
0.0
  0
LINE
  5
5B7
100
AcDbEntity
  8
0
  6
DASHED
 62
               2
100
AcDbLine
 10
6.2932503525602783
 20
-9.2630988335438076
 30
0.0
 11
3.9280052031917876
 21
-6.8978536841753311
 31
0.0
  0
LINE
  5
5B8
100
AcDbEntity
  8
0
  6
DASHED
 62
               2
100
AcDbLine
 10
9.2630988335437792
 20
-6.2932503525603067
 30
0.0
 11
6.5791298538252079
 21
-3.6092813728417497
 31
0.0
  0
LINE
  5
5B9
100
AcDbEntity
  8
0
  6
DASHED
 62
               2
100
AcDbLine
 10
11.136931803688128
 20
-4.4194173824159435
 30
0.0
 11
4.4194173824159293
 21
-11.136931803688157
 31
0.0
  0
LINE
  5
5BA
100
AcDbEntity
  8
0
  6
DASHED
 62
               2
100
AcDbLine
 10
11.06622112556947
 20
-5.3386561979584712
 30
0.0
 11
5.3386561979584428
 21
-11.066221125569498
 31
0.0
  0
LINE
  5
5BB
100
AcDbEntity
  8
0
  6
DASHED
 62
               2
100
AcDbLine
 10
9.2630988335437792
 20
-8.5559920523572686
 30
0.0
 11
8.5559920523572259
 21
-9.2630988335437934
 31
0.0
  0
ARC
  5
5BC
100
AcDbEntity
  8
0
  6
DASHED
 62
               2
100
AcDbCircle
 10
6.8774184484742449
 20
-6.9050016264477421
 30
0.0
 40
4.3653794686807261
100
AcDbArc
 50
321.83471178066645
 51
343.001229803738
  0
LINE
  5
5BD
100
AcDbEntity
  8
0
  6
DASHED
 62
               2
100
AcDbLine
 10
12.480434687942562
 20
-7.4599765415181167
 30
0.0
 11
10.323759005323595
 21
-9.61665222413707
 31
0.0
  0
LINE
  5
5BE
100
AcDbEntity
  8
0
  6
DASHED
 62
               2
100
AcDbLine
 10
12.480434687942562
 20
-6.7528697603315635
 30
0.0
 11
11.06622112556947
 21
-5.3386561979584712
 31
0.0
  0
LINE
  5
5BF
100
AcDbEntity
  8
0
  6
DASHED
 62
               2
100
AcDbLine
 10
10.323759005323595
 20
-9.61665222413707
 30
0.0
 11
9.2630988335437792
 21
-8.5559920523572686
 31
0.0
  0
LINE
  5
5C0
100
AcDbEntity
  8
0
  6
CONTINUOUS
 62
               7
100
AcDbLine
 10
-8.9999999999999716
 20
-12.000000000000028
 30
0.0
 11
-8.9999999999999716
 21
11.96771058927763
 31
0.0
  0
LINE
  5
5C1
100
AcDbEntity
  8
0
  6
DASHED
 62
               2
100
AcDbLine
 10
6.0104076400856599
 20
9.5459415460183834
 30
0.0
 11
3.6451624907171833
 21
7.1806963966499211
 31
0.0
  0
LINE
  5
5C2
100
AcDbEntity
  8
0
  6
DASHED
 62
               2
100
AcDbLine
 10
9.5459415460183834
 20
6.0104076400856457
 30
0.0
 11
7.3599785512218432
 21
3.824444645289077
 31
0.0
  0
LINE
  5
5C3
100
AcDbEntity
  8
0
  6
DASHED
 62
               2
100
AcDbLine
 10
9.2630988335437792
 20
6.2932503525602783
 30
0.0
 11
6.8978536841752884
 21
3.9280052031917876
 31
0.0
  0
LINE
  5
5C4
100
AcDbEntity
  8
0
  6
DASHED
 62
               2
100
AcDbLine
 10
6.2932503525602783
 20
9.2630988335437792
 30
0.0
 11
3.609281372841707
 21
6.5791298538251795
 31
0.0
  0
LINE
  5
5C5
100
AcDbEntity
  8
0
  6
DASHED
 62
               2
100
AcDbLine
 10
4.4194173824159293
 20
11.136931803688128
 30
0.0
 11
11.136931803688128
 21
4.4194173824159293
 31
0.0
  0
CIRCLE
  5
5C6
100
AcDbEntity
  8
0
  6
CONTINUOUS
 62
               7
100
AcDbCircle
 10
11.0
 20
-0.0000000000000142
 30
0.0
 40
1.6499999999999999
  0
CIRCLE
  5
5C7
100
AcDbEntity
  8
0
  6
CONTINUOUS
 62
               7
100
AcDbCircle
 10
0.0
 20
-11.0
 30
0.0
 40
1.6499999999999999
  0
CIRCLE
  5
5C8
100
AcDbEntity
  8
0
  6
CONTINUOUS
 62
               7
100
AcDbCircle
 10
0.0
 20
11.0
 30
0.0
 40
1.6499999999999999
  0
CIRCLE
  5
5C9
100
AcDbEntity
  8
0
  6
CONTINUOUS
 62
               2
100
AcDbCircle
 10
11.0
 20
-0.0000000000000142
 30
0.0
 40
2.0
  0
CIRCLE
  5
5CA
100
AcDbEntity
  8
0
  6
CONTINUOUS
 62
               2
100
AcDbCircle
 10
0.0
 20
-11.0
 30
0.0
 40
2.0
  0
CIRCLE
  5
5CB
100
AcDbEntity
  8
0
  6
CONTINUOUS
 62
               2
100
AcDbCircle
 10
0.0
 20
11.0
 30
0.0
 40
2.0
  0
CIRCLE
  5
5CC
100
AcDbEntity
  8
0
  6
CENTER
 62
               2
100
AcDbCircle
 10
0.0
 20
-0.0000000000000142
 30
0.0
 40
11.0
  0
LINE
  5
5CD
100
AcDbEntity
  8
0
  6
DASHED
 62
               2
100
AcDbLine
 10
10.606601717798213
 20
4.9497474683058158
 30
0.0
 11
11.030865786510148
 21
5.3740115370177364
 31
0.0
  0
LINE
  5
5CE
100
AcDbEntity
  8
0
  6
DASHED
 62
               2
100
AcDbLine
 10
4.9497474683058442
 20
10.606601717798185
 30
0.0
 11
5.3740115370177648
 21
11.030865786510134
 31
0.0
  0
LINE
  5
5CF
100
AcDbEntity
  8
0
  6
DASHED
 62
               2
100
AcDbLine
 10
5.3386561979584428
 20
11.066221125569456
 30
0.0
 11
11.06622112556947
 21
5.3386561979584144
 31
0.0
  0
LINE
  5
5D0
100
AcDbEntity
  8
0
  6
DASHED
 62
               2
100
AcDbLine
 10
8.5559920523572259
 20
9.2630988335437792
 30
0.0
 11
9.2630988335437792
 21
8.5559920523572259
 31
0.0
  0
LINE
  5
5D1
100
AcDbEntity
  8
0
  6
DASHED
 62
               2
100
AcDbLine
 10
12.480434687942562
 20
7.4599765415180741
 30
0.0
 11
12.480434687942562
 21
6.7528697603315209
 31
0.0
  0
ARC
  5
5D2
100
AcDbEntity
  8
0
  6
DASHED
 62
               2
100
AcDbCircle
 10
8.618410986396924
 20
1.5866317625257267
 30
0.0
 40
7.0293247160888015
100
AcDbArc
 50
56.673040373502339
 51
69.743928567659154
  0
LINE
  5
5D3
100
AcDbEntity
  8
0
  6
DASHED
 62
               2
100
AcDbLine
 10
10.323759005323609
 20
9.6166522241370558
 30
0.0
 11
12.480434687942562
 21
7.4599765415180741
 31
0.0
  0
ARC
  5
5D4
100
AcDbEntity
  8
0
  6
DASHED
 62
               2
100
AcDbCircle
 10
6.8787258008815115
 20
6.9056845717350939
 30
0.0
 40
4.363929581700825
100
AcDbArc
 50
16.995213414137279
 51
38.168845001456681
  0
LINE
  5
5D5
100
AcDbEntity
  8
0
  6
DASHED
 62
               2
100
AcDbLine
 10
10.323759005323609
 20
9.6166522241370558
 30
0.0
 11
9.2630988335437792
 21
8.5559920523572259
 31
0.0
  0
LINE
  5
5D6
100
AcDbEntity
  8
0
  6
DASHED
 62
               2
100
AcDbLine
 10
12.480434687942562
 20
6.7528697603315209
 30
0.0
 11
11.06622112556947
 21
5.3386561979584144
 31
0.0
  0
LINE
  5
5D7
100
AcDbEntity
  8
0
  6
DASHED
 62
               2
100
AcDbLine
 10
11.052078989945741
 20
8.1812254583283561
 30
0.0
 11
9.637865427572649
 21
6.7670118959552497
 31
0.0
  0
LINE
  5
5D8
100
AcDbEntity
  8
0
  6
DASHED
 62
               2
100
AcDbLine
 10
6.7528697603315351
 20
12.480434687942534
 30
0.0
 11
7.4599765415180741
 21
12.480434687942534
 31
0.0
  0
ARC
  5
5D9
100
AcDbEntity
  8
0
  6
DASHED
 62
               2
100
AcDbCircle
 10
6.9050016264477279
 20
6.8774184484742307
 30
0.0
 40
4.3653794686807261
100
AcDbArc
 50
51.834711780667043
 51
73.001229803738639
  0
ARC
  5
5DA
100
AcDbEntity
  8
0
  6
DASHED
 62
               2
100
AcDbCircle
 10
1.5880271902426841
 20
8.6191156083133933
 30
0.0
 40
7.0277716396203269
100
AcDbArc
 50
20.2546208573625
 51
33.328410201475762
  0
LINE
  5
5DB
100
AcDbEntity
  8
0
  6
DASHED
 62
               2
100
AcDbLine
 10
7.4599765415180741
 20
12.480434687942534
 30
0.0
 11
9.6166522241370558
 21
10.323759005323581
 31
0.0
  0
LINE
  5
5DC
100
AcDbEntity
  8
0
  6
DASHED
 62
               2
100
AcDbLine
 10
8.1812254583283561
 20
11.052078989945727
 30
0.0
 11
6.7670118959552639
 21
9.637865427572649
 31
0.0
  0
LINE
  5
5DD
100
AcDbEntity
  8
0
  6
DASHED
 62
               2
100
AcDbLine
 10
6.7528697603315351
 20
12.480434687942534
 30
0.0
 11
5.3386561979584428
 21
11.066221125569456
 31
0.0
  0
LINE
  5
5DE
100
AcDbEntity
  8
0
  6
DASHED
 62
               2
100
AcDbLine
 10
9.6166522241370558
 20
10.323759005323581
 30
0.0
 11
8.5559920523572259
 21
9.2630988335437792
 31
0.0
  0
CIRCLE
  5
5DF
100
AcDbEntity
  8
0
  6
CONTINUOUS
 62
               2
100
AcDbCircle
 10
0.0
 20
-0.0000000000000142
 30
0.0
 40
2.5
  0
CIRCLE
  5
5E0
100
AcDbEntity
  8
0
  6
CONTINUOUS
 62
               7
100
AcDbCircle
 10
0.0
 20
-0.0000000000000142
 30
0.0
 40
2.1000000000000001
  0
ARC
  5
5E1
100
AcDbEntity
  8
0
  6
CONTINUOUS
 62
               7
100
AcDbCircle
 10
0.0
 20
-0.0000000000000142
 30
0.0
 40
13.999999999999996
100
AcDbArc
 50
229.99479911513939
 51
130.00520088485979
  0
ARC
  5
5E2
100
AcDbEntity
  8
0
  6
CONTINUOUS
 62
               7
100
AcDbCircle
 10
0.0
 20
-0.0000000000000142
 30
0.0
 40
15.0
100
AcDbArc
 50
212.23165347074774
 51
126.86989764584351
  0
LINE
  5
5E3
100
AcDbEntity
  8
0
  6
CENTER
 62
               2
100
AcDbLine
 10
0.0
 20
0.0
 30
0.0
 11
12.020815280171306
 21
-12.020815280171306
 31
0.0
  0
LINE
  5
5E4
100
AcDbEntity
  8
0
  6
CENTER
 62
               2
100
AcDbLine
 10
0.0
 20
17.0
 30
0.0
 11
0.0
 21
-17.000000000000014
 31
0.0
  0
LINE
  5
5E5
100
AcDbEntity
  8
0
  6
CENTER
 62
               2
100
AcDbLine
 10
12.086209641638504
 20
12.086209641638504
 30
0.0
 11
0.0
 21
-0.0000000000000142
 31
0.0
  0
LINE
  5
5E6
100
AcDbEntity
  8
0
  6
CONTINUOUS
 62
               7
100
AcDbLine
 10
-19.182320272248518
 20
-7.9126684591599599
 30
0.0
 11
-19.50436325589726
 21
-7.9083298105363014
 31
0.0
  0
LINE
  5
5E7
100
AcDbEntity
  8
0
  6
CONTINUOUS
 62
               7
100
AcDbLine
 10
-18.799999988148059
 20
-8.0000000000000284
 30
0.0
 11
-18.899999988148068
 21
-8.0000000000000142
 31
0.0
  0
ARC
  5
5E8
100
AcDbEntity
  8
0
  6
CONTINUOUS
 62
               7
100
AcDbCircle
 10
-18.899999988148068
 20
-7.5000000000000284
 30
0.0
 40
0.5
100
AcDbArc
 50
179.99999999999963
 51
269.99999999999937
  0
ARC
  5
5E9
100
AcDbEntity
  8
0
  6
CONTINUOUS
 62
               7
100
AcDbCircle
 10
-18.899999988148068
 20
-5.5000000000000142
 30
0.0
 40
0.5
100
AcDbArc
 50
89.999999999999815
 51
179.99999999999963
  0
LINE
  5
5EA
100
AcDbEntity
  8
0
  6
CONTINUOUS
 62
               7
100
AcDbLine
 10
-18.799999988148059
 20
-5.0000000000000142
 30
0.0
 11
-18.899999988148068
 21
-5.0000000000000284
 31
0.0
  0
LINE
  5
5EB
100
AcDbEntity
  8
0
  6
CONTINUOUS
 62
               7
100
AcDbLine
 10
-19.399999988148068
 20
-7.5000000000000142
 30
0.0
 11
-19.399999988148053
 21
-5.5000000000000284
 31
0.0
  0
LINE
  5
5EC
100
AcDbEntity
  8
0
  6
CONTINUOUS
 62
               7
100
AcDbLine
 10
-12.699999988148065
 20
-8.0000000000000284
 30
0.0
 11
-12.699999988148065
 21
11.999999999999972
 31
0.0
  0
LINE
  5
5ED
100
AcDbEntity
  8
0
  6
CONTINUOUS
 62
               7
100
AcDbLine
 10
-19.999999988148033
 20
-7.408348849004156
 30
0.0
 11
-19.999999988148033
 21
11.408348849004199
 31
0.0
  0
LINE
  5
5EE
100
AcDbEntity
  8
0
  6
CONTINUOUS
 62
               7
100
AcDbLine
 10
-18.799999988148045
 20
-4.9000000000000625
 30
0.0
 11
-19.999999988148033
 21
-4.9000000000000625
 31
0.0
  0
LINE
  5
5EF
100
AcDbEntity
  8
0
  6
CONTINUOUS
 62
               7
100
AcDbLine
 10
-18.799999988148045
 20
-8.0000000000000284
 30
0.0
 11
-18.799999988148045
 21
-4.9000000000000625
 31
0.0
  0
LINE
  5
5F0
100
AcDbEntity
  8
0
  6
CENTER
 62
               2
100
AcDbLine
 10
-18.195856974999117
 20
-6.5000000000000142
 30
0.0
 11
-20.435449279208399
 21
-6.5000000000000568
 31
0.0
  0
LINE
  5
5F1
100
AcDbEntity
  8
0
  6
CONTINUOUS
 62
               7
100
AcDbLine
 10
-13.699999988148079
 20
-4.2000000000000455
 30
0.0
 11
-13.699999988148022
 21
-3.0000000000000284
 31
0.0
  0
LINE
  5
5F2
100
AcDbEntity
  8
0
  6
CONTINUOUS
 62
               7
100
AcDbLine
 10
-14.599999988148056
 20
-4.2000000000000881
 30
0.0
 11
-14.599999988148056
 21
-3.0000000000000284
 31
0.0
  0
LINE
  5
5F3
100
AcDbEntity
  8
0
  6
CONTINUOUS
 62
               7
100
AcDbLine
 10
-13.699999988148065
 20
-4.1000000000000654
 30
0.0
 11
-14.549999988148016
 21
-4.1000000000000654
 31
0.0
  0
LINE
  5
5F4
100
AcDbEntity
  8
0
  6
CONTINUOUS
 62
               7
100
AcDbLine
 10
-13.699999988148065
 20
-3.1000000000000512
 30
0.0
 11
-14.549999988148016
 21
-3.1000000000000654
 31
0.0
  0
LINE
  5
5F5
100
AcDbEntity
  8
0
  6
CONTINUOUS
 62
               7
100
AcDbLine
 10
-14.549999988148016
 20
-4.1000000000000654
 30
0.0
 11
-14.549999988148016
 21
-3.1000000000000654
 31
0.0
  0
LINE
  5
5F6
100
AcDbEntity
  8
0
  6
CONTINUOUS
 62
               7
100
AcDbLine
 10
-13.849999988148042
 20
-4.1000000000000654
 30
0.0
 11
-13.849999988148042
 21
-3.1000000000000512
 31
0.0
  0
LINE
  5
5F7
100
AcDbEntity
  8
0
  6
CONTINUOUS
 62
               7
100
AcDbLine
 10
-13.849999988148042
 20
7.0999999999999091
 30
0.0
 11
-13.849999988148042
 21
8.0999999999999091
 31
0.0
  0
LINE
  5
5F8
100
AcDbEntity
  8
0
  6
CONTINUOUS
 62
               7
100
AcDbLine
 10
-14.549999988148059
 20
7.0999999999999659
 30
0.0
 11
-14.549999988148059
 21
8.0999999999999659
 31
0.0
  0
LINE
  5
5F9
100
AcDbEntity
  8
0
  6
CONTINUOUS
 62
               7
100
AcDbLine
 10
-13.699999988148065
 20
8.0999999999999091
 30
0.0
 11
-14.549999988148059
 21
8.0999999999999659
 31
0.0
  0
LINE
  5
5FA
100
AcDbEntity
  8
0
  6
CONTINUOUS
 62
               7
100
AcDbLine
 10
-13.699999988148065
 20
7.0999999999999091
 30
0.0
 11
-14.549999988148059
 21
7.0999999999999659
 31
0.0
  0
LINE
  5
5FB
100
AcDbEntity
  8
0
  6
CONTINUOUS
 62
               7
100
AcDbLine
 10
-14.599999988148056
 20
6.9999999999999716
 30
0.0
 11
-14.599999988148056
 21
8.1999999999999318
 31
0.0
  0
LINE
  5
5FC
100
AcDbEntity
  8
0
  6
CONTINUOUS
 62
               7
100
AcDbLine
 10
-13.699999988148022
 20
6.9999999999999716
 30
0.0
 11
-13.699999988148065
 21
8.1999999999999886
 31
0.0
  0
LINE
  5
5FD
100
AcDbEntity
  8
0
  6
CONTINUOUS
 62
               7
100
AcDbLine
 10
-14.599999988148056
 20
8.1999999999999318
 30
0.0
 11
-13.699999988148065
 21
8.1999999999999886
 31
0.0
  0
LINE
  5
5FE
100
AcDbEntity
  8
0
  6
CONTINUOUS
 62
               7
100
AcDbLine
 10
-13.699999988148022
 20
6.9999999999999716
 30
0.0
 11
-14.599999988148056
 21
6.9999999999999716
 31
0.0
  0
LINE
  5
5FF
100
AcDbEntity
  8
0
  6
CONTINUOUS
 62
               7
100
AcDbLine
 10
-13.699999988148022
 20
-3.0000000000000284
 30
0.0
 11
-14.599999988148056
 21
-3.0000000000000284
 31
0.0
  0
LINE
  5
600
100
AcDbEntity
  8
0
  6
CONTINUOUS
 62
               7
100
AcDbLine
 10
-14.599999988148056
 20
-4.2000000000000881
 30
0.0
 11
-13.699999988148079
 21
-4.2000000000000455
 31
0.0
  0
LINE
  5
601
100
AcDbEntity
  8
0
  6
CONTINUOUS
 62
               7
100
AcDbLine
 10
-12.699999988148065
 20
11.999999999999972
 30
0.0
 11
-19.504363255897218
 21
11.908329810536259
 31
0.0
  0
LINE
  5
602
100
AcDbEntity
  8
0
  6
CONTINUOUS
 62
               7
100
AcDbLine
 10
-12.699999988148065
 20
-8.0000000000000284
 30
0.0
 11
-18.799999988148045
 21
-7.917819179587454
 31
0.0
  0
ARC
  5
603
100
AcDbEntity
  8
0
  6
CONTINUOUS
 62
               7
100
AcDbCircle
 10
-19.499999988148033
 20
-7.408348849004156
 30
0.0
 40
0.5
100
AcDbArc
 50
179.99999999999949
 51
269.49999999999909
  0
ARC
  5
604
100
AcDbEntity
  8
0
  6
CONTINUOUS
 62
               7
100
AcDbCircle
 10
-19.499999988148033
 20
11.408348849004199
 30
0.0
 40
0.5
100
AcDbArc
 50
90.499999999999659
 51
179.99999999999963
  0
LINE
  5
605
100
AcDbEntity
  8
0
  6
DASHED
 62
               2
100
AcDbLine
 10
13.419510164565537
 20
-6.7019957432933666
 30
0.0
 11
11.136931803688128
 21
-4.4194173824159435
 31
0.0
  0
LINE
  5
606
100
AcDbEntity
  8
0
  6
DASHED
 62
               2
100
AcDbLine
 10
6.7019957432933239
 20
-13.419510164565565
 30
0.0
 11
4.4194173824159293
 21
-11.136931803688157
 31
0.0
  0
LINE
  5
607
100
AcDbEntity
  8
0
  6
DASHED
 62
               2
100
AcDbLine
 10
13.419510164565537
 20
6.7019957432933097
 30
0.0
 11
11.136931803688128
 21
4.4194173824159293
 31
0.0
  0
LINE
  5
608
100
AcDbEntity
  8
0
  6
DASHED
 62
               2
100
AcDbLine
 10
6.7019957432933381
 20
13.419510164565537
 30
0.0
 11
4.4194173824159293
 21
11.136931803688128
 31
0.0
  0
LINE
  5
609
100
AcDbEntity
  8
0
  6
DASHED
 62
               2
100
AcDbLine
 10
11.030865786510134
 20
-5.3740115370177932
 30
0.0
 11
10.606601717798213
 21
-4.9497474683058726
 31
0.0
  0
ENDBLK
  5
60A
100
AcDbEntity
  8
0
100
AcDbBlockEnd
  0
BLOCK
  5
60B
100
AcDbEntity
  8
0
100
AcDbBlockBegin
  2
NCT30-12
 70
               0
 10
0.0
 20
0.0
 30
0.0
  3
NCT30-12
  1

  0
LINE
  5
60C
100
AcDbEntity
  8
0
  6
CENTER
 62
               2
100
AcDbLine
 10
10.606601717798213
 20
-0.3000000000000114
 30
0.0
 11
10.606601717798213
 21
-12.700000000000017
 31
0.0
  0
LINE
  5
60D
100
AcDbEntity
  8
0
  6
CENTER
 62
               2
100
AcDbLine
 10
17.193376937818158
 20
-6.5
 30
0.0
 11
4.4066017177981962
 21
-6.5
 31
0.0
  0
LINE
  5
60E
100
AcDbEntity
  8
0
  6
CONTINUOUS
 62
               7
100
AcDbLine
 10
15.0
 20
-1.0
 30
0.0
 11
15.0
 21
-16.800000000000011
 31
0.0
  0
LINE
  5
60F
100
AcDbEntity
  8
0
  6
CONTINUOUS
 62
               7
100
AcDbLine
 10
14.800000000000097
 20
-17.0
 30
0.0
 11
-14.800000000000011
 21
-17.0
 31
0.0
  0
LINE
  5
610
100
AcDbEntity
  8
0
  6
CONTINUOUS
 62
               7
100
AcDbLine
 10
14.0
 20
0.0
 30
0.0
 11
15.0
 21
-1.0
 31
0.0
  0
LINE
  5
611
100
AcDbEntity
  8
0
  6
CONTINUOUS
 62
               7
100
AcDbLine
 10
11.106601717798213
 20
-3.0
 30
0.0
 11
11.106601717798213
 21
-10.0
 31
0.0
  0
LINE
  5
612
100
AcDbEntity
  8
0
  6
CONTINUOUS
 62
               7
100
AcDbLine
 10
10.106601717798213
 20
-3.0
 30
0.0
 11
10.106601717798213
 21
-10.0
 31
0.0
  0
LINE
  5
613
100
AcDbEntity
  8
0
  6
CONTINUOUS
 62
               7
100
AcDbLine
 10
14.648053602125572
 20
-6.5
 30
0.0
 11
12.627327659961878
 21
-3.0
 31
0.0
  0
LINE
  5
614
100
AcDbEntity
  8
0
  6
CONTINUOUS
 62
               7
100
AcDbLine
 10
12.627327659961878
 20
-3.0
 30
0.0
 11
8.5858757756345199
 21
-3.0
 31
0.0
  0
LINE
  5
615
100
AcDbEntity
  8
0
  6
CONTINUOUS
 62
               7
100
AcDbLine
 10
8.5858757756345199
 20
-3.0
 30
0.0
 11
6.5651498334708265
 21
-6.5
 31
0.0
  0
LINE
  5
616
100
AcDbEntity
  8
0
  6
CONTINUOUS
 62
               7
100
AcDbLine
 10
6.5651498334708265
 20
-6.5
 30
0.0
 11
8.5858757756345199
 21
-10.0
 31
0.0
  0
LINE
  5
617
100
AcDbEntity
  8
0
  6
CONTINUOUS
 62
               7
100
AcDbLine
 10
8.5858757756345199
 20
-10.0
 30
0.0
 11
12.627327659961878
 21
-10.0
 31
0.0
  0
LINE
  5
618
100
AcDbEntity
  8
0
  6
CONTINUOUS
 62
               7
100
AcDbLine
 10
12.627327659961878
 20
-10.0
 30
0.0
 11
14.648053602125572
 21
-6.5
 31
0.0
  0
CIRCLE
  5
619
100
AcDbEntity
  8
0
  6
CONTINUOUS
 62
               7
100
AcDbCircle
 10
10.606601717798213
 20
-6.5
 30
0.0
 40
4.2000000000000002
  0
ARC
  5
61A
100
AcDbEntity
  8
0
  6
CONTINUOUS
 62
               7
100
AcDbCircle
 10
10.606601717798213
 20
-6.5
 30
0.0
 40
4.0
100
AcDbArc
 50
1.0449756281401477
 51
58.955024371859722
  0
ARC
  5
61B
100
AcDbEntity
  8
0
  6
CONTINUOUS
 62
               7
100
AcDbCircle
 10
10.606601717798213
 20
-6.5
 30
0.0
 40
4.0
100
AcDbArc
 50
61.044975628139994
 51
118.95502437185961
  0
ARC
  5
61C
100
AcDbEntity
  8
0
  6
CONTINUOUS
 62
               7
100
AcDbCircle
 10
10.606601717798213
 20
-6.5
 30
0.0
 40
4.0
100
AcDbArc
 50
121.04497562813988
 51
178.95502437185934
  0
ARC
  5
61D
100
AcDbEntity
  8
0
  6
CONTINUOUS
 62
               7
100
AcDbCircle
 10
10.606601717798213
 20
-6.5
 30
0.0
 40
4.0
100
AcDbArc
 50
181.04497562813958
 51
238.95502437185922
  0
ARC
  5
61E
100
AcDbEntity
  8
0
  6
CONTINUOUS
 62
               7
100
AcDbCircle
 10
10.606601717798213
 20
-6.5
 30
0.0
 40
4.0
100
AcDbArc
 50
241.04497562813958
 51
298.95502437185922
  0
ARC
  5
61F
100
AcDbEntity
  8
0
  6
CONTINUOUS
 62
               7
100
AcDbCircle
 10
10.606601717798213
 20
-6.5
 30
0.0
 40
4.0
100
AcDbArc
 50
301.04497562813941
 51
358.95502437185911
  0
ARC
  5
620
100
AcDbEntity
  8
0
  6
CONTINUOUS
 62
               7
100
AcDbCircle
 10
10.606601717798213
 20
-6.5
 30
0.0
 40
3.5
100
AcDbArc
 50
278.21321070173758
 51
81.786789298261581
  0
ARC
  5
621
100
AcDbEntity
  8
0
  6
CONTINUOUS
 62
               7
100
AcDbCircle
 10
10.606601717798213
 20
-6.5
 30
0.0
 40
3.5
100
AcDbArc
 50
98.213210701737992
 51
261.78678929826128
  0
LINE
  5
622
100
AcDbEntity
  8
0
  6
CONTINUOUS
 62
               7
100
AcDbLine
 10
-9.0
 20
0.0
 30
0.0
 11
13.999999999999972
 21
0.0
 31
0.0
  0
LINE
  5
623
100
AcDbEntity
  8
0
  6
CONTINUOUS
 62
               7
100
AcDbLine
 10
-15.0
 20
-11.0
 30
0.0
 11
-15.0
 21
-16.800000000000011
 31
0.0
  0
LINE
  5
624
100
AcDbEntity
  8
0
  6
CONTINUOUS
 62
               7
100
AcDbLine
 10
14.999999999999972
 20
-1.0
 30
0.0
 11
-9.0
 21
-1.0
 31
0.0
  0
LINE
  5
625
100
AcDbEntity
  8
0
  6
CONTINUOUS
 62
               7
100
AcDbLine
 10
-12.699999999999989
 20
-10.532289410825825
 30
0.0
 11
-12.699999999999989
 21
-0.532289409152412
 31
0.0
  0
LINE
  5
626
100
AcDbEntity
  8
0
  6
CONTINUOUS
 62
               7
100
AcDbLine
 10
-20.0
 20
-9.9406382598299672
 30
0.0
 11
-20.0
 21
-1.1239405601482702
 31
0.0
  0
CIRCLE
  5
627
100
AcDbEntity
  8
0
  6
DASHED
 62
               2
100
AcDbCircle
 10
-16.399999999999977
 20
-4.1322894091524347
 30
0.0
 40
3.0
  0
LINE
  5
628
100
AcDbEntity
  8
0
  6
CONTINUOUS
 62
               7
100
AcDbLine
 10
-18.799999999999983
 20
-3.6322894091524347
 30
0.0
 11
-20.0
 21
-3.6322894091524347
 31
0.0
  0
LINE
  5
629
100
AcDbEntity
  8
0
  6
CONTINUOUS
 62
               7
100
AcDbLine
 10
-18.799999999999983
 20
-3.6322894091524347
 30
0.0
 11
-18.799999999999983
 21
-0.532289409152412
 31
0.0
  0
LINE
  5
62A
100
AcDbEntity
  8
0
  6
CENTER
 62
               2
100
AcDbLine
 10
-18.195856986851084
 20
-2.032289409152412
 30
0.0
 11
-20.400000000000006
 21
-2.032289409152412
 31
0.0
  0
LINE
  5
62B
100
AcDbEntity
  8
0
  6
CENTER
 62
               2
100
AcDbLine
 10
-20.430359701872305
 20
-4.1322894091524347
 30
0.0
 11
-12.546982881739325
 21
-4.1322894091524347
 31
0.0
  0
LINE
  5
62C
100
AcDbEntity
  8
0
  6
CENTER
 62
               2
100
AcDbLine
 10
-7.8555882192471813
 20
-5.532289409152412
 30
0.0
 11
-22.0
 21
-5.532289409152412
 31
0.0
  0
LINE
  5
62D
100
AcDbEntity
  8
0
  6
CENTER
 62
               2
100
AcDbLine
 10
-16.399999999999977
 20
-0.3120217549145821
 30
0.0
 11
-16.399999999999977
 21
-8.1634820697028943
 31
0.0
  0
LINE
  5
62E
100
AcDbEntity
  8
0
  6
CONTINUOUS
 62
               7
100
AcDbLine
 10
-12.699999999999989
 20
-0.532289409152412
 30
0.0
 11
-18.799999999999983
 21
-0.6144702295650006
 31
0.0
  0
LINE
  5
62F
100
AcDbEntity
  8
0
  6
CONTINUOUS
 62
               7
100
AcDbLine
 10
-12.699999999999989
 20
-10.532289410825825
 30
0.0
 11
-19.504363267749198
 21
-10.440619221362084
 31
0.0
  0
ARC
  5
630
100
AcDbEntity
  8
0
  6
CONTINUOUS
 62
               7
100
AcDbCircle
 10
-19.5
 20
-1.1239405601482702
 30
0.0
 40
0.5
100
AcDbArc
 50
90.500000000000171
 51
179.99999999999963
  0
ARC
  5
631
100
AcDbEntity
  8
0
  6
CONTINUOUS
 62
               7
100
AcDbCircle
 10
-19.5
 20
-9.9406382598299672
 30
0.0
 40
0.5
100
AcDbArc
 50
179.99999999999963
 51
269.49999999999909
  0
LINE
  5
632
100
AcDbEntity
  8
0
  6
CONTINUOUS
 62
               7
100
AcDbLine
 10
-12.699999999999989
 20
-0.532289409152412
 30
0.0
 11
-9.0
 21
-0.5645788199782089
 31
0.0
  0
LINE
  5
633
100
AcDbEntity
  8
0
  6
CONTINUOUS
 62
               7
100
AcDbLine
 10
-12.699999999999989
 20
-10.532289410825825
 30
0.0
 11
-9.0
 21
-10.500000000000028
 31
0.0
  0
LINE
  5
634
100
AcDbEntity
  8
0
  6
CONTINUOUS
 62
               7
100
AcDbLine
 10
-15.0
 20
-11.0
 30
0.0
 11
-9.0
 21
-11.0
 31
0.0
  0
LINE
  5
635
100
AcDbEntity
  8
0
  6
CONTINUOUS
 62
               7
100
AcDbLine
 10
-9.0
 20
-0.0000000091128811
 30
0.0
 11
-9.0
 21
-11.000000009112881
 31
0.0
  0
LINE
  5
636
100
AcDbEntity
  8
0
  6
CENTER
 62
               2
100
AcDbLine
 10
0.0
 20
1.9999999908871189
 30
0.0
 11
0.0
 21
-20.0
 31
0.0
  0
LINE
  5
637
100
AcDbEntity
  8
0
  6
CONTINUOUS
 62
               4
100
AcDbLine
 10
-3.5
 20
-18.0
 30
0.0
 11
3.5
 21
-18.0
 31
0.0
  0
LINE
  5
638
100
AcDbEntity
  8
0
  6
CONTINUOUS
 62
               4
100
AcDbLine
 10
-3.5
 20
-17.0
 30
0.0
 11
-3.5
 21
-18.0
 31
0.0
  0
LINE
  5
639
100
AcDbEntity
  8
0
  6
CONTINUOUS
 62
               4
100
AcDbLine
 10
3.5
 20
-17.0
 30
0.0
 11
3.5
 21
-18.0
 31
0.0
  0
LINE
  5
63A
100
AcDbEntity
  8
0
  6
CONTINUOUS
 62
               7
100
AcDbLine
 10
15.0
 20
-16.800000000000011
 30
0.0
 11
-15.0
 21
-16.800000000000011
 31
0.0
  0
LINE
  5
63B
100
AcDbEntity
  8
0
  6
CONTINUOUS
 62
               7
100
AcDbLine
 10
15.0
 20
-16.800000000000011
 30
0.0
 11
14.800000000000097
 21
-17.0
 31
0.0
  0
LINE
  5
63C
100
AcDbEntity
  8
0
  6
CONTINUOUS
 62
               7
100
AcDbLine
 10
-15.0
 20
-16.800000000000011
 30
0.0
 11
-14.800000000000011
 21
-17.0
 31
0.0
  0
ARC
  5
63D
100
AcDbEntity
  8
0
  6
CONTINUOUS
 62
               7
100
AcDbCircle
 10
-18.899999999999977
 20
-3.032289409152412
 30
0.0
 40
0.5
100
AcDbArc
 50
179.99999999999963
 51
269.99999999999937
  0
ARC
  5
63E
100
AcDbEntity
  8
0
  6
CONTINUOUS
 62
               7
100
AcDbCircle
 10
-18.899999999999977
 20
-1.032289409152412
 30
0.0
 40
0.5
100
AcDbArc
 50
89.999999999999815
 51
179.99999999999963
  0
LINE
  5
63F
100
AcDbEntity
  8
0
  6
CONTINUOUS
 62
               7
100
AcDbLine
 10
-19.399999999999977
 20
-3.032289409152412
 30
0.0
 11
-19.399999999999977
 21
-1.032289409152412
 31
0.0
  0
LINE
  5
640
100
AcDbEntity
  8
0
  6
CONTINUOUS
 62
               7
100
AcDbLine
 10
-18.800000000000011
 20
-0.532289409152412
 30
0.0
 11
-18.899999999999977
 21
-0.532289409152412
 31
0.0
  0
LINE
  5
641
100
AcDbEntity
  8
0
  6
CONTINUOUS
 62
               7
100
AcDbLine
 10
-18.800000000000011
 20
-3.532289409152412
 30
0.0
 11
-18.900000000000006
 21
-3.532289409152412
 31
0.0
  0
LINE
  5
642
100
AcDbEntity
  8
0
  6
CONTINUOUS
 62
               7
100
AcDbLine
 10
-19.182320284100456
 20
-0.6196209499924805
 30
0.0
 11
-19.504363267749198
 21
-0.6239595986161532
 31
0.0
  0
ENDBLK
  5
643
100
AcDbEntity
  8
0
100
AcDbBlockEnd
  0
ENDSEC
  0
SECTION
  2
ENTITIES
  0
INSERT
  5
644
100
AcDbEntity
  8
0
  6
ByBlock
100
AcDbBlockReference
  2
NCT30-1
 10
-192.29029918309803
 20
55.603795524734636
 30
0.0
  0
INSERT
  5
645
100
AcDbEntity
  8
0
  6
ByBlock
100
AcDbBlockReference
  2
NCT30-5
 10
-192.29029918309803
 20
106.3664621914013
 30
0.0
  0
INSERT
  5
646
100
AcDbEntity
  8
0
  6
ByBlock
100
AcDbBlockReference
  2
NCT30-6
 10
-188.28660197067259
 20
-139.64620447526536
 30
0.0
  0
INSERT
  5
647
100
AcDbEntity
  8
0
  6
ByBlock
100
AcDbBlockReference
  2
NCT30-7
 10
-188.28660197067262
 20
-87.398613568106938
 30
0.0
  0
INSERT
  5
648
100
AcDbEntity
  8
0
  6
ByBlock
100
AcDbBlockReference
  2
NCT30-8
 10
0.4249267578125142
 20
55.603795524734636
 30
0.0
  0
INSERT
  5
649
100
AcDbEntity
  8
0
  6
ByBlock
100
AcDbBlockReference
  2
NCT30-9
 10
0.4249267578125
 20
106.3664621914013
 30
0.0
  0
INSERT
  5
64A
100
AcDbEntity
  8
0
  6
ByBlock
100
AcDbBlockReference
  2
NCT30-10
 10
0.4249267578125142
 20
-139.64620447526536
 30
0.0
  0
INSERT
  5
64B
100
AcDbEntity
  8
0
  6
ByBlock
100
AcDbBlockReference
  2
NCT30-11
 10
0.4249267578125
 20
-87.398613568106938
 30
0.0
  0
INSERT
  5
64C
100
AcDbEntity
  8
0
  6
ByBlock
100
AcDbBlockReference
  2
NCT30-12
 10
190.92071972047967
 20
55.603795524734636
 30
0.0
  0
INSERT
  5
64D
100
AcDbEntity
  8
0
  6
ByBlock
100
AcDbBlockReference
  2
NCT30-2
 10
190.92071972047967
 20
106.3664621914013
 30
0.0
  0
INSERT
  5
64E
100
AcDbEntity
  8
0
  6
ByBlock
100
AcDbBlockReference
  2
NCT30-3
 10
190.92071972047967
 20
-139.64620447526536
 30
0.0
  0
INSERT
  5
64F
100
AcDbEntity
  8
0
  6
ByBlock
100
AcDbBlockReference
  2
NCT30-4
 10
190.92071972047967
 20
-87.398613568106953
 30
0.0
  0
MTEXT
  5
650
100
AcDbEntity
  8
0
  6
CONTINUOUS
 62
               7
100
AcDbMText
 10
-268.25454577981247
 20
160.5
 30
0.0
 40
6.3000001907348633
 41
0.0
 71
               4
 72
               1
  1
\W1.091;\A1;MODEL:NCT30-B1
  0
LINE
  5
651
100
AcDbEntity
  8
0
  6
CONTINUOUS
 62
               7
100
AcDbLine
 10
-281.25
 20
-195.0
 30
0.0
 11
282.099853515625
 21
-195.0
 31
0.0
  0
LINE
  5
652
100
AcDbEntity
  8
0
  6
CONTINUOUS
 62
               7
100
AcDbLine
 10
-281.25
 20
195.5
 30
0.0
 11
-281.25
 21
-195.0
 31
0.0
  0
LINE
  5
653
100
AcDbEntity
  8
0
  6
CONTINUOUS
 62
               7
100
AcDbLine
 10
-281.25
 20
195.5
 30
0.0
 11
282.099853515625
 21
195.5
 31
0.0
  0
LINE
  5
654
100
AcDbEntity
  8
0
  6
CONTINUOUS
 62
               7
100
AcDbLine
 10
282.099853515625
 20
195.5
 30
0.0
 11
282.099853515625
 21
-195.0
 31
0.0
  0
LINE
  5
655
100
AcDbEntity
  8
0
  6
CONTINUOUS
 62
               7
100
AcDbLine
 10
162.0999755859375
 20
195.5
 30
0.0
 11
162.0999755859375
 21
175.5
 31
0.0
  0
LINE
  5
656
100
AcDbEntity
  8
0
  6
CONTINUOUS
 62
               7
100
AcDbLine
 10
162.0999755859375
 20
175.5
 30
0.0
 11
282.099853515625
 21
175.5
 31
0.0
  0
MTEXT
  5
657
100
AcDbEntity
  8
0
  6
CONTINUOUS
 62
               7
100
AcDbMText
 10
198.27702046155224
 20
185.5
 30
0.0
 40
6.3000001907348633
 41
0.0
 71
               4
 72
               1
  1
\W1.311;\A1;Ver. 1.0
  0
MTEXT
  5
658
100
AcDbEntity
  8
0
  6
CONTINUOUS
 62
               7
100
AcDbMText
 10
170.28099805280428
 20
-185.0
 30
0.0
 40
9.0
 41
0.0
 71
               4
 72
               1
  1
\W1.121;\A1;KOGANEI CORP.
  0
LINE
  5
659
100
AcDbEntity
  8
0
  6
CONTINUOUS
 62
               7
100
AcDbLine
 10
162.0999755859375
 20
-175.0
 30
0.0
 11
282.099853515625
 21
-175.0
 31
0.0
  0
LINE
  5
65A
100
AcDbEntity
  8
0
  6
CONTINUOUS
 62
               7
100
AcDbLine
 10
162.0999755859375
 20
-175.0
 30
0.0
 11
162.0999755859375
 21
-195.0
 31
0.0
  0
LINE
  5
65B
100
AcDbEntity
  8
0
  6
CONTINUOUS
 62
               7
100
AcDbLine
 10
282.099853515625
 20
0.25
 30
0.0
 11
-281.25
 21
0.25
 31
0.0
  0
LINE
  5
65C
100
AcDbEntity
  8
0
  6
CONTINUOUS
 62
               7
100
AcDbLine
 10
94.316569010416686
 20
-195.0
 30
0.0
 11
94.316569010416686
 21
195.5
 31
0.0
  0
LINE
  5
65D
100
AcDbEntity
  8
0
  6
CONTINUOUS
 62
               7
100
AcDbLine
 10
-93.466715494791657
 20
-195.0
 30
0.0
 11
-93.466715494791657
 21
175.5
 31
0.0
  0
MTEXT
  5
65E
100
AcDbEntity
  8
0
  6
CONTINUOUS
 62
               7
100
AcDbMText
 10
-268.25454578217705
 20
-14.75
 30
0.0
 40
6.3000001907348633
 41
0.0
 71
               4
 72
               1
  1
\W1.091;\A1;MODEL:NCT30-B1-S21
  0
MTEXT
  5
65F
100
AcDbEntity
  8
0
  6
CONTINUOUS
 62
               7
100
AcDbMText
 10
-80.447645324797023
 20
160.5
 30
0.0
 40
6.3000001907348633
 41
0.0
 71
               4
 72
               1
  1
\W1.113;\A1;MODEL:NCT30-B1-S11
  0
MTEXT
  5
660
100
AcDbEntity
  8
0
  6
CONTINUOUS
 62
               7
100
AcDbMText
 10
-80.471261276968676
 20
-14.75
 30
0.0
 40
6.3000001907348633
 41
0.0
 71
               4
 72
               1
  1
\W1.091;\A1;MODEL:NCT30-B1-S13
  0
MTEXT
  5
661
100
AcDbEntity
  8
0
  6
CONTINUOUS
 62
               7
100
AcDbMText
 10
107.31202322823967
 20
160.5
 30
0.0
 40
6.3000001907348633
 41
0.0
 71
               4
 72
               1
  1
\W1.091;\A1;MODEL:NCT30-B1-S12
  0
MTEXT
  5
662
100
AcDbEntity
  8
0
  6
CONTINUOUS
 62
               7
100
AcDbMText
 10
107.31202322823967
 20
-14.75
 30
0.0
 40
6.3000001907348633
 41
0.0
 71
               4
 72
               1
  1
\W1.091;\A1;MODEL:NCT30-B1-S14
  0
MTEXT
  5
663
100
AcDbEntity
  8
0
  6
CONTINUOUS
 62
               7
100
AcDbMText
 10
145.06222193432686
 20
-24.75
 30
0.0
 40
6.3000001907348633
 41
0.0
 71
               4
 72
               1
  1
\W1.043;\A1;NCT30-B2-S14
  0
MTEXT
  5
664
100
AcDbEntity
  8
0
  6
CONTINUOUS
 62
               7
100
AcDbMText
 10
-42.721062570881486
 20
-24.75
 30
0.0
 40
6.3000001907348633
 41
0.0
 71
               4
 72
               1
  1
\W1.043;\A1;NCT30-B2-S13
  0
MTEXT
  5
665
100
AcDbEntity
  8
0
  6
CONTINUOUS
 62
               7
100
AcDbMText
 10
-230.50434707608983
 20
-24.75
 30
0.0
 40
6.3000001907348633
 41
0.0
 71
               4
 72
               1
  1
\W1.043;\A1;NCT30-B2-S21
  0
MTEXT
  5
666
100
AcDbEntity
  8
0
  6
CONTINUOUS
 62
               7
100
AcDbMText
 10
-230.52765880950497
 20
150.5
 30
0.0
 40
6.3000001907348633
 41
0.0
 71
               4
 72
               1
  1
\W1.021;\A1;NCT30-B2
  0
MTEXT
  5
667
100
AcDbEntity
  8
0
  6
CONTINUOUS
 62
               7
100
AcDbMText
 10
-42.68835652176498
 20
150.5
 30
0.0
 40
6.3000001907348633
 41
0.0
 71
               4
 72
               1
  1
\W1.075;\A1;NCT30-B2-S11
  0
MTEXT
  5
668
100
AcDbEntity
  8
0
  6
CONTINUOUS
 62
               7
100
AcDbMText
 10
145.06222193432686
 20
150.5
 30
0.0
 40
6.3000001907348633
 41
0.0
 71
               4
 72
               1
  1
\W1.043;\A1;NCT30-B2-S12
  0
MTEXT
  5
669
100
AcDbEntity
  8
0
  6
CONTINUOUS
 62
               7
100
AcDbMText
 10
-277.02124982238189
 20
185.5
 30
0.0
 40
6.3000001907348633
 41
0.0
 71
               4
 72
               1
  1
\W1.027;\A1;NON-CONTACT TRANSFER COMPONENT
  0
LINE
  5
66A
100
AcDbEntity
  8
0
  6
CONTINUOUS
 62
               7
100
AcDbLine
 10
-281.25
 20
175.5
 30
0.0
 11
-85.949999999999989
 21
175.5
 31
0.0
  0
LINE
  5
66B
100
AcDbEntity
  8
0
  6
CONTINUOUS
 62
               7
100
AcDbLine
 10
-85.949999999999989
 20
195.5
 30
0.0
 11
-85.949999999999989
 21
175.5
 31
0.0
  0
ENDSEC
  0
SECTION
  2
OBJECTS
  0
DICTIONARY
  5
19
100
AcDbDictionary
  3
ACAD_GROUP
350
1A
  3
ACAD_MLINESTYLE
350
1B
  0
DICTIONARY
  5
1A
102
{ACAD_REACTORS
330
19
102
}
100
AcDbDictionary
  0
DICTIONARY
  5
1B
102
{ACAD_REACTORS
330
19
102
}
100
AcDbDictionary
  3
STANDARD
350
1C
  0
MLINESTYLE
  5
1C
102
{ACAD_REACTORS
330
1B
102
}
100
AcDbMlineStyle
  2
Standard
 70
               0
  3

 62
               0
 51
90.0
 52
90.0
 71
               2
 49
0.5
 62
             256
  6
ByLayer
 49
-0.5
 62
             256
  6
ByLayer
  0
ENDSEC
  0
EOF
