  0
SECTION
  2
HEADER
  9
$ACADVER
  1
AC1012
  9
$DWGCODEPAGE
  3
dos932
  9
$INSBASE
 10
0.0
 20
0.0
 30
0.0
  9
$EXTMIN
 10
-399.52490234375
 20
-276.5
 30
0.0
  9
$EXTMAX
 10
403.0569545343663
 20
276.5
 30
0.0
  9
$LIMMIN
 10
-399.52490234375
 20
-276.5
  9
$LIMMAX
 10
403.0569545343663
 20
276.5
  9
$ORTHOMODE
 70
               0
  9
$REGENMODE
 70
               1
  9
$FILLMODE
 70
               1
  9
$QTEXTMODE
 70
               0
  9
$MIRRTEXT
 70
               1
  9
$DRAGMODE
 70
               2
  9
$LTSCALE
 40
1.0
  9
$OSMODE
 70
               0
  9
$ATTMODE
 70
               1
  9
$TEXTSIZE
 40
3.2000000476837158
  9
$TRACEWID
 40
0.05
  9
$TEXTSTYLE
  7
MX_NOTE_STANDARD
  9
$CLAYER
  8
0
  9
$CELTYPE
  6
CONTINUOUS
  9
$CECOLOR
 62
             256
  9
$CELTSCALE
 40
1.0
  9
$DELOBJ
 70
               1
  9
$DISPSILH
 70
               0
  9
$DIMSCALE
 40
1.0
  9
$DIMASZ
 40
2.5
  9
$DIMEXO
 40
1.5
  9
$DIMDLI
 40
3.75
  9
$DIMRND
 40
0.0
  9
$DIMDLE
 40
0.0
  9
$DIMEXE
 40
1.5
  9
$DIMTP
 40
0.0
  9
$DIMTM
 40
0.0
  9
$DIMTXT
 40
3.2000000476837158
  9
$DIMCEN
 40
2.5
  9
$DIMTSZ
 40
0.0
  9
$DIMTOL
 70
               0
  9
$DIMLIM
 70
               0
  9
$DIMTIH
 70
               0
  9
$DIMTOH
 70
               0
  9
$DIMSE1
 70
               0
  9
$DIMSE2
 70
               0
  9
$DIMTAD
 70
               1
  9
$DIMZIN
 70
               8
  9
$DIMBLK
  1

  9
$DIMASO
 70
               1
  9
$DIMSHO
 70
               1
  9
$DIMPOST
  1

  9
$DIMAPOST
  1

  9
$DIMALT
 70
               0
  9
$DIMALTD
 70
               4
  9
$DIMALTF
 40
0.03937007874016
  9
$DIMLFAC
 40
1.0
  9
$DIMTOFL
 70
               1
  9
$DIMTVP
 40
0.0
  9
$DIMTIX
 70
               0
  9
$DIMSOXD
 70
               0
  9
$DIMSAH
 70
               0
  9
$DIMBLK1
  1

  9
$DIMBLK2
  1

  9
$DIMSTYLE
  2
MXDIMSTYLE
  9
$DIMCLRD
 70
               0
  9
$DIMCLRE
 70
               0
  9
$DIMCLRT
 70
               0
  9
$DIMTFAC
 40
1.0
  9
$DIMGAP
 40
1.0
  9
$DIMJUST
 70
               0
  9
$DIMSD1
 70
               0
  9
$DIMSD2
 70
               0
  9
$DIMTOLJ
 70
               1
  9
$DIMTZIN
 70
               0
  9
$DIMALTZ
 70
               0
  9
$DIMALTTZ
 70
               0
  9
$DIMFIT
 70
               3
  9
$DIMUPT
 70
               1
  9
$DIMUNIT
 70
               2
  9
$DIMDEC
 70
               4
  9
$DIMTDEC
 70
               4
  9
$DIMALTU
 70
               2
  9
$DIMALTTD
 70
               4
  9
$DIMTXSTY
  7
MX_NOTE_STANDARD
  9
$DIMAUNIT
 70
               0
  9
$LUNITS
 70
               2
  9
$LUPREC
 70
               4
  9
$SKETCHINC
 40
0.1
  9
$FILLETRAD
 40
0.0
  9
$AUNITS
 70
               0
  9
$AUPREC
 70
               0
  9
$MENU
  1
acad
  9
$ELEVATION
 40
0.0
  9
$PELEVATION
 40
0.0
  9
$THICKNESS
 40
0.0
  9
$LIMCHECK
 70
               0
  9
$BLIPMODE
 70
               1
  9
$CHAMFERA
 40
0.0
  9
$CHAMFERB
 40
0.0
  9
$CHAMFERC
 40
0.0
  9
$CHAMFERD
 40
0.0
  9
$SKPOLY
 70
               0
  9
$TDCREATE
 40
2453378.356759260
  9
$TDUPDATE
 40
2453378.356759260
  9
$TDINDWG
 40
0.0000000000
  9
$TDUSRTIMER
 40
0.0000000000
  9
$USRTIMER
 70
               1
  9
$ANGBASE
 50
0.0
  9
$ANGDIR
 70
               0
  9
$PDMODE
 70
               0
  9
$PDSIZE
 40
0.0
  9
$PLINEWID
 40
0.0
  9
$COORDS
 70
               1
  9
$SPLFRAME
 70
               0
  9
$SPLINETYPE
 70
               6
  9
$SPLINESEGS
 70
               8
  9
$ATTDIA
 70
               0
  9
$ATTREQ
 70
               1
  9
$HANDLING
 70
               1
  9
$HANDSEED
  5
78E
  9
$SURFTAB1
 70
               6
  9
$SURFTAB2
 70
               6
  9
$SURFTYPE
 70
               6
  9
$SURFU
 70
               6
  9
$SURFV
 70
               6
  9
$UCSNAME
  2

  9
$UCSORG
 10
0.0
 20
0.0
 30
0.0
  9
$UCSXDIR
 10
1.0
 20
0.0
 30
0.0
  9
$UCSYDIR
 10
0.0
 20
1.0
 30
0.0
  9
$PUCSNAME
  2

  9
$PUCSORG
 10
0.0
 20
0.0
 30
0.0
  9
$PUCSXDIR
 10
1.0
 20
0.0
 30
0.0
  9
$PUCSYDIR
 10
0.0
 20
1.0
 30
0.0
  9
$USERI1
 70
               0
  9
$USERI2
 70
               0
  9
$USERI3
 70
               0
  9
$USERI4
 70
               0
  9
$USERI5
 70
               0
  9
$USERR1
 40
0.0
  9
$USERR2
 40
0.0
  9
$USERR3
 40
0.0
  9
$USERR4
 40
0.0
  9
$USERR5
 40
0.0
  9
$WORLDVIEW
 70
               1
  9
$SHADEDGE
 70
               3
  9
$SHADEDIF
 70
              70
  9
$TILEMODE
 70
               1
  9
$MAXACTVP
 70
              16
  9
$PINSBASE
 10
0.0
 20
0.0
 30
0.0
  9
$PLIMCHECK
 70
               0
  9
$PEXTMIN
 10
1.0000000000000000E+20
 20
1.0000000000000000E+20
 30
1.0000000000000000E+20
  9
$PEXTMAX
 10
-1.0000000000000000E+20
 20
-1.0000000000000000E+20
 30
-1.0000000000000000E+20
  9
$PLIMMIN
 10
0.0
 20
0.0
  9
$PLIMMAX
 10
12.0
 20
9.0
  9
$UNITMODE
 70
               0
  9
$VISRETAIN
 70
               0
  9
$PLINEGEN
 70
               1
  9
$PSLTSCALE
 70
               0
  9
$TREEDEPTH
 70
            3020
  9
$PICKSTYLE
 70
               1
  9
$CMLSTYLE
  2
Standard
  9
$CMLJUST
 70
               0
  9
$CMLSCALE
 40
1.0
  9
$SAVEIMAGES
 70
               0
  0
ENDSEC
  0
SECTION
  2
CLASSES
  0
CLASS
  1
LWPOLYLINE
  2
AcDbPolyline
  3
"AutoCAD"
 90
        0
280
               0
281
               1
  0
CLASS
  1
IMAGE
  2
AcDbRasterImage
  3
ISM
 90
      127
280
               0
281
               1
  0
CLASS
  1
OLE2FRAME
  2
AcDbOle2Frame
  3
""
 90
        0
280
               0
281
               1
  0
CLASS
  1
HATCH
  2
AcDbHatch
  3
"ACAD_SEDONA"
 90
        0
280
               0
281
               1
  0
CLASS
  1
DICTIONARYVAR
  2
AcDbDictionaryVar
  3
"AutoCAD"
 90
        0
280
               0
281
               0
  0
CLASS
  1
RASTERVARIABLES
  2
AcDbRasterVariables
  3
ISM
 90
        0
280
               0
281
               0
  0
CLASS
  1
IMAGEDEF
  2
AcDbRasterImageDef
  3
ISM
 90
        0
280
               0
281
               0
  0
CLASS
  1
IMAGEDEF_REACTOR
  2
AcDbRasterImageDefReactor
  3
ISM
 90
        1
280
               0
281
               0
  0
CLASS
  1
IDBUFFER
  2
AcDbIdBuffer
  3
"Acad"
 90
        0
280
               0
281
               0
  0
CLASS
  1
SPATIAL_FILTER
  2
AcDbSpatialFilter
  3
"Acad"
 90
        0
280
               0
281
               0
  0
CLASS
  1
XRECORD
  2
AcDbXrecord
  3
"<Built In>"
 90
        0
280
               0
281
               0
  0
CLASS
  1
SORTENTSTABLE
  2
AcDbSortentsTable
  3
"AutoCAD"
 90
        0
280
               0
281
               0
  0
CLASS
  1
LAYER_INDEX
  2
AcDbLayerIndex
  3
"Acad"
 90
        0
280
               0
281
               0
  0
CLASS
  1
SPATIAL_INDEX
  2
AcDbSpatialIndex
  3
"Acad"
 90
        0
280
               0
281
               0
  0
CLASS
  1
OBJECT_PTR
  2
CAseDLPNTableRecord
  3
"ASE-LPNTableRecord"
 90
        1
280
               0
281
               0
  0
CLASS
  1
LAYOUT
  2
AcDbLayout
  3
"AutoCAD 2000"
 90
        1
280
               0
281
               0
  0
CLASS
  1
PLOTSETTINGS
  2
AcDbPlotSettings
  3
"AutoCAD 2000"
 90
        1
280
               0
281
               0
  0
CLASS
  1
ACDBDICTIONARYWDFLT
  2
AcDbDictionaryWithDefault
  3
"AutoCAD 2000"
 90
        1
280
               0
281
               0
  0
CLASS
  1
ACDBPLACEHOLDER
  2
AcDbPlaceHolder
  3
"AutoCAD 2000"
 90
        1
280
               0
281
               0
  0
ENDSEC
  0
SECTION
  2
TABLES
  0
TABLE
  2
VPORT
  5
7
100
AcDbSymbolTable
 70
               1
  0
VPORT
  5
15
100
AcDbSymbolTableRecord
100
AcDbViewportTableRecord
  2
*ACTIVE
 70
               0
 10
0.0
 20
0.0
 11
1.0
 21
1.0
 12
1.7660260953081206
 22
0.0
 13
0.0
 23
0.0
 14
1.0
 24
1.0
 15
0.0
 25
0.0
 16
0.0
 26
0.0
 36
1.0
 17
0.0
 27
0.0
 37
0.0
 40
558.52999999999997
 41
1.7320508075688772
 42
50.0
 43
0.0
 44
0.0
 50
0.0
 51
0.0
 71
               0
 72
             100
 73
               1
 74
               1
 75
               0
 76
               0
 77
               0
 78
               0
  0
ENDTAB
  0
TABLE
  2
LTYPE
  5
4
100
AcDbSymbolTable
 70
               6
  0
LTYPE
  5
11
100
AcDbSymbolTableRecord
100
AcDbLinetypeTableRecord
  2
BYBLOCK
 70
              64
  3

 72
              65
 73
               0
 40
0.0
  0
LTYPE
  5
12
100
AcDbSymbolTableRecord
100
AcDbLinetypeTableRecord
  2
BYLAYER
 70
              64
  3

 72
              65
 73
               0
 40
0.0
  0
LTYPE
  5
13
100
AcDbSymbolTableRecord
100
AcDbLinetypeTableRecord
  2
CONTINUOUS
 70
              64
  3
Solid line
 72
              65
 73
               0
 40
0.0
  0
LTYPE
  5
33
100
AcDbSymbolTableRecord
100
AcDbLinetypeTableRecord
  2
CENTER
 70
              64
  3
Center ____ _ ____ _ ____ _ ____ _ ____ _ ____
 72
              65
 73
               4
 40
26.0
 49
20.0
 74
               0
 49
-2.0
 74
               0
 49
2.0
 74
               0
 49
-2.0
 74
               0
  0
LTYPE
  5
6F
100
AcDbSymbolTableRecord
100
AcDbLinetypeTableRecord
  2
PHANTOM
 70
              64
  3
Phantom ______  __  __  ______  __  __  ______
 72
              65
 73
               6
 40
30.0
 49
20.0
 74
               0
 49
-2.0
 74
               0
 49
2.0
 74
               0
 49
-2.0
 74
               0
 49
2.0
 74
               0
 49
-2.0
 74
               0
  0
LTYPE
  5
1D1
100
AcDbSymbolTableRecord
100
AcDbLinetypeTableRecord
  2
DASHED
 70
              64
  3
Dashed __ __ __ __ __ __ __ __ __ __ __ __ __ _
 72
              65
 73
               2
 40
4.0
 49
2.0
 74
               0
 49
-2.0
 74
               0
  0
ENDTAB
  0
TABLE
  2
LAYER
  5
2
100
AcDbSymbolTable
 70
               2
  0
LAYER
  5
14
100
AcDbSymbolTableRecord
100
AcDbLayerTableRecord
  2
0
 70
               0
 62
               7
  6
CONTINUOUS
  0
LAYER
  5
1D
100
AcDbSymbolTableRecord
100
AcDbLayerTableRecord
  2
DEFPOINTS
 70
               0
 62
               7
  6
CONTINUOUS
  0
ENDTAB
  0
TABLE
  2
STYLE
  5
3
100
AcDbSymbolTable
 70
               1
  0
STYLE
  5
17
100
AcDbSymbolTableRecord
100
AcDbTextStyleTableRecord
  2
MX_NOTE_STANDARD
 70
               0
 40
0.0
 41
1.0
 50
0.0
 71
               0
 42
3.2000000476837158
  3
txt.shx
  4
extfont.shx
  0
ENDTAB
  0
TABLE
  2
VIEW
  5
5
100
AcDbSymbolTable
 70
               0
  0
ENDTAB
  0
TABLE
  2
UCS
  5
6
100
AcDbSymbolTable
 70
               0
  0
ENDTAB
  0
TABLE
  2
APPID
  5
8
100
AcDbSymbolTable
 70
               1
  0
APPID
  5
16
100
AcDbSymbolTableRecord
100
AcDbRegAppTableRecord
  2
ACAD
 70
               0
  0
ENDTAB
  0
TABLE
  2
DIMSTYLE
  5
9
100
AcDbSymbolTable
 70
               1
  0
DIMSTYLE
105
18
100
AcDbSymbolTableRecord
100
AcDbDimStyleTableRecord
  2
MXDIMSTYLE
 70
               0
  3

  4

  5

  6

  7

 40
1.0
 41
2.5
 42
1.5
 43
3.75
 44
1.5
 45
0.0
 46
0.0
 47
0.0
 48
0.0
 71
               0
 72
               0
 73
               0
 74
               0
 75
               0
 76
               0
 77
               1
 78
               8
140
3.2000000476837158
141
2.5
142
0.0
143
0.03937007874016
144
1.0
145
0.0
146
1.0
147
1.0
170
               0
171
               4
172
               1
173
               0
174
               0
175
               0
176
               0
177
               0
178
               0
270
               2
271
               4
272
               4
273
               2
274
               4
275
               0
280
               0
281
               0
282
               0
283
               1
284
               0
285
               0
286
               0
287
               3
288
               1
340
17
  0
ENDTAB
  0
TABLE
  2
BLOCK_RECORD
  5
1
100
AcDbSymbolTable
 70
              18
  0
BLOCK_RECORD
  5
A
100
AcDbSymbolTableRecord
100
AcDbBlockTableRecord
  2
*MODEL_SPACE
  0
BLOCK_RECORD
  5
B
100
AcDbSymbolTableRecord
100
AcDbBlockTableRecord
  2
*PAPER_SPACE
  0
BLOCK_RECORD
  5
1E
100
AcDbSymbolTableRecord
100
AcDbBlockTableRecord
  2
NCT40-1
  0
BLOCK_RECORD
  5
1F
100
AcDbSymbolTableRecord
100
AcDbBlockTableRecord
  2
NCT40-2
  0
BLOCK_RECORD
  5
20
100
AcDbSymbolTableRecord
100
AcDbBlockTableRecord
  2
NCT40-3
  0
BLOCK_RECORD
  5
21
100
AcDbSymbolTableRecord
100
AcDbBlockTableRecord
  2
NCT40-4
  0
BLOCK_RECORD
  5
22
100
AcDbSymbolTableRecord
100
AcDbBlockTableRecord
  2
NCT40-5
  0
BLOCK_RECORD
  5
23
100
AcDbSymbolTableRecord
100
AcDbBlockTableRecord
  2
NCT40-6
  0
BLOCK_RECORD
  5
24
100
AcDbSymbolTableRecord
100
AcDbBlockTableRecord
  2
NCT40-7
  0
BLOCK_RECORD
  5
25
100
AcDbSymbolTableRecord
100
AcDbBlockTableRecord
  2
NCT40-8
  0
BLOCK_RECORD
  5
26
100
AcDbSymbolTableRecord
100
AcDbBlockTableRecord
  2
NCT40-9
  0
BLOCK_RECORD
  5
27
100
AcDbSymbolTableRecord
100
AcDbBlockTableRecord
  2
NCT40-10
  0
BLOCK_RECORD
  5
28
100
AcDbSymbolTableRecord
100
AcDbBlockTableRecord
  2
NCT40-11
  0
BLOCK_RECORD
  5
29
100
AcDbSymbolTableRecord
100
AcDbBlockTableRecord
  2
NCT40-12
  0
BLOCK_RECORD
  5
2A
100
AcDbSymbolTableRecord
100
AcDbBlockTableRecord
  2
NCT40-13
  0
BLOCK_RECORD
  5
2B
100
AcDbSymbolTableRecord
100
AcDbBlockTableRecord
  2
NCT40-14
  0
BLOCK_RECORD
  5
2C
100
AcDbSymbolTableRecord
100
AcDbBlockTableRecord
  2
NCT40-15
  0
BLOCK_RECORD
  5
2D
100
AcDbSymbolTableRecord
100
AcDbBlockTableRecord
  2
NCT40-16
  0
BLOCK_RECORD
  5
2E
100
AcDbSymbolTableRecord
100
AcDbBlockTableRecord
  2
NCT40-17
  0
BLOCK_RECORD
  5
2F
100
AcDbSymbolTableRecord
100
AcDbBlockTableRecord
  2
NCT40-18
  0
ENDTAB
  0
ENDSEC
  0
SECTION
  2
BLOCKS
  0
BLOCK
  5
D
100
AcDbEntity
  8
0
100
AcDbBlockBegin
  2
*MODEL_SPACE
 70
               0
 10
0.0
 20
0.0
 30
0.0
  3
*MODEL_SPACE
  1

  0
ENDBLK
  5
E
100
AcDbEntity
  8
0
100
AcDbBlockEnd
  0
BLOCK
  5
F
100
AcDbEntity
 67
               1
  8
0
100
AcDbBlockBegin
  2
*PAPER_SPACE
 70
               0
 10
0.0
 20
0.0
 30
0.0
  3
*PAPER_SPACE
  1

  0
ENDBLK
  5
10
100
AcDbEntity
 67
               1
  8
0
100
AcDbBlockEnd
  0
BLOCK
  5
30
100
AcDbEntity
  8
0
100
AcDbBlockBegin
  2
NCT40-1
 70
               0
 10
0.0
 20
0.0
 30
0.0
  3
NCT40-1
  1

  0
LINE
  5
31
100
AcDbEntity
  8
0
  6
CONTINUOUS
 62
               7
100
AcDbLine
 10
19.0
 20
0.0
 30
0.0
 11
-19.0
 21
0.0
 31
0.0
  0
LINE
  5
32
100
AcDbEntity
  8
0
  6
CONTINUOUS
 62
               7
100
AcDbLine
 10
20.0
 20
-1.0
 30
0.0
 11
20.0
 21
-16.799999999999997
 31
0.0
  0
LINE
  5
34
100
AcDbEntity
  8
0
  6
CENTER
 62
               2
100
AcDbLine
 10
5.97983220936527
 20
-6.5
 30
0.0
 11
-6.0031412084625799
 21
-6.5
 31
0.0
  0
LINE
  5
35
100
AcDbEntity
  8
0
  6
CONTINUOUS
 62
               7
100
AcDbLine
 10
19.800000000000011
 20
-17.0
 30
0.0
 11
-19.800000000000011
 21
-17.0
 31
0.0
  0
LINE
  5
36
100
AcDbEntity
  8
0
  6
CONTINUOUS
 62
               7
100
AcDbLine
 10
19.0
 20
0.0
 30
0.0
 11
20.0
 21
-1.0
 31
0.0
  0
LINE
  5
37
100
AcDbEntity
  8
0
  6
CONTINUOUS
 62
               7
100
AcDbLine
 10
-20.0
 20
-1.0
 30
0.0
 11
-20.0
 21
-16.799999999999997
 31
0.0
  0
LINE
  5
38
100
AcDbEntity
  8
0
  6
CONTINUOUS
 62
               7
100
AcDbLine
 10
-19.0
 20
0.0
 30
0.0
 11
-20.0
 21
-1.0
 31
0.0
  0
LINE
  5
39
100
AcDbEntity
  8
0
  6
CONTINUOUS
 62
               7
100
AcDbLine
 10
20.0
 20
-1.0
 30
0.0
 11
-20.0
 21
-1.0
 31
0.0
  0
LINE
  5
3A
100
AcDbEntity
  8
0
  6
CENTER
 62
               2
100
AcDbLine
 10
0.0
 20
2.0000000000000142
 30
0.0
 11
0.0
 21
-19.0
 31
0.0
  0
CIRCLE
  5
3B
100
AcDbEntity
  8
0
  6
CONTINUOUS
 62
               7
100
AcDbCircle
 10
0.0
 20
-6.5
 30
0.0
 40
4.0
  0
LINE
  5
3C
100
AcDbEntity
  8
0
  6
CONTINUOUS
 62
               7
100
AcDbLine
 10
-2.0249999999999773
 20
-2.9925971146730177
 30
0.0
 11
-4.0500000000000114
 21
-6.5
 31
0.0
  0
LINE
  5
3D
100
AcDbEntity
  8
0
  6
CONTINUOUS
 62
               7
100
AcDbLine
 10
-4.0500000000000114
 20
-6.5
 30
0.0
 11
-2.0249999999999773
 21
-10.007402885326982
 31
0.0
  0
LINE
  5
3E
100
AcDbEntity
  8
0
  6
CONTINUOUS
 62
               7
100
AcDbLine
 10
-2.0249999999999773
 20
-10.007402885326982
 30
0.0
 11
2.0249999999999773
 21
-10.007402885326982
 31
0.0
  0
LINE
  5
3F
100
AcDbEntity
  8
0
  6
CONTINUOUS
 62
               7
100
AcDbLine
 10
2.0249999999999773
 20
-10.007402885326982
 30
0.0
 11
4.0500000000000114
 21
-6.5
 31
0.0
  0
LINE
  5
40
100
AcDbEntity
  8
0
  6
CONTINUOUS
 62
               7
100
AcDbLine
 10
4.0500000000000114
 20
-6.5
 30
0.0
 11
2.0250000000000341
 21
-2.9925971146730177
 31
0.0
  0
LINE
  5
41
100
AcDbEntity
  8
0
  6
CONTINUOUS
 62
               7
100
AcDbLine
 10
2.0250000000000341
 20
-2.9925971146730177
 30
0.0
 11
-2.0249999999999773
 21
-2.9925971146730177
 31
0.0
  0
LINE
  5
42
100
AcDbEntity
  8
0
  6
CONTINUOUS
 62
               7
100
AcDbLine
 10
0.6000000000000227
 20
-2.9925971146730177
 30
0.0
 11
0.6000000000000227
 21
-10.007402885326982
 31
0.0
  0
LINE
  5
43
100
AcDbEntity
  8
0
  6
CONTINUOUS
 62
               7
100
AcDbLine
 10
-0.6000000000000227
 20
-2.9925971146730177
 30
0.0
 11
-0.6000000000000227
 21
-10.007402885326982
 31
0.0
  0
ARC
  5
44
100
AcDbEntity
  8
0
  6
CONTINUOUS
 62
               7
100
AcDbCircle
 10
0.0
 20
-6.5
 30
0.0
 40
3.5074028853269792
100
AcDbArc
 50
279.84984773017413
 51
80.150152269825071
  0
ARC
  5
45
100
AcDbEntity
  8
0
  6
CONTINUOUS
 62
               7
100
AcDbCircle
 10
0.0
 20
-6.5
 30
0.0
 40
3.5074028853269792
100
AcDbArc
 50
99.849847730174503
 51
260.15015226982462
  0
LINE
  5
46
100
AcDbEntity
  8
0
  6
CONTINUOUS
 62
               4
100
AcDbLine
 10
19.699999999999989
 20
-18.0
 30
0.0
 11
13.699999999999989
 21
-18.0
 31
0.0
  0
LINE
  5
47
100
AcDbEntity
  8
0
  6
CENTER
 62
             200
100
AcDbLine
 10
16.699999999999989
 20
-15.0
 30
0.0
 11
16.699999999999989
 21
-20.0
 31
0.0
  0
LINE
  5
48
100
AcDbEntity
  8
0
  6
CENTER
 62
             200
100
AcDbLine
 10
-8.3500000317785634
 20
-15.0
 30
0.0
 11
-8.3500000317785634
 21
-20.0
 31
0.0
  0
LINE
  5
49
100
AcDbEntity
  8
0
  6
CONTINUOUS
 62
               4
100
AcDbLine
 10
19.699999999999989
 20
-17.0
 30
0.0
 11
19.699999999999989
 21
-18.0
 31
0.0
  0
LINE
  5
4A
100
AcDbEntity
  8
0
  6
CONTINUOUS
 62
               4
100
AcDbLine
 10
13.699999999999989
 20
-17.000000009112881
 30
0.0
 11
13.699999999999989
 21
-18.0
 31
0.0
  0
LINE
  5
4B
100
AcDbEntity
  8
0
  6
CONTINUOUS
 62
               4
100
AcDbLine
 10
-5.3500000317785634
 20
-18.0
 30
0.0
 11
-11.350000031778563
 21
-18.0
 31
0.0
  0
LINE
  5
4C
100
AcDbEntity
  8
0
  6
CONTINUOUS
 62
               4
100
AcDbLine
 10
-11.350000031778563
 20
-17.000000009112881
 30
0.0
 11
-11.350000031778563
 21
-18.0
 31
0.0
  0
LINE
  5
4D
100
AcDbEntity
  8
0
  6
CONTINUOUS
 62
               4
100
AcDbLine
 10
-5.3500000317785634
 20
-17.0
 30
0.0
 11
-5.3500000317785634
 21
-18.0
 31
0.0
  0
LINE
  5
4E
100
AcDbEntity
  8
0
  6
CONTINUOUS
 62
               7
100
AcDbLine
 10
20.0
 20
-16.799999999999997
 30
0.0
 11
19.800000000000011
 21
-17.0
 31
0.0
  0
LINE
  5
4F
100
AcDbEntity
  8
0
  6
CONTINUOUS
 62
               7
100
AcDbLine
 10
-19.800000000000011
 20
-17.0
 30
0.0
 11
-20.0
 21
-16.799999999999997
 31
0.0
  0
LINE
  5
50
100
AcDbEntity
  8
0
  6
CONTINUOUS
 62
               7
100
AcDbLine
 10
-20.0
 20
-16.799999999999997
 30
0.0
 11
20.0
 21
-16.799999999999997
 31
0.0
  0
CIRCLE
  5
51
100
AcDbEntity
  8
0
  6
CONTINUOUS
 62
               7
100
AcDbCircle
 10
0.0
 20
-6.5
 30
0.0
 40
4.75
  0
ENDBLK
  5
52
100
AcDbEntity
  8
0
100
AcDbBlockEnd
  0
BLOCK
  5
53
100
AcDbEntity
  8
0
100
AcDbBlockBegin
  2
NCT40-2
 70
               0
 10
0.0
 20
0.0
 30
0.0
  3
NCT40-2
  1

  0
LINE
  5
54
100
AcDbEntity
  8
0
  6
CENTER
 62
               2
100
AcDbLine
 10
-18.799999988148066
 20
-4.1322894090489513
 30
0.0
 11
-32.949847371021235
 21
-4.1322894090489513
 31
0.0
  0
LINE
  5
55
100
AcDbEntity
  8
0
  6
CONTINUOUS
 62
               7
100
AcDbLine
 10
-53.691588118302086
 20
-8.0057691440639758
 30
0.0
 11
-53.347811162243978
 21
-7.8072894259426562
 31
0.0
  0
LINE
  5
56
100
AcDbEntity
  8
0
  6
CONTINUOUS
 62
               7
100
AcDbLine
 10
-56.84781117416491
 20
-7.8072894191072351
 30
0.0
 11
-56.1968122589888
 21
-7.8072894191072351
 31
0.0
  0
LINE
  5
57
100
AcDbEntity
  8
0
  6
CONTINUOUS
 62
               7
100
AcDbLine
 10
-53.347811162243978
 20
-8.0072894191072237
 30
0.0
 11
-51.34781117416491
 21
-8.0072894191072237
 31
0.0
  0
LINE
  5
58
100
AcDbEntity
  8
0
  6
CONTINUOUS
 62
               7
100
AcDbLine
 10
-56.847811162243978
 20
-7.7572894120291664
 30
0.0
 11
-56.847811162243978
 21
-8.0072894191072237
 31
0.0
  0
LINE
  5
59
100
AcDbEntity
  8
0
  6
CONTINUOUS
 62
               7
100
AcDbLine
 10
-53.347811162243978
 20
-7.7572894120291664
 30
0.0
 11
-53.347811162243978
 21
-8.0072894191072237
 31
0.0
  0
ARC
  5
5A
100
AcDbEntity
  8
0
  6
CONTINUOUS
 62
               7
100
AcDbCircle
 10
-51.347811162243978
 20
-7.7572894191072237
 30
0.0
 40
0.25
100
AcDbArc
 50
269.99999999999937
 51
0.0
  0
LINE
  5
5B
100
AcDbEntity
  8
0
  6
CONTINUOUS
 62
               7
100
AcDbLine
 10
-57.34781117416491
 20
-8.0072894191072237
 30
0.0
 11
-56.84781117416491
 21
-8.0072894191072237
 31
0.0
  0
LINE
  5
5C
100
AcDbEntity
  8
0
  6
CONTINUOUS
 62
               7
100
AcDbLine
 10
-50.09781117416491
 20
-7.9572894191072407
 30
0.0
 11
-47.797811162243981
 21
-7.9572894191072407
 31
0.0
  0
LINE
  5
5D
100
AcDbEntity
  8
0
  6
CONTINUOUS
 62
               7
100
AcDbLine
 10
-45.797811162243981
 20
-7.7688387954310372
 30
0.0
 11
-45.935480691378643
 21
-8.0072894191072237
 31
0.0
  0
LINE
  5
5E
100
AcDbEntity
  8
0
  6
CONTINUOUS
 62
               7
100
AcDbLine
 10
-45.101501443131205
 20
-8.0072894191072237
 30
0.0
 11
-46.494120865984769
 21
-8.0072894191072237
 31
0.0
  0
LINE
  5
5F
100
AcDbEntity
  8
0
  6
CONTINUOUS
 62
               7
100
AcDbLine
 10
-20.449847371021235
 20
-7.1322894090489513
 30
0.0
 11
-20.449847371021235
 21
-1.1322894090489513
 31
0.0
  0
LINE
  5
60
100
AcDbEntity
  8
0
  6
CONTINUOUS
 62
               7
100
AcDbLine
 10
-27.449847371021235
 20
-6.1322894090489513
 30
0.0
 11
-27.449847371021235
 21
-2.1322894090489513
 31
0.0
  0
LINE
  5
61
100
AcDbEntity
  8
0
  6
CONTINUOUS
 62
               7
100
AcDbLine
 10
-27.449847371021235
 20
-2.1322894090489513
 30
0.0
 11
-25.449847371021235
 21
-1.8465751233346737
 31
0.0
  0
LINE
  5
62
100
AcDbEntity
  8
0
  6
CONTINUOUS
 62
               7
100
AcDbLine
 10
-27.449847371021235
 20
-6.1322894090489513
 30
0.0
 11
-25.449847371021235
 21
-6.4180036947632289
 31
0.0
  0
LINE
  5
63
100
AcDbEntity
  8
0
  6
CONTINUOUS
 62
               7
100
AcDbLine
 10
-25.449847371021235
 20
-6.4180036947632289
 30
0.0
 11
-25.449847371021235
 21
-1.8465751233346737
 31
0.0
  0
LINE
  5
64
100
AcDbEntity
  8
0
  6
CONTINUOUS
 62
               7
100
AcDbLine
 10
-24.449847371021235
 20
-6.5608608376203676
 30
0.0
 11
-24.449847371021235
 21
-1.7037179804775064
 31
0.0
  0
LINE
  5
65
100
AcDbEntity
  8
0
  6
CONTINUOUS
 62
               7
100
AcDbLine
 10
-22.949847371021235
 20
-6.7751465519060901
 30
0.0
 11
-22.949847371021235
 21
-1.4894322661918125
 31
0.0
  0
LINE
  5
66
100
AcDbEntity
  8
0
  6
CONTINUOUS
 62
               7
100
AcDbLine
 10
-21.949847371021235
 20
-6.9180036947632289
 30
0.0
 11
-21.949847371021235
 21
-1.3465751233346737
 31
0.0
  0
LINE
  5
67
100
AcDbEntity
  8
0
  6
CONTINUOUS
 62
               7
100
AcDbLine
 10
-24.449847371021235
 20
-1.7037179804775064
 30
0.0
 11
-22.949847371021235
 21
-1.4894322661918125
 31
0.0
  0
LINE
  5
68
100
AcDbEntity
  8
0
  6
CONTINUOUS
 62
               7
100
AcDbLine
 10
-21.949847371021235
 20
-1.3465751233346737
 30
0.0
 11
-20.449847371021235
 21
-1.1322894090489513
 31
0.0
  0
LINE
  5
69
100
AcDbEntity
  8
0
  6
CONTINUOUS
 62
               7
100
AcDbLine
 10
-24.449847371021235
 20
-6.5608608376203676
 30
0.0
 11
-22.949847371021235
 21
-6.7751465519060901
 31
0.0
  0
LINE
  5
6A
100
AcDbEntity
  8
0
  6
CONTINUOUS
 62
               7
100
AcDbLine
 10
-21.949847371021235
 20
-6.9180036947632289
 30
0.0
 11
-20.449847371021235
 21
-7.1322894090489513
 31
0.0
  0
LINE
  5
6B
100
AcDbEntity
  8
0
  6
CONTINUOUS
 62
               7
100
AcDbLine
 10
-25.449847371021235
 20
-2.3822894090489513
 30
0.0
 11
-24.449847371021235
 21
-2.3822894090489513
 31
0.0
  0
LINE
  5
6C
100
AcDbEntity
  8
0
  6
CONTINUOUS
 62
               7
100
AcDbLine
 10
-25.449847371021235
 20
-5.8822894090489513
 30
0.0
 11
-24.449847371021235
 21
-5.8822894090489513
 31
0.0
  0
LINE
  5
6D
100
AcDbEntity
  8
0
  6
CONTINUOUS
 62
               7
100
AcDbLine
 10
-22.949847371021235
 20
-2.3822894090489513
 30
0.0
 11
-21.949847371021235
 21
-2.3822894090489513
 31
0.0
  0
LINE
  5
6E
100
AcDbEntity
  8
0
  6
CONTINUOUS
 62
               7
100
AcDbLine
 10
-22.949847371021235
 20
-5.8822894090489513
 30
0.0
 11
-21.949847371021235
 21
-5.8822894090489513
 31
0.0
  0
LINE
  5
70
100
AcDbEntity
  8
0
  6
PHANTOM
 62
               2
100
AcDbLine
 10
-33.621941763728721
 20
-5.63228940851414
 30
0.0
 11
-35.353992584913833
 21
-2.6322893787118176
 31
0.0
  0
LINE
  5
71
100
AcDbEntity
  8
0
  6
CONTINUOUS
 62
               7
100
AcDbLine
 10
-32.949847371021235
 20
-5.0322894090489569
 30
0.0
 11
-33.909847371021236
 21
-5.0322894090489569
 31
0.0
  0
LINE
  5
72
100
AcDbEntity
  8
0
  6
CONTINUOUS
 62
               7
100
AcDbLine
 10
-32.949847371021235
 20
-4.1322894090489513
 30
0.0
 11
-34.429847371021232
 21
-4.1322894090489513
 31
0.0
  0
LINE
  5
73
100
AcDbEntity
  8
0
  6
CONTINUOUS
 62
               7
100
AcDbLine
 10
-32.949847371021235
 20
-3.2322894090489456
 30
0.0
 11
-34.949847371021228
 21
-3.2322894090489456
 31
0.0
  0
ARC
  5
74
100
AcDbEntity
  8
0
  6
CONTINUOUS
 62
               7
100
AcDbCircle
 10
-41.514228466058398
 20
-2.5822894090489399
 30
0.0
 40
5.0
100
AcDbArc
 50
269.99999999999937
 51
299.99999999999932
  0
ARC
  5
75
100
AcDbEntity
  8
0
  6
CONTINUOUS
 62
               7
100
AcDbCircle
 10
-41.728587820003298
 20
-1.7822894090489569
 30
0.0
 40
5.0
100
AcDbArc
 50
269.99999999999937
 51
299.99999999999932
  0
ARC
  5
76
100
AcDbEntity
  8
0
  6
CONTINUOUS
 62
               7
100
AcDbCircle
 10
-41.514228466058398
 20
-5.7822894090489569
 30
0.0
 40
5.0
100
AcDbArc
 50
59.999999999999858
 51
89.999999999999815
  0
ARC
  5
77
100
AcDbEntity
  8
0
  6
CONTINUOUS
 62
               7
100
AcDbCircle
 10
-41.728587820003298
 20
-6.5822894090489399
 30
0.0
 40
5.0
100
AcDbArc
 50
59.999999999999858
 51
89.999999999999815
  0
LINE
  5
78
100
AcDbEntity
  8
0
  6
CONTINUOUS
 62
               7
100
AcDbLine
 10
-36.436213913684803
 20
-4.5002386014800777
 30
0.0
 11
-39.228587820003298
 21
-6.1124164279711408
 31
0.0
  0
LINE
  5
79
100
AcDbEntity
  8
0
  6
CONTINUOUS
 62
               7
100
AcDbLine
 10
-36.221854559739903
 20
-5.3002386014800607
 30
0.0
 11
-39.014228466058398
 21
-6.9124164279711522
 31
0.0
  0
LINE
  5
7A
100
AcDbEntity
  8
0
  6
CONTINUOUS
 62
               7
100
AcDbLine
 10
-36.436213913684803
 20
-3.8643402166178191
 30
0.0
 11
-39.228587820003298
 21
-2.252162390126756
 31
0.0
  0
LINE
  5
7B
100
AcDbEntity
  8
0
  6
CONTINUOUS
 62
               7
100
AcDbLine
 10
-36.221854559739903
 20
-3.0643402166178362
 30
0.0
 11
-39.014228466058398
 21
-1.4521623901267446
 31
0.0
  0
LINE
  5
7C
100
AcDbEntity
  8
0
  6
CONTINUOUS
 62
               7
100
AcDbLine
 10
-45.058723507632308
 20
-6.7822894090489569
 30
0.0
 11
-41.728587820003298
 21
-6.7822894090489569
 31
0.0
  0
LINE
  5
7D
100
AcDbEntity
  8
0
  6
CONTINUOUS
 62
               7
100
AcDbLine
 10
-45.058723507632308
 20
-7.5822894090489399
 30
0.0
 11
-41.514228466058398
 21
-7.5822894090489399
 31
0.0
  0
LINE
  5
7E
100
AcDbEntity
  8
0
  6
CONTINUOUS
 62
               7
100
AcDbLine
 10
-45.058723507632308
 20
-0.7822894090489569
 30
0.0
 11
-41.514228466058398
 21
-0.7822894090489569
 31
0.0
  0
LINE
  5
7F
100
AcDbEntity
  8
0
  6
CONTINUOUS
 62
               7
100
AcDbLine
 10
-45.058723507632308
 20
-1.5822894090489399
 30
0.0
 11
-41.728587820003298
 21
-1.5822894090489399
 31
0.0
  0
LINE
  5
80
100
AcDbEntity
  8
0
  6
CONTINUOUS
 62
               7
100
AcDbLine
 10
-34.833992514648287
 20
-5.0322894090489569
 30
0.0
 11
-35.221854559739903
 21
-5.0322894090489569
 31
0.0
  0
LINE
  5
81
100
AcDbEntity
  8
0
  6
CONTINUOUS
 62
               7
100
AcDbLine
 10
-35.29587272965734
 20
-4.2322894090489456
 30
0.0
 11
-35.436213913684803
 21
-4.2322894090489456
 31
0.0
  0
LINE
  5
82
100
AcDbEntity
  8
0
  6
CONTINUOUS
 62
               7
100
AcDbLine
 10
-35.353607756533471
 20
-4.1322894090489513
 30
0.0
 11
-35.436213913684803
 21
-4.1322894090489513
 31
0.0
  0
LINE
  5
83
100
AcDbEntity
  8
0
  6
CONTINUOUS
 62
               7
100
AcDbLine
 10
-45.058723507632308
 20
-4.5822894090489399
 30
0.0
 11
-36.57833008119615
 21
-4.5822894090489399
 31
0.0
  0
LINE
  5
84
100
AcDbEntity
  8
0
  6
CONTINUOUS
 62
               7
100
AcDbLine
 10
-45.058723507632308
 20
-3.7822894090489569
 30
0.0
 11
-36.578330081196157
 21
-3.7822894090489569
 31
0.0
  0
ARC
  5
85
100
AcDbEntity
  8
0
  6
CONTINUOUS
 62
               7
100
AcDbCircle
 10
-35.221854559739903
 20
-7.0322894090489569
 30
0.0
 40
2.0
100
AcDbArc
 50
89.999999999999815
 51
119.99999999999973
  0
ARC
  5
86
100
AcDbEntity
  8
0
  6
CONTINUOUS
 62
               7
100
AcDbCircle
 10
-35.436213913684803
 20
-6.2322894090489456
 30
0.0
 40
2.0
100
AcDbArc
 50
89.999999999999815
 51
119.99999999999973
  0
ARC
  5
87
100
AcDbEntity
  8
0
  6
CONTINUOUS
 62
               7
100
AcDbCircle
 10
-35.436213913684803
 20
-2.1322894090489513
 30
0.0
 40
2.0
100
AcDbArc
 50
239.99999999999946
 51
269.99999999999937
  0
ARC
  5
88
100
AcDbEntity
  8
0
  6
CONTINUOUS
 62
               7
100
AcDbCircle
 10
-35.221854559739903
 20
-1.3322894090489399
 30
0.0
 40
2.0
100
AcDbArc
 50
239.99999999999943
 51
250.79511110182787
  0
LINE
  5
89
100
AcDbEntity
  8
0
  6
PHANTOM
 62
               2
100
AcDbLine
 10
-34.458714840262196
 20
-5.6822894085141513
 30
0.0
 11
-36.190765646546147
 21
-2.6822894085141513
 31
0.0
  0
LINE
  5
8A
100
AcDbEntity
  8
0
  6
PHANTOM
 62
               2
100
AcDbLine
 10
-29.564762059420211
 20
-6.0322894144746044
 30
0.0
 11
-31.758693102568252
 21
-2.2322893727513531
 31
0.0
  0
LINE
  5
8B
100
AcDbEntity
  8
0
  6
CONTINUOUS
 62
               7
100
AcDbLine
 10
-29.911172221335896
 20
-5.4322894090489626
 30
0.0
 11
-32.949847371021235
 21
-5.4322894090489626
 31
0.0
  0
LINE
  5
8C
100
AcDbEntity
  8
0
  6
CONTINUOUS
 62
               7
100
AcDbLine
 10
-27.449847371021235
 20
-2.8322894090489399
 30
0.0
 11
-30.488522522006548
 21
-2.8322894090489399
 31
0.0
  0
LINE
  5
8D
100
AcDbEntity
  8
0
  6
CONTINUOUS
 62
               7
100
AcDbLine
 10
-27.449847371021235
 20
-5.4322894090489626
 30
0.0
 11
-28.987411822113522
 21
-5.4322894090489626
 31
0.0
  0
LINE
  5
8E
100
AcDbEntity
  8
0
  6
PHANTOM
 62
               2
100
AcDbLine
 10
-28.641001660197837
 20
-6.032289384672282
 30
0.0
 11
-30.834932688444717
 21
-2.2322893727513531
 31
0.0
  0
LINE
  5
8F
100
AcDbEntity
  8
0
  6
CONTINUOUS
 62
               7
100
AcDbLine
 10
-31.412282921228922
 20
-2.8322894090489399
 30
0.0
 11
-32.949847371021235
 21
-2.8322894090489399
 31
0.0
  0
LINE
  5
90
100
AcDbEntity
  8
0
  6
CONTINUOUS
 62
               7
100
AcDbLine
 10
-32.949847371021235
 20
-5.4322894090489626
 30
0.0
 11
-32.949847371021235
 21
-2.8322894090489399
 31
0.0
  0
LINE
  5
91
100
AcDbEntity
  8
0
  6
CONTINUOUS
 62
               7
100
AcDbLine
 10
-46.536898802280824
 20
-0.7822894090489285
 30
0.0
 11
-47.547811162243981
 21
-0.7822894090489285
 31
0.0
  0
LINE
  5
92
100
AcDbEntity
  8
0
  6
CONTINUOUS
 62
               7
100
AcDbLine
 10
-46.508962194681565
 20
-1.5822894090489399
 30
0.0
 11
-47.547811162243981
 21
-1.5822894090489399
 31
0.0
  0
LINE
  5
93
100
AcDbEntity
  8
0
  6
CONTINUOUS
 62
               7
100
AcDbLine
 10
-50.347811172962587
 20
-1.5822894090489399
 30
0.0
 11
-51.097811162243978
 21
-1.5822894090489399
 31
0.0
  0
LINE
  5
94
100
AcDbEntity
  8
0
  6
CONTINUOUS
 62
               7
100
AcDbLine
 10
-50.347811172962587
 20
-0.7822894090489285
 30
0.0
 11
-51.097811162243978
 21
-0.7822894090489285
 31
0.0
  0
LINE
  5
95
100
AcDbEntity
  8
0
  6
CONTINUOUS
 62
               7
100
AcDbLine
 10
-46.536898802280824
 20
-3.7822894090489569
 30
0.0
 11
-47.547811162243981
 21
-3.7822894090489569
 31
0.0
  0
LINE
  5
96
100
AcDbEntity
  8
0
  6
CONTINUOUS
 62
               7
100
AcDbLine
 10
-46.508962194681565
 20
-4.5822894090489399
 30
0.0
 11
-47.547811162243981
 21
-4.5822894090489399
 31
0.0
  0
LINE
  5
97
100
AcDbEntity
  8
0
  6
CONTINUOUS
 62
               7
100
AcDbLine
 10
-50.347811172962587
 20
-4.5822894090489399
 30
0.0
 11
-51.097811162243978
 21
-4.5822894090489399
 31
0.0
  0
LINE
  5
98
100
AcDbEntity
  8
0
  6
CONTINUOUS
 62
               7
100
AcDbLine
 10
-50.347811172962587
 20
-3.7822894090489569
 30
0.0
 11
-51.097811162243978
 21
-3.7822894090489569
 31
0.0
  0
LINE
  5
99
100
AcDbEntity
  8
0
  6
CONTINUOUS
 62
               7
100
AcDbLine
 10
-50.347811172962587
 20
-6.7822894090489569
 30
0.0
 11
-51.097811162243978
 21
-6.7822894090489569
 31
0.0
  0
LINE
  5
9A
100
AcDbEntity
  8
0
  6
CONTINUOUS
 62
               7
100
AcDbLine
 10
-50.347811172962587
 20
-7.5822894090489399
 30
0.0
 11
-51.097811162243978
 21
-7.5822894090489399
 31
0.0
  0
LINE
  5
9B
100
AcDbEntity
  8
0
  6
CONTINUOUS
 62
               7
100
AcDbLine
 10
-46.536898802280824
 20
-6.7822894090489569
 30
0.0
 11
-47.547811162243981
 21
-6.7822894090489569
 31
0.0
  0
LINE
  5
9C
100
AcDbEntity
  8
0
  6
CONTINUOUS
 62
               7
100
AcDbLine
 10
-46.508962194681565
 20
-7.5822894090489399
 30
0.0
 11
-47.547811162243981
 21
-7.5822894090489399
 31
0.0
  0
LINE
  5
9D
100
AcDbEntity
  8
0
  6
CONTINUOUS
 62
               7
100
AcDbLine
 10
-57.547811162243981
 20
-6.6572894191072294
 30
0.0
 11
-57.347811162243978
 21
-6.6572894191072294
 31
0.0
  0
LINE
  5
9E
100
AcDbEntity
  8
0
  6
CONTINUOUS
 62
               7
100
AcDbLine
 10
-57.547811162243981
 20
-6.357289406068702
 30
0.0
 11
-57.547811162243981
 21
-6.6572894191072294
 31
0.0
  0
LINE
  5
9F
100
AcDbEntity
  8
0
  6
CONTINUOUS
 62
               7
100
AcDbLine
 10
-56.216070499345527
 20
-7.7072894191072407
 30
0.0
 11
-55.716070499345527
 21
-7.5072894191072237
 31
0.0
  0
LINE
  5
A0
100
AcDbEntity
  8
0
  6
CONTINUOUS
 62
               7
100
AcDbLine
 10
-56.84781117416491
 20
-7.7072894191072407
 30
0.0
 11
-56.216070499345527
 21
-7.7072894191072407
 31
0.0
  0
LINE
  5
A1
100
AcDbEntity
  8
0
  6
CONTINUOUS
 62
               7
100
AcDbLine
 10
-55.716070499345527
 20
-6.4572894191072407
 30
0.0
 11
-54.067426470796583
 21
-6.4572894191072407
 31
0.0
  0
LINE
  5
A2
100
AcDbEntity
  8
0
  6
CONTINUOUS
 62
               7
100
AcDbLine
 10
-54.067426484595437
 20
-6.4572894150093987
 30
0.0
 11
-53.894221347342629
 21
-6.5572894388512566
 31
0.0
  0
LINE
  5
A3
100
AcDbEntity
  8
0
  6
CONTINUOUS
 62
               7
100
AcDbLine
 10
-54.040631544362206
 20
-6.357289406068702
 30
0.0
 11
-53.694221329461236
 21
-6.5572894388512566
 31
0.0
  0
LINE
  5
A4
100
AcDbEntity
  8
0
  6
CONTINUOUS
 62
               7
100
AcDbLine
 10
-53.694221329461236
 20
-6.5572894090489342
 30
0.0
 11
-53.347811185368919
 21
-6.357289419107218
 31
0.0
  0
LINE
  5
A5
100
AcDbEntity
  8
0
  6
CONTINUOUS
 62
               7
100
AcDbLine
 10
-53.347811162243978
 20
-6.357289419107218
 30
0.0
 11
-47.547811162243981
 21
-6.357289419107218
 31
0.0
  0
ARC
  5
A6
100
AcDbEntity
  8
0
  6
CONTINUOUS
 62
               7
100
AcDbCircle
 10
-55.616070499345525
 20
-6.4572894191072407
 30
0.0
 40
0.1
100
AcDbArc
 50
179.99999999999963
 51
269.99999999999937
  0
ARC
  5
A7
100
AcDbEntity
  8
0
  6
CONTINUOUS
 62
               7
100
AcDbCircle
 10
-53.44781116224398
 20
-6.4572894191072407
 30
0.0
 40
0.1
100
AcDbArc
 50
269.99999999999937
 51
0.0
  0
LINE
  5
A8
100
AcDbEntity
  8
0
  6
CONTINUOUS
 62
               7
100
AcDbLine
 10
-55.616070490847726
 20
-6.5572894191072351
 30
0.0
 11
-53.447811168204446
 21
-6.5572894191072351
 31
0.0
  0
LINE
  5
A9
100
AcDbEntity
  8
0
  6
CONTINUOUS
 62
               7
100
AcDbLine
 10
-53.347811162243978
 20
-6.357289406068702
 30
0.0
 11
-53.347811162243978
 21
-6.4572894299105599
 31
0.0
  0
LINE
  5
AA
100
AcDbEntity
  8
0
  6
CONTINUOUS
 62
               7
100
AcDbLine
 10
-55.716070499345527
 20
-6.357289406068702
 30
0.0
 11
-55.716070499345527
 21
-6.4572894299105599
 31
0.0
  0
ARC
  5
AB
100
AcDbEntity
  8
0
  6
CONTINUOUS
 62
               7
100
AcDbCircle
 10
-56.316070499345521
 20
-6.4572894191072407
 30
0.0
 40
0.1
100
AcDbArc
 50
269.99999999999937
 51
0.0
  0
LINE
  5
AC
100
AcDbEntity
  8
0
  6
CONTINUOUS
 62
               7
100
AcDbLine
 10
-56.216070499345527
 20
-6.357289406068702
 30
0.0
 11
-56.216070499345527
 21
-6.4572894299105599
 31
0.0
  0
ARC
  5
AD
100
AcDbEntity
  8
0
  6
CONTINUOUS
 62
               7
100
AcDbCircle
 10
-56.747811162243984
 20
-6.4572894191072407
 30
0.0
 40
0.1
100
AcDbArc
 50
179.99999999999963
 51
269.99999999999937
  0
LINE
  5
AE
100
AcDbEntity
  8
0
  6
CONTINUOUS
 62
               7
100
AcDbLine
 10
-56.747811150323052
 20
-6.5572894191072351
 30
0.0
 11
-56.316070499345521
 21
-6.5572894191072351
 31
0.0
  0
LINE
  5
AF
100
AcDbEntity
  8
0
  6
CONTINUOUS
 62
               7
100
AcDbLine
 10
-56.84781117416491
 20
-6.4600848150354295
 30
0.0
 11
-56.647811162243983
 21
-6.4600848150354295
 31
0.0
  0
LINE
  5
B0
100
AcDbEntity
  8
0
  6
CONTINUOUS
 62
               7
100
AcDbLine
 10
-56.216070499345527
 20
-6.357289419107218
 30
0.0
 11
-54.040631529333545
 21
-6.357289419107218
 31
0.0
  0
LINE
  5
B1
100
AcDbEntity
  8
0
  6
CONTINUOUS
 62
               7
100
AcDbLine
 10
-54.547811162243981
 20
-5.857289419107218
 30
0.0
 11
-54.524649109513376
 21
-5.95457004057576
 31
0.0
  0
LINE
  5
B2
100
AcDbEntity
  8
0
  6
CONTINUOUS
 62
               7
100
AcDbLine
 10
-56.647811162243983
 20
-6.4600848150354295
 30
0.0
 11
-54.524649109513376
 21
-5.95457004057576
 31
0.0
  0
LINE
  5
B3
100
AcDbEntity
  8
0
  6
CONTINUOUS
 62
               7
100
AcDbLine
 10
-56.647811162243983
 20
-6.357289419107218
 30
0.0
 11
-54.547811162243981
 21
-5.857289419107218
 31
0.0
  0
LINE
  5
B4
100
AcDbEntity
  8
0
  6
CONTINUOUS
 62
               7
100
AcDbLine
 10
-56.847811162243978
 20
-6.357289406068702
 30
0.0
 11
-56.847811162243978
 21
-6.4572894299105599
 31
0.0
  0
LINE
  5
B5
100
AcDbEntity
  8
0
  6
CONTINUOUS
 62
               7
100
AcDbLine
 10
-56.59781117416491
 20
-7.5072894191072237
 30
0.0
 11
-53.597811162243978
 21
-7.5072894191072237
 31
0.0
  0
ARC
  5
B6
100
AcDbEntity
  8
0
  6
CONTINUOUS
 62
               7
100
AcDbCircle
 10
-50.847811162243978
 20
-6.8830957569520592
 30
0.0
 40
0.25
100
AcDbArc
 50
75.000006605880117
 51
179.99999999999963
  0
LINE
  5
B7
100
AcDbEntity
  8
0
  6
CONTINUOUS
 62
               7
100
AcDbLine
 10
-50.783106428156991
 20
-6.6416142904833748
 30
0.0
 11
-50.347811203967233
 21
-6.7582512968853905
 31
0.0
  0
LINE
  5
B8
100
AcDbEntity
  8
0
  6
CONTINUOUS
 62
               7
100
AcDbLine
 10
-57.547811162243981
 20
-6.357289419107218
 30
0.0
 11
-56.647811162243983
 21
-6.357289419107218
 31
0.0
  0
LINE
  5
B9
100
AcDbEntity
  8
0
  6
CONTINUOUS
 62
               7
100
AcDbLine
 10
-47.547811162243981
 20
-6.5572894239500954
 30
0.0
 11
-47.547811162243981
 21
-7.7072894191072407
 31
0.0
  0
LINE
  5
BA
100
AcDbEntity
  8
0
  6
CONTINUOUS
 62
               7
100
AcDbLine
 10
-50.347811162243978
 20
-6.7582513117865517
 30
0.0
 11
-50.347811162243978
 21
-7.7072894299105599
 31
0.0
  0
LINE
  5
BB
100
AcDbEntity
  8
0
  6
CONTINUOUS
 62
               7
100
AcDbLine
 10
-47.547811192046304
 20
-6.357289419107218
 30
0.0
 11
-46.547811192046304
 21
-6.2698007566557123
 31
0.0
  0
LINE
  5
BC
100
AcDbEntity
  8
0
  6
CONTINUOUS
 62
               7
100
AcDbLine
 10
-47.547811192046304
 20
-6.5572894183621599
 30
0.0
 11
-46.547811192046304
 21
-6.4698007559106543
 31
0.0
  0
LINE
  5
BD
100
AcDbEntity
  8
0
  6
CONTINUOUS
 62
               7
100
AcDbLine
 10
-46.547811162243981
 20
-6.2698007547930672
 30
0.0
 11
-45.040827009412844
 21
-6.2698007547930672
 31
0.0
  0
LINE
  5
BE
100
AcDbEntity
  8
0
  6
CONTINUOUS
 62
               7
100
AcDbLine
 10
-57.547811162243981
 20
-3.6572894191072294
 30
0.0
 11
-57.347811162243978
 21
-3.6572894191072294
 31
0.0
  0
LINE
  5
BF
100
AcDbEntity
  8
0
  6
CONTINUOUS
 62
               7
100
AcDbLine
 10
-57.547811162243981
 20
-3.357289406068702
 30
0.0
 11
-57.547811162243981
 21
-3.6572894191072294
 31
0.0
  0
LINE
  5
C0
100
AcDbEntity
  8
0
  6
CONTINUOUS
 62
               7
100
AcDbLine
 10
-53.691588118302086
 20
-5.0057691440639758
 30
0.0
 11
-55.902065922730579
 21
-4.689390884603938
 31
0.0
  0
LINE
  5
C1
100
AcDbEntity
  8
0
  6
CONTINUOUS
 62
               7
100
AcDbLine
 10
-53.694221299658913
 20
-4.9043731964318624
 30
0.0
 11
-55.716070499345527
 21
-4.6149927152499117
 31
0.0
  0
LINE
  5
C2
100
AcDbEntity
  8
0
  6
CONTINUOUS
 62
               7
100
AcDbLine
 10
-53.694221329461236
 20
-4.9043732011393502
 30
0.0
 11
-53.347811144362588
 21
-4.7043731981591179
 31
0.0
  0
LINE
  5
C3
100
AcDbEntity
  8
0
  6
CONTINUOUS
 62
               7
100
AcDbLine
 10
-53.691588118302086
 20
-5.0057691440639758
 30
0.0
 11
-53.347811162243978
 21
-4.8072894259426562
 31
0.0
  0
LINE
  5
C4
100
AcDbEntity
  8
0
  6
CONTINUOUS
 62
               7
100
AcDbLine
 10
-56.1968122589888
 20
-4.8072894191072351
 30
0.0
 11
-55.4468122589888
 21
-4.5072894191072237
 31
0.0
  0
LINE
  5
C5
100
AcDbEntity
  8
0
  6
CONTINUOUS
 62
               7
100
AcDbLine
 10
-56.216070499345527
 20
-4.7072894191072407
 30
0.0
 11
-55.716070499345527
 21
-4.5072894191072237
 31
0.0
  0
LINE
  5
C6
100
AcDbEntity
  8
0
  6
CONTINUOUS
 62
               7
100
AcDbLine
 10
-56.84781117416491
 20
-4.7072894191072407
 30
0.0
 11
-56.216070499345527
 21
-4.7072894191072407
 31
0.0
  0
LINE
  5
C7
100
AcDbEntity
  8
0
  6
CONTINUOUS
 62
               7
100
AcDbLine
 10
-56.84781117416491
 20
-4.8072894191072351
 30
0.0
 11
-56.1968122589888
 21
-4.8072894191072351
 31
0.0
  0
LINE
  5
C8
100
AcDbEntity
  8
0
  6
CONTINUOUS
 62
               7
100
AcDbLine
 10
-55.716070499345527
 20
-3.4572894191072407
 30
0.0
 11
-54.067426470796583
 21
-3.4572894191072407
 31
0.0
  0
LINE
  5
C9
100
AcDbEntity
  8
0
  6
CONTINUOUS
 62
               7
100
AcDbLine
 10
-54.067426484595437
 20
-3.4572894150093987
 30
0.0
 11
-53.894221347342629
 21
-3.5572894388512566
 31
0.0
  0
LINE
  5
CA
100
AcDbEntity
  8
0
  6
CONTINUOUS
 62
               7
100
AcDbLine
 10
-54.040631544362206
 20
-3.357289406068702
 30
0.0
 11
-53.694221329461236
 21
-3.5572894388512566
 31
0.0
  0
LINE
  5
CB
100
AcDbEntity
  8
0
  6
CONTINUOUS
 62
               7
100
AcDbLine
 10
-53.694221329461236
 20
-3.5572894090489342
 30
0.0
 11
-53.347811185368919
 21
-3.357289419107218
 31
0.0
  0
LINE
  5
CC
100
AcDbEntity
  8
0
  6
CONTINUOUS
 62
               7
100
AcDbLine
 10
-53.347811162243978
 20
-3.357289419107218
 30
0.0
 11
-47.547811162243981
 21
-3.357289419107218
 31
0.0
  0
ARC
  5
CD
100
AcDbEntity
  8
0
  6
CONTINUOUS
 62
               7
100
AcDbCircle
 10
-55.616070499345525
 20
-3.4572894191072407
 30
0.0
 40
0.1
100
AcDbArc
 50
179.99999999999963
 51
269.99999999999937
  0
ARC
  5
CE
100
AcDbEntity
  8
0
  6
CONTINUOUS
 62
               7
100
AcDbCircle
 10
-53.44781116224398
 20
-3.4572894191072407
 30
0.0
 40
0.1
100
AcDbArc
 50
269.99999999999937
 51
0.0
  0
LINE
  5
CF
100
AcDbEntity
  8
0
  6
CONTINUOUS
 62
               7
100
AcDbLine
 10
-55.616070490847726
 20
-3.5572894191072351
 30
0.0
 11
-53.447811168204446
 21
-3.5572894191072351
 31
0.0
  0
LINE
  5
D0
100
AcDbEntity
  8
0
  6
CONTINUOUS
 62
               7
100
AcDbLine
 10
-53.347811162243978
 20
-3.357289406068702
 30
0.0
 11
-53.347811162243978
 21
-3.4572894299105599
 31
0.0
  0
LINE
  5
D1
100
AcDbEntity
  8
0
  6
CONTINUOUS
 62
               7
100
AcDbLine
 10
-55.716070499345527
 20
-3.357289406068702
 30
0.0
 11
-55.716070499345527
 21
-3.4572894299105599
 31
0.0
  0
ARC
  5
D2
100
AcDbEntity
  8
0
  6
CONTINUOUS
 62
               7
100
AcDbCircle
 10
-56.316070499345521
 20
-3.4572894191072407
 30
0.0
 40
0.1
100
AcDbArc
 50
269.99999999999937
 51
0.0
  0
LINE
  5
D3
100
AcDbEntity
  8
0
  6
CONTINUOUS
 62
               7
100
AcDbLine
 10
-56.216070499345527
 20
-3.357289406068702
 30
0.0
 11
-56.216070499345527
 21
-3.4572894299105599
 31
0.0
  0
ARC
  5
D4
100
AcDbEntity
  8
0
  6
CONTINUOUS
 62
               7
100
AcDbCircle
 10
-56.747811162243984
 20
-3.4572894191072407
 30
0.0
 40
0.1
100
AcDbArc
 50
179.99999999999963
 51
269.99999999999937
  0
LINE
  5
D5
100
AcDbEntity
  8
0
  6
CONTINUOUS
 62
               7
100
AcDbLine
 10
-56.747811150323052
 20
-3.5572894191072351
 30
0.0
 11
-56.316070499345521
 21
-3.5572894191072351
 31
0.0
  0
LINE
  5
D6
100
AcDbEntity
  8
0
  6
CONTINUOUS
 62
               7
100
AcDbLine
 10
-56.84781117416491
 20
-3.4600848150354295
 30
0.0
 11
-56.647811162243983
 21
-3.4600848150354295
 31
0.0
  0
LINE
  5
D7
100
AcDbEntity
  8
0
  6
CONTINUOUS
 62
               7
100
AcDbLine
 10
-56.216070499345527
 20
-3.357289419107218
 30
0.0
 11
-54.040631529333545
 21
-3.357289419107218
 31
0.0
  0
LINE
  5
D8
100
AcDbEntity
  8
0
  6
CONTINUOUS
 62
               7
100
AcDbLine
 10
-54.547811162243981
 20
-2.857289419107218
 30
0.0
 11
-54.524649109513376
 21
-2.95457004057576
 31
0.0
  0
LINE
  5
D9
100
AcDbEntity
  8
0
  6
CONTINUOUS
 62
               7
100
AcDbLine
 10
-56.647811162243983
 20
-3.4600848150354295
 30
0.0
 11
-54.524649109513376
 21
-2.95457004057576
 31
0.0
  0
LINE
  5
DA
100
AcDbEntity
  8
0
  6
CONTINUOUS
 62
               7
100
AcDbLine
 10
-56.647811162243983
 20
-3.357289419107218
 30
0.0
 11
-54.547811162243981
 21
-2.857289419107218
 31
0.0
  0
LINE
  5
DB
100
AcDbEntity
  8
0
  6
CONTINUOUS
 62
               7
100
AcDbLine
 10
-56.847811162243978
 20
-3.357289406068702
 30
0.0
 11
-56.847811162243978
 21
-3.4572894299105599
 31
0.0
  0
LINE
  5
DC
100
AcDbEntity
  8
0
  6
CONTINUOUS
 62
               7
100
AcDbLine
 10
-53.347811162243978
 20
-5.0072894191072237
 30
0.0
 11
-51.34781117416491
 21
-5.0072894191072237
 31
0.0
  0
ARC
  5
DD
100
AcDbEntity
  8
0
  6
CONTINUOUS
 62
               7
100
AcDbCircle
 10
-53.597811162243978
 20
-4.7572894191072237
 30
0.0
 40
0.25
100
AcDbArc
 50
0.0
 51
89.999999999999815
  0
ARC
  5
DE
100
AcDbEntity
  8
0
  6
CONTINUOUS
 62
               7
100
AcDbCircle
 10
-56.597811162243978
 20
-4.7572894191072237
 30
0.0
 40
0.25
100
AcDbArc
 50
89.999999999999815
 51
179.99999999999963
  0
LINE
  5
DF
100
AcDbEntity
  8
0
  6
CONTINUOUS
 62
               7
100
AcDbLine
 10
-56.59781117416491
 20
-4.5072894191072237
 30
0.0
 11
-53.597811162243978
 21
-4.5072894191072237
 31
0.0
  0
LINE
  5
E0
100
AcDbEntity
  8
0
  6
CONTINUOUS
 62
               7
100
AcDbLine
 10
-56.847811162243978
 20
-4.7572894120291664
 30
0.0
 11
-56.847811162243978
 21
-5.0072894191072237
 31
0.0
  0
LINE
  5
E1
100
AcDbEntity
  8
0
  6
CONTINUOUS
 62
               7
100
AcDbLine
 10
-53.347811162243978
 20
-4.7572894120291664
 30
0.0
 11
-53.347811162243978
 21
-5.0072894191072237
 31
0.0
  0
ARC
  5
E2
100
AcDbEntity
  8
0
  6
CONTINUOUS
 62
               7
100
AcDbCircle
 10
-50.847811162243978
 20
-3.8830957569520592
 30
0.0
 40
0.25
100
AcDbArc
 50
75.000006605880117
 51
179.99999999999963
  0
LINE
  5
E3
100
AcDbEntity
  8
0
  6
CONTINUOUS
 62
               7
100
AcDbLine
 10
-50.783106428156991
 20
-3.6416142904833748
 30
0.0
 11
-50.347811203967233
 21
-3.7582512968853905
 31
0.0
  0
ARC
  5
E4
100
AcDbEntity
  8
0
  6
CONTINUOUS
 62
               7
100
AcDbCircle
 10
-51.347811162243978
 20
-4.7572894191072237
 30
0.0
 40
0.25
100
AcDbArc
 50
269.99999999999937
 51
0.0
  0
LINE
  5
E5
100
AcDbEntity
  8
0
  6
CONTINUOUS
 62
               7
100
AcDbLine
 10
-51.097811162243978
 20
-3.8830957436636879
 30
0.0
 11
-51.097811162243978
 21
-4.7572894120291664
 31
0.0
  0
LINE
  5
E6
100
AcDbEntity
  8
0
  6
CONTINUOUS
 62
               7
100
AcDbLine
 10
-57.34781117416491
 20
-5.0072894191072237
 30
0.0
 11
-56.84781117416491
 21
-5.0072894191072237
 31
0.0
  0
ARC
  5
E7
100
AcDbEntity
  8
0
  6
CONTINUOUS
 62
               7
100
AcDbCircle
 10
-50.097811162243978
 20
-4.7072894191072407
 30
0.0
 40
0.25
100
AcDbArc
 50
179.99999999999963
 51
269.99999999999937
  0
ARC
  5
E8
100
AcDbEntity
  8
0
  6
CONTINUOUS
 62
               7
100
AcDbCircle
 10
-47.797811162243981
 20
-4.7072894191072407
 30
0.0
 40
0.25
100
AcDbArc
 50
269.99999999999937
 51
0.0
  0
LINE
  5
E9
100
AcDbEntity
  8
0
  6
CONTINUOUS
 62
               7
100
AcDbLine
 10
-50.09781117416491
 20
-4.9572894191072407
 30
0.0
 11
-47.797811162243981
 21
-4.9572894191072407
 31
0.0
  0
LINE
  5
EA
100
AcDbEntity
  8
0
  6
CONTINUOUS
 62
               7
100
AcDbLine
 10
-57.547811162243981
 20
-3.357289419107218
 30
0.0
 11
-56.647811162243983
 21
-3.357289419107218
 31
0.0
  0
LINE
  5
EB
100
AcDbEntity
  8
0
  6
CONTINUOUS
 62
               7
100
AcDbLine
 10
-47.547811162243981
 20
-3.5572894239500954
 30
0.0
 11
-47.547811162243981
 21
-4.7072894191072407
 31
0.0
  0
LINE
  5
EC
100
AcDbEntity
  8
0
  6
CONTINUOUS
 62
               7
100
AcDbLine
 10
-50.347811162243978
 20
-3.7582513117865517
 30
0.0
 11
-50.347811162243978
 21
-4.7072894299105599
 31
0.0
  0
LINE
  5
ED
100
AcDbEntity
  8
0
  6
CONTINUOUS
 62
               7
100
AcDbLine
 10
-45.797811162243981
 20
-4.7688387954310372
 30
0.0
 11
-45.935480691378643
 21
-5.0072894191072237
 31
0.0
  0
LINE
  5
EE
100
AcDbEntity
  8
0
  6
CONTINUOUS
 62
               7
100
AcDbLine
 10
-46.547811161312659
 20
-3.4698005044535591
 30
0.0
 11
-46.494120865984769
 21
-5.0072894191072237
 31
0.0
  0
LINE
  5
EF
100
AcDbEntity
  8
0
  6
CONTINUOUS
 62
               7
100
AcDbLine
 10
-45.040827009412844
 20
-3.2698007547930672
 30
0.0
 11
-45.101501450747335
 21
-5.0072894191072237
 31
0.0
  0
LINE
  5
F0
100
AcDbEntity
  8
0
  6
CONTINUOUS
 62
               7
100
AcDbLine
 10
-46.547811177145142
 20
-3.4698007130698159
 30
0.0
 11
-45.66014165593613
 21
-5.0072894191072237
 31
0.0
  0
LINE
  5
F1
100
AcDbEntity
  8
0
  6
CONTINUOUS
 62
               7
100
AcDbLine
 10
-47.547811192046304
 20
-3.357289419107218
 30
0.0
 11
-46.547811192046304
 21
-3.2698007566557123
 31
0.0
  0
LINE
  5
F2
100
AcDbEntity
  8
0
  6
CONTINUOUS
 62
               7
100
AcDbLine
 10
-47.547811192046304
 20
-3.5572894183621599
 30
0.0
 11
-46.547811192046304
 21
-3.4698007559106543
 31
0.0
  0
LINE
  5
F3
100
AcDbEntity
  8
0
  6
CONTINUOUS
 62
               7
100
AcDbLine
 10
-57.347811162243978
 20
-3.357289406068702
 30
0.0
 11
-57.347811162243978
 21
-5.0072894120291664
 31
0.0
  0
LINE
  5
F4
100
AcDbEntity
  8
0
  6
CONTINUOUS
 62
               7
100
AcDbLine
 10
-46.547811162243981
 20
-3.2698007547930672
 30
0.0
 11
-45.040827009412844
 21
-3.2698007547930672
 31
0.0
  0
LINE
  5
F5
100
AcDbEntity
  8
0
  6
CONTINUOUS
 62
               7
100
AcDbLine
 10
-45.101501443131205
 20
-5.0072894191072237
 30
0.0
 11
-46.494120865984769
 21
-5.0072894191072237
 31
0.0
  0
LINE
  5
F6
100
AcDbEntity
  8
0
  6
CONTINUOUS
 62
               7
100
AcDbLine
 10
-57.547811162243981
 20
-0.6572894191072294
 30
0.0
 11
-57.347811162243978
 21
-0.6572894191072294
 31
0.0
  0
LINE
  5
F7
100
AcDbEntity
  8
0
  6
CONTINUOUS
 62
               7
100
AcDbLine
 10
-57.547811162243981
 20
-0.357289406068702
 30
0.0
 11
-57.547811162243981
 21
-0.6572894191072294
 31
0.0
  0
LINE
  5
F8
100
AcDbEntity
  8
0
  6
CONTINUOUS
 62
               7
100
AcDbLine
 10
-53.691588118302086
 20
-2.0057691440639758
 30
0.0
 11
-55.902065922730579
 21
-1.689390884603938
 31
0.0
  0
LINE
  5
F9
100
AcDbEntity
  8
0
  6
CONTINUOUS
 62
               7
100
AcDbLine
 10
-53.694221299658913
 20
-1.9043731964318624
 30
0.0
 11
-55.716070499345527
 21
-1.6149927152499117
 31
0.0
  0
LINE
  5
FA
100
AcDbEntity
  8
0
  6
CONTINUOUS
 62
               7
100
AcDbLine
 10
-53.694221329461236
 20
-1.9043732011393502
 30
0.0
 11
-53.347811144362588
 21
-1.7043731981591179
 31
0.0
  0
LINE
  5
FB
100
AcDbEntity
  8
0
  6
CONTINUOUS
 62
               7
100
AcDbLine
 10
-53.691588118302086
 20
-2.0057691440639758
 30
0.0
 11
-53.347811162243978
 21
-1.8072894259426562
 31
0.0
  0
LINE
  5
FC
100
AcDbEntity
  8
0
  6
CONTINUOUS
 62
               7
100
AcDbLine
 10
-56.1968122589888
 20
-1.8072894191072351
 30
0.0
 11
-55.4468122589888
 21
-1.5072894191072237
 31
0.0
  0
LINE
  5
FD
100
AcDbEntity
  8
0
  6
CONTINUOUS
 62
               7
100
AcDbLine
 10
-56.216070499345527
 20
-1.7072894191072407
 30
0.0
 11
-55.716070499345527
 21
-1.5072894191072237
 31
0.0
  0
LINE
  5
FE
100
AcDbEntity
  8
0
  6
CONTINUOUS
 62
               7
100
AcDbLine
 10
-56.84781117416491
 20
-1.7072894191072407
 30
0.0
 11
-56.216070499345527
 21
-1.7072894191072407
 31
0.0
  0
LINE
  5
FF
100
AcDbEntity
  8
0
  6
CONTINUOUS
 62
               7
100
AcDbLine
 10
-56.84781117416491
 20
-1.8072894191072351
 30
0.0
 11
-56.1968122589888
 21
-1.8072894191072351
 31
0.0
  0
LINE
  5
100
100
AcDbEntity
  8
0
  6
CONTINUOUS
 62
               7
100
AcDbLine
 10
-55.716070499345527
 20
-0.4572894191072408
 30
0.0
 11
-54.067426470796583
 21
-0.4572894191072408
 31
0.0
  0
LINE
  5
101
100
AcDbEntity
  8
0
  6
CONTINUOUS
 62
               7
100
AcDbLine
 10
-54.067426484595437
 20
-0.4572894150093987
 30
0.0
 11
-53.894221347342629
 21
-0.5572894388512566
 31
0.0
  0
LINE
  5
102
100
AcDbEntity
  8
0
  6
CONTINUOUS
 62
               7
100
AcDbLine
 10
-54.040631544362206
 20
-0.357289406068702
 30
0.0
 11
-53.694221329461236
 21
-0.5572894388512566
 31
0.0
  0
LINE
  5
103
100
AcDbEntity
  8
0
  6
CONTINUOUS
 62
               7
100
AcDbLine
 10
-53.694221329461236
 20
-0.5572894090489342
 30
0.0
 11
-53.347811185368919
 21
-0.357289419107218
 31
0.0
  0
LINE
  5
104
100
AcDbEntity
  8
0
  6
CONTINUOUS
 62
               7
100
AcDbLine
 10
-53.347811162243978
 20
-0.357289419107218
 30
0.0
 11
-47.547811162243981
 21
-0.357289419107218
 31
0.0
  0
ARC
  5
105
100
AcDbEntity
  8
0
  6
CONTINUOUS
 62
               7
100
AcDbCircle
 10
-55.616070499345525
 20
-0.4572894191072408
 30
0.0
 40
0.1
100
AcDbArc
 50
179.99999999999963
 51
269.99999999999937
  0
ARC
  5
106
100
AcDbEntity
  8
0
  6
CONTINUOUS
 62
               7
100
AcDbCircle
 10
-53.44781116224398
 20
-0.4572894191072408
 30
0.0
 40
0.1
100
AcDbArc
 50
269.99999999999937
 51
0.0
  0
LINE
  5
107
100
AcDbEntity
  8
0
  6
CONTINUOUS
 62
               7
100
AcDbLine
 10
-55.616070490847726
 20
-0.5572894191072351
 30
0.0
 11
-53.447811168204446
 21
-0.5572894191072351
 31
0.0
  0
LINE
  5
108
100
AcDbEntity
  8
0
  6
CONTINUOUS
 62
               7
100
AcDbLine
 10
-53.347811162243978
 20
-0.357289406068702
 30
0.0
 11
-53.347811162243978
 21
-0.4572894299105599
 31
0.0
  0
LINE
  5
109
100
AcDbEntity
  8
0
  6
CONTINUOUS
 62
               7
100
AcDbLine
 10
-55.716070499345527
 20
-0.357289406068702
 30
0.0
 11
-55.716070499345527
 21
-0.4572894299105599
 31
0.0
  0
ARC
  5
10A
100
AcDbEntity
  8
0
  6
CONTINUOUS
 62
               7
100
AcDbCircle
 10
-56.316070499345521
 20
-0.4572894191072408
 30
0.0
 40
0.1
100
AcDbArc
 50
269.99999999999937
 51
0.0
  0
LINE
  5
10B
100
AcDbEntity
  8
0
  6
CONTINUOUS
 62
               7
100
AcDbLine
 10
-56.216070499345527
 20
-0.357289406068702
 30
0.0
 11
-56.216070499345527
 21
-0.4572894299105599
 31
0.0
  0
ARC
  5
10C
100
AcDbEntity
  8
0
  6
CONTINUOUS
 62
               7
100
AcDbCircle
 10
-56.747811162243984
 20
-0.4572894191072408
 30
0.0
 40
0.1
100
AcDbArc
 50
179.99999999999963
 51
269.99999999999937
  0
LINE
  5
10D
100
AcDbEntity
  8
0
  6
CONTINUOUS
 62
               7
100
AcDbLine
 10
-56.747811150323052
 20
-0.5572894191072351
 30
0.0
 11
-56.316070499345521
 21
-0.5572894191072351
 31
0.0
  0
LINE
  5
10E
100
AcDbEntity
  8
0
  6
CONTINUOUS
 62
               7
100
AcDbLine
 10
-56.84781117416491
 20
-0.4600848150354295
 30
0.0
 11
-56.647811162243983
 21
-0.4600848150354295
 31
0.0
  0
LINE
  5
10F
100
AcDbEntity
  8
0
  6
CONTINUOUS
 62
               7
100
AcDbLine
 10
-56.216070499345527
 20
-0.357289419107218
 30
0.0
 11
-54.040631529333545
 21
-0.357289419107218
 31
0.0
  0
LINE
  5
110
100
AcDbEntity
  8
0
  6
CONTINUOUS
 62
               7
100
AcDbLine
 10
-54.547811162243981
 20
0.142710580892782
 30
0.0
 11
-54.524649109513376
 21
0.04542995942424
 31
0.0
  0
LINE
  5
111
100
AcDbEntity
  8
0
  6
CONTINUOUS
 62
               7
100
AcDbLine
 10
-56.647811162243983
 20
-0.4600848150354295
 30
0.0
 11
-54.524649109513376
 21
0.04542995942424
 31
0.0
  0
LINE
  5
112
100
AcDbEntity
  8
0
  6
CONTINUOUS
 62
               7
100
AcDbLine
 10
-56.647811162243983
 20
-0.357289419107218
 30
0.0
 11
-54.547811162243981
 21
0.142710580892782
 31
0.0
  0
LINE
  5
113
100
AcDbEntity
  8
0
  6
CONTINUOUS
 62
               7
100
AcDbLine
 10
-56.847811162243978
 20
-0.357289406068702
 30
0.0
 11
-56.847811162243978
 21
-0.4572894299105599
 31
0.0
  0
LINE
  5
114
100
AcDbEntity
  8
0
  6
CONTINUOUS
 62
               7
100
AcDbLine
 10
-53.347811162243978
 20
-2.0072894191072237
 30
0.0
 11
-51.34781117416491
 21
-2.0072894191072237
 31
0.0
  0
ARC
  5
115
100
AcDbEntity
  8
0
  6
CONTINUOUS
 62
               7
100
AcDbCircle
 10
-53.597811162243978
 20
-1.7572894191072237
 30
0.0
 40
0.25
100
AcDbArc
 50
0.0
 51
89.999999999999815
  0
ARC
  5
116
100
AcDbEntity
  8
0
  6
CONTINUOUS
 62
               7
100
AcDbCircle
 10
-56.597811162243978
 20
-1.7572894191072237
 30
0.0
 40
0.25
100
AcDbArc
 50
89.999999999999815
 51
179.99999999999963
  0
LINE
  5
117
100
AcDbEntity
  8
0
  6
CONTINUOUS
 62
               7
100
AcDbLine
 10
-56.59781117416491
 20
-1.5072894191072237
 30
0.0
 11
-53.597811162243978
 21
-1.5072894191072237
 31
0.0
  0
LINE
  5
118
100
AcDbEntity
  8
0
  6
CONTINUOUS
 62
               7
100
AcDbLine
 10
-56.847811162243978
 20
-1.7572894120291664
 30
0.0
 11
-56.847811162243978
 21
-2.0072894191072237
 31
0.0
  0
LINE
  5
119
100
AcDbEntity
  8
0
  6
CONTINUOUS
 62
               7
100
AcDbLine
 10
-53.347811162243978
 20
-1.7572894120291664
 30
0.0
 11
-53.347811162243978
 21
-2.0072894191072237
 31
0.0
  0
ARC
  5
11A
100
AcDbEntity
  8
0
  6
CONTINUOUS
 62
               7
100
AcDbCircle
 10
-50.847811162243978
 20
-0.8830957569520592
 30
0.0
 40
0.25
100
AcDbArc
 50
75.000006605880117
 51
179.99999999999963
  0
LINE
  5
11B
100
AcDbEntity
  8
0
  6
CONTINUOUS
 62
               7
100
AcDbLine
 10
-50.783106428156991
 20
-0.6416142904833748
 30
0.0
 11
-50.347811203967233
 21
-0.7582512968853905
 31
0.0
  0
ARC
  5
11C
100
AcDbEntity
  8
0
  6
CONTINUOUS
 62
               7
100
AcDbCircle
 10
-51.347811162243978
 20
-1.7572894191072237
 30
0.0
 40
0.25
100
AcDbArc
 50
269.99999999999937
 51
0.0
  0
LINE
  5
11D
100
AcDbEntity
  8
0
  6
CONTINUOUS
 62
               7
100
AcDbLine
 10
-51.097811162243978
 20
-0.8830957436636879
 30
0.0
 11
-51.097811162243978
 21
-1.7572894120291664
 31
0.0
  0
LINE
  5
11E
100
AcDbEntity
  8
0
  6
CONTINUOUS
 62
               7
100
AcDbLine
 10
-57.34781117416491
 20
-2.0072894191072237
 30
0.0
 11
-56.84781117416491
 21
-2.0072894191072237
 31
0.0
  0
ARC
  5
11F
100
AcDbEntity
  8
0
  6
CONTINUOUS
 62
               7
100
AcDbCircle
 10
-50.097811162243978
 20
-1.7072894191072407
 30
0.0
 40
0.25
100
AcDbArc
 50
179.99999999999963
 51
269.99999999999937
  0
ARC
  5
120
100
AcDbEntity
  8
0
  6
CONTINUOUS
 62
               7
100
AcDbCircle
 10
-47.797811162243981
 20
-1.7072894191072407
 30
0.0
 40
0.25
100
AcDbArc
 50
269.99999999999937
 51
0.0
  0
LINE
  5
121
100
AcDbEntity
  8
0
  6
CONTINUOUS
 62
               7
100
AcDbLine
 10
-50.09781117416491
 20
-1.9572894191072407
 30
0.0
 11
-47.797811162243981
 21
-1.9572894191072407
 31
0.0
  0
LINE
  5
122
100
AcDbEntity
  8
0
  6
CONTINUOUS
 62
               7
100
AcDbLine
 10
-57.547811162243981
 20
-0.357289419107218
 30
0.0
 11
-56.647811162243983
 21
-0.357289419107218
 31
0.0
  0
LINE
  5
123
100
AcDbEntity
  8
0
  6
CONTINUOUS
 62
               7
100
AcDbLine
 10
-47.547811162243981
 20
-0.5572894239500954
 30
0.0
 11
-47.547811162243981
 21
-1.7072894191072407
 31
0.0
  0
LINE
  5
124
100
AcDbEntity
  8
0
  6
CONTINUOUS
 62
               7
100
AcDbLine
 10
-50.347811162243978
 20
-0.7582513117865517
 30
0.0
 11
-50.347811162243978
 21
-1.7072894299105599
 31
0.0
  0
LINE
  5
125
100
AcDbEntity
  8
0
  6
CONTINUOUS
 62
               7
100
AcDbLine
 10
-45.797811162243981
 20
-1.7688387954310372
 30
0.0
 11
-45.935480691378643
 21
-2.0072894191072237
 31
0.0
  0
LINE
  5
126
100
AcDbEntity
  8
0
  6
CONTINUOUS
 62
               7
100
AcDbLine
 10
-46.547811161312659
 20
-0.4698005044535591
 30
0.0
 11
-46.494120865984769
 21
-2.0072894191072237
 31
0.0
  0
LINE
  5
127
100
AcDbEntity
  8
0
  6
CONTINUOUS
 62
               7
100
AcDbLine
 10
-45.040827009412837
 20
-0.2698007547930672
 30
0.0
 11
-45.101501450747335
 21
-2.0072894191072237
 31
0.0
  0
LINE
  5
128
100
AcDbEntity
  8
0
  6
CONTINUOUS
 62
               7
100
AcDbLine
 10
-46.547811177145142
 20
-0.4698007130698159
 30
0.0
 11
-45.66014165593613
 21
-2.0072894191072237
 31
0.0
  0
LINE
  5
129
100
AcDbEntity
  8
0
  6
CONTINUOUS
 62
               7
100
AcDbLine
 10
-47.547811192046304
 20
-0.357289419107218
 30
0.0
 11
-46.547811192046304
 21
-0.2698007566557124
 31
0.0
  0
LINE
  5
12A
100
AcDbEntity
  8
0
  6
CONTINUOUS
 62
               7
100
AcDbLine
 10
-47.547811192046304
 20
-0.55728941836216
 30
0.0
 11
-46.547811192046304
 21
-0.4698007559106543
 31
0.0
  0
LINE
  5
12B
100
AcDbEntity
  8
0
  6
CONTINUOUS
 62
               7
100
AcDbLine
 10
-57.347811162243978
 20
-0.357289406068702
 30
0.0
 11
-57.347811162243978
 21
-2.0072894120291664
 31
0.0
  0
LINE
  5
12C
100
AcDbEntity
  8
0
  6
CONTINUOUS
 62
               7
100
AcDbLine
 10
-46.547811162243981
 20
-0.2698007547930672
 30
0.0
 11
-45.040827009412837
 21
-0.2698007547930672
 31
0.0
  0
LINE
  5
12D
100
AcDbEntity
  8
0
  6
CONTINUOUS
 62
               7
100
AcDbLine
 10
-45.101501443131205
 20
-2.0072894191072237
 30
0.0
 11
-46.494120865984769
 21
-2.0072894191072237
 31
0.0
  0
LINE
  5
12E
100
AcDbEntity
  8
0
  6
CONTINUOUS
 62
               7
100
AcDbLine
 10
-57.347811162243978
 20
-6.357289406068702
 30
0.0
 11
-57.347811162243978
 21
-8.0072894120291664
 31
0.0
  0
LINE
  5
12F
100
AcDbEntity
  8
0
  6
CONTINUOUS
 62
               7
100
AcDbLine
 10
-46.547811177145142
 20
-6.4698007130698159
 30
0.0
 11
-45.66014165593613
 21
-8.0072894191072237
 31
0.0
  0
LINE
  5
130
100
AcDbEntity
  8
0
  6
CONTINUOUS
 62
               7
100
AcDbLine
 10
-45.040827009412844
 20
-6.2698007547930672
 30
0.0
 11
-45.101501450747335
 21
-8.0072894191072237
 31
0.0
  0
LINE
  5
131
100
AcDbEntity
  8
0
  6
CONTINUOUS
 62
               7
100
AcDbLine
 10
-46.547811161312659
 20
-6.4698005044535591
 30
0.0
 11
-46.494120865984769
 21
-8.0072894191072237
 31
0.0
  0
ARC
  5
132
100
AcDbEntity
  8
0
  6
CONTINUOUS
 62
               7
100
AcDbCircle
 10
-47.797811162243981
 20
-7.7072894191072407
 30
0.0
 40
0.25
100
AcDbArc
 50
269.99999999999937
 51
0.0
  0
ARC
  5
133
100
AcDbEntity
  8
0
  6
CONTINUOUS
 62
               7
100
AcDbCircle
 10
-50.097811162243978
 20
-7.7072894191072407
 30
0.0
 40
0.25
100
AcDbArc
 50
179.99999999999963
 51
269.99999999999937
  0
LINE
  5
134
100
AcDbEntity
  8
0
  6
CONTINUOUS
 62
               7
100
AcDbLine
 10
-51.097811162243978
 20
-6.8830957436636879
 30
0.0
 11
-51.097811162243978
 21
-7.7572894120291664
 31
0.0
  0
ARC
  5
135
100
AcDbEntity
  8
0
  6
CONTINUOUS
 62
               7
100
AcDbCircle
 10
-56.597811162243978
 20
-7.7572894191072237
 30
0.0
 40
0.25
100
AcDbArc
 50
89.999999999999815
 51
179.99999999999963
  0
ARC
  5
136
100
AcDbEntity
  8
0
  6
CONTINUOUS
 62
               7
100
AcDbCircle
 10
-53.597811162243978
 20
-7.7572894191072237
 30
0.0
 40
0.25
100
AcDbArc
 50
0.0
 51
89.999999999999815
  0
LINE
  5
137
100
AcDbEntity
  8
0
  6
CONTINUOUS
 62
               7
100
AcDbLine
 10
-56.1968122589888
 20
-7.8072894191072351
 30
0.0
 11
-55.4468122589888
 21
-7.5072894191072237
 31
0.0
  0
LINE
  5
138
100
AcDbEntity
  8
0
  6
CONTINUOUS
 62
               7
100
AcDbLine
 10
-53.694221329461236
 20
-7.9043732011393502
 30
0.0
 11
-53.347811144362588
 21
-7.7043731981591179
 31
0.0
  0
LINE
  5
139
100
AcDbEntity
  8
0
  6
CONTINUOUS
 62
               7
100
AcDbLine
 10
-53.694221299658913
 20
-7.9043731964318624
 30
0.0
 11
-55.716070499345527
 21
-7.6149927152499117
 31
0.0
  0
LINE
  5
13A
100
AcDbEntity
  8
0
  6
CONTINUOUS
 62
               7
100
AcDbLine
 10
-53.691588118302086
 20
-8.0057691440639758
 30
0.0
 11
-55.902065922730579
 21
-7.689390884603938
 31
0.0
  0
LINE
  5
13B
100
AcDbEntity
  8
0
  6
CONTINUOUS
 62
               7
100
AcDbLine
 10
-20.449847371021235
 20
-1.1322894090489513
 30
0.0
 11
-19.959583191223867
 21
-1.1322894090489513
 31
0.0
  0
LINE
  5
13C
100
AcDbEntity
  8
0
  6
CONTINUOUS
 62
               7
100
AcDbLine
 10
-20.449847371021235
 20
-7.1322894090489513
 30
0.0
 11
-20.049847371021237
 21
-7.1322894090489513
 31
0.0
  0
LINE
  5
13D
100
AcDbEntity
  8
0
  6
CONTINUOUS
 62
               7
100
AcDbLine
 10
-19.18232027224856
 20
-0.6196209498890255
 30
0.0
 11
-19.50436325589726
 21
-0.6239595985126982
 31
0.0
  0
ARC
  5
13E
100
AcDbEntity
  8
0
  6
CONTINUOUS
 62
               7
100
AcDbCircle
 10
-18.899999988148075
 20
-1.0322894090489569
 30
0.0
 40
0.5
100
AcDbArc
 50
89.999999999999815
 51
179.99999999999963
  0
ARC
  5
13F
100
AcDbEntity
  8
0
  6
CONTINUOUS
 62
               7
100
AcDbCircle
 10
-18.899999988148075
 20
-3.0322894090489569
 30
0.0
 40
0.5
100
AcDbArc
 50
179.99999999999963
 51
269.99999999999937
  0
LINE
  5
140
100
AcDbEntity
  8
0
  6
CONTINUOUS
 62
               7
100
AcDbLine
 10
-18.799999988148073
 20
-3.5322894090489569
 30
0.0
 11
-18.899999988148075
 21
-3.5322894090489569
 31
0.0
  0
LINE
  5
141
100
AcDbEntity
  8
0
  6
CONTINUOUS
 62
               7
100
AcDbLine
 10
-18.799999988148073
 20
-0.5322894090489569
 30
0.0
 11
-18.899999988148075
 21
-0.5322894090489569
 31
0.0
  0
LINE
  5
142
100
AcDbEntity
  8
0
  6
CONTINUOUS
 62
               7
100
AcDbLine
 10
-19.399999988148075
 20
-3.0322894090489569
 30
0.0
 11
-19.399999988148068
 21
-1.0322894090489569
 31
0.0
  0
CIRCLE
  5
143
100
AcDbEntity
  8
0
  6
CONTINUOUS
 62
               7
100
AcDbCircle
 10
14.142135623730951
 20
-6.5
 30
0.0
 40
4.75
  0
LINE
  5
144
100
AcDbEntity
  8
0
  6
CONTINUOUS
 62
               7
100
AcDbLine
 10
20.0
 20
-16.799999999999983
 30
0.0
 11
-19.999999999999993
 21
-16.799999999999983
 31
0.0
  0
LINE
  5
145
100
AcDbEntity
  8
0
  6
CONTINUOUS
 62
               4
100
AcDbLine
 10
-11.350000031778553
 20
-17.0
 30
0.0
 11
-11.350000031778553
 21
-18.0
 31
0.0
  0
LINE
  5
146
100
AcDbEntity
  8
0
  6
CONTINUOUS
 62
               4
100
AcDbLine
 10
-5.3500000317785492
 20
-17.0
 30
0.0
 11
-5.3500000317785492
 21
-18.0
 31
0.0
  0
LINE
  5
147
100
AcDbEntity
  8
0
  6
CONTINUOUS
 62
               4
100
AcDbLine
 10
13.700000000000003
 20
-17.000000009112881
 30
0.0
 11
13.700000000000003
 21
-18.0
 31
0.0
  0
LINE
  5
148
100
AcDbEntity
  8
0
  6
CONTINUOUS
 62
               4
100
AcDbLine
 10
19.700000000000003
 20
-17.0
 30
0.0
 11
19.700000000000003
 21
-18.0
 31
0.0
  0
LINE
  5
149
100
AcDbEntity
  8
0
  6
CONTINUOUS
 62
               7
100
AcDbLine
 10
-19.79999999999999
 20
-17.0
 30
0.0
 11
-19.999999999999993
 21
-16.799999999999983
 31
0.0
  0
LINE
  5
14A
100
AcDbEntity
  8
0
  6
CONTINUOUS
 62
               7
100
AcDbLine
 10
20.0
 20
-16.799999999999983
 30
0.0
 11
19.79999999999999
 21
-17.0
 31
0.0
  0
LINE
  5
14B
100
AcDbEntity
  8
0
  6
CENTER
 62
               2
100
AcDbLine
 10
0.0
 20
2.0
 30
0.0
 11
0.0
 21
-19.0
 31
0.0
  0
LINE
  5
14C
100
AcDbEntity
  8
0
  6
CENTER
 62
             200
100
AcDbLine
 10
-8.3500000317785563
 20
-14.272059509330319
 30
0.0
 11
-8.3500000317785563
 21
-20.0
 31
0.0
  0
LINE
  5
14D
100
AcDbEntity
  8
0
  6
CENTER
 62
             200
100
AcDbLine
 10
16.700000000000003
 20
-14.272059509330319
 30
0.0
 11
16.700000000000003
 21
-20.0
 31
0.0
  0
LINE
  5
14E
100
AcDbEntity
  8
0
  6
CONTINUOUS
 62
               7
100
AcDbLine
 10
12.117135623730945
 20
-2.9925971146730319
 30
0.0
 11
10.092135623730954
 21
-6.5
 31
0.0
  0
LINE
  5
14F
100
AcDbEntity
  8
0
  6
CONTINUOUS
 62
               7
100
AcDbLine
 10
10.092135623730954
 20
-6.5
 30
0.0
 11
12.11713562373096
 21
-10.007402885326968
 31
0.0
  0
LINE
  5
150
100
AcDbEntity
  8
0
  6
CONTINUOUS
 62
               7
100
AcDbLine
 10
12.11713562373096
 20
-10.007402885326968
 30
0.0
 11
16.16713562373095
 21
-10.007402885326968
 31
0.0
  0
LINE
  5
151
100
AcDbEntity
  8
0
  6
CONTINUOUS
 62
               7
100
AcDbLine
 10
16.167135623730957
 20
-2.9925971146730319
 30
0.0
 11
12.117135623730945
 21
-2.9925971146730319
 31
0.0
  0
LINE
  5
152
100
AcDbEntity
  8
0
  6
CONTINUOUS
 62
               7
100
AcDbLine
 10
14.742135623730952
 20
-2.9925971146730319
 30
0.0
 11
14.742135623730952
 21
-10.007402885326968
 31
0.0
  0
LINE
  5
153
100
AcDbEntity
  8
0
  6
CONTINUOUS
 62
               7
100
AcDbLine
 10
13.54213562373095
 20
-2.9925971146730319
 30
0.0
 11
13.54213562373095
 21
-10.007402885326968
 31
0.0
  0
ARC
  5
154
100
AcDbEntity
  8
0
  6
CONTINUOUS
 62
               7
100
AcDbCircle
 10
14.142135623730951
 20
-6.5
 30
0.0
 40
3.5074028853269792
100
AcDbArc
 50
279.84984773017413
 51
80.150152269825071
  0
ARC
  5
155
100
AcDbEntity
  8
0
  6
CONTINUOUS
 62
               7
100
AcDbCircle
 10
14.142135623730951
 20
-6.5
 30
0.0
 40
3.5074028853269792
100
AcDbArc
 50
99.849847730174503
 51
260.15015226982462
  0
LINE
  5
156
100
AcDbEntity
  8
0
  6
CONTINUOUS
 62
               7
100
AcDbLine
 10
18.192135623730955
 20
-6.5
 30
0.0
 11
16.167135623730957
 21
-2.9925971146730319
 31
0.0
  0
LINE
  5
157
100
AcDbEntity
  8
0
  6
CONTINUOUS
 62
               7
100
AcDbLine
 10
16.16713562373095
 20
-10.007402885326968
 30
0.0
 11
18.192135623730955
 21
-6.5
 31
0.0
  0
CIRCLE
  5
158
100
AcDbEntity
  8
0
  6
CONTINUOUS
 62
               7
100
AcDbCircle
 10
14.142135623730951
 20
-6.5
 30
0.0
 40
4.0
  0
LINE
  5
159
100
AcDbEntity
  8
0
  6
CENTER
 62
               2
100
AcDbLine
 10
14.142135623730951
 20
-0.299999999999983
 30
0.0
 11
14.142135623730951
 21
-12.700000000000017
 31
0.0
  0
LINE
  5
15A
100
AcDbEntity
  8
0
  6
CENTER
 62
               2
100
AcDbLine
 10
20.342135623730954
 20
-6.5
 30
0.0
 11
7.9421356237309553
 21
-6.5
 31
0.0
  0
LINE
  5
15B
100
AcDbEntity
  8
0
  6
CONTINUOUS
 62
               7
100
AcDbLine
 10
-8.9999999999999929
 20
-0.0000000110763096
 30
0.0
 11
-8.9999999999999929
 21
-11.00000001107631
 31
0.0
  0
LINE
  5
15C
100
AcDbEntity
  8
0
  6
CONTINUOUS
 62
               7
100
AcDbLine
 10
-8.9999999999999929
 20
-11.0
 30
0.0
 11
-19.999999999999993
 21
-11.0
 31
0.0
  0
LINE
  5
15D
100
AcDbEntity
  8
0
  6
CENTER
 62
               2
100
AcDbLine
 10
-7.8555882073952645
 20
-5.5322894090489569
 30
0.0
 11
-21.436533219128897
 21
-5.5322894090489569
 31
0.0
  0
LINE
  5
15E
100
AcDbEntity
  8
0
  6
CONTINUOUS
 62
               7
100
AcDbLine
 10
-12.699999988148065
 20
-10.53228941072237
 30
0.0
 11
-8.9999999999999929
 21
-10.5
 31
0.0
  0
LINE
  5
15F
100
AcDbEntity
  8
0
  6
CONTINUOUS
 62
               7
100
AcDbLine
 10
-12.699999988148065
 20
-0.5322894090489569
 30
0.0
 11
-8.9999999999999929
 21
-0.5645788197713273
 31
0.0
  0
ARC
  5
160
100
AcDbEntity
  8
0
  6
CONTINUOUS
 62
               7
100
AcDbCircle
 10
-19.499999988148062
 20
-9.9406382597265122
 30
0.0
 40
0.5
100
AcDbArc
 50
179.99999999999963
 51
269.49999999999915
  0
ARC
  5
161
100
AcDbEntity
  8
0
  6
CONTINUOUS
 62
               7
100
AcDbCircle
 10
-19.499999988148062
 20
-1.1239405600447867
 30
0.0
 40
0.5
100
AcDbArc
 50
90.500000000000071
 51
179.99999999999963
  0
LINE
  5
162
100
AcDbEntity
  8
0
  6
CONTINUOUS
 62
               7
100
AcDbLine
 10
-12.699999988148065
 20
-0.5322894090489569
 30
0.0
 11
-18.799999988148066
 21
-0.6144702294615456
 31
0.0
  0
LINE
  5
163
100
AcDbEntity
  8
0
  6
CONTINUOUS
 62
               7
100
AcDbLine
 10
-12.699999988148065
 20
-10.53228941072237
 30
0.0
 11
-19.50436325589726
 21
-10.440619221258629
 31
0.0
  0
LINE
  5
164
100
AcDbEntity
  8
0
  6
CENTER
 62
               2
100
AcDbLine
 10
-18.195856974999167
 20
-2.0322894090489569
 30
0.0
 11
-20.399999988148068
 21
-2.0322894090489569
 31
0.0
  0
LINE
  5
165
100
AcDbEntity
  8
0
  6
CONTINUOUS
 62
               7
100
AcDbLine
 10
-18.799999988148066
 20
-3.6322894090489513
 30
0.0
 11
-18.799999988148066
 21
-0.5322894090489569
 31
0.0
  0
LINE
  5
166
100
AcDbEntity
  8
0
  6
CONTINUOUS
 62
               7
100
AcDbLine
 10
-18.799999988148066
 20
-3.6322894090489513
 30
0.0
 11
-19.999999988148062
 21
-3.6322894090489513
 31
0.0
  0
LINE
  5
167
100
AcDbEntity
  8
0
  6
CONTINUOUS
 62
               7
100
AcDbLine
 10
-19.999999988148062
 20
-9.9406382597265122
 30
0.0
 11
-19.999999988148062
 21
-1.1239405600447867
 31
0.0
  0
LINE
  5
168
100
AcDbEntity
  8
0
  6
CONTINUOUS
 62
               7
100
AcDbLine
 10
-12.699999988148065
 20
-10.53228941072237
 30
0.0
 11
-12.699999988148065
 21
-0.5322894090489569
 31
0.0
  0
LINE
  5
169
100
AcDbEntity
  8
0
  6
CONTINUOUS
 62
               7
100
AcDbLine
 10
20.0
 20
-1.0
 30
0.0
 11
-8.9999999999999929
 21
-1.0
 31
0.0
  0
LINE
  5
16A
100
AcDbEntity
  8
0
  6
CONTINUOUS
 62
               7
100
AcDbLine
 10
-19.999999999999993
 20
-11.0
 30
0.0
 11
-19.999999999999993
 21
-16.799999999999983
 31
0.0
  0
LINE
  5
16B
100
AcDbEntity
  8
0
  6
CONTINUOUS
 62
               7
100
AcDbLine
 10
19.0
 20
0.0
 30
0.0
 11
-8.9999999999999929
 21
0.0
 31
0.0
  0
LINE
  5
16C
100
AcDbEntity
  8
0
  6
CONTINUOUS
 62
               4
100
AcDbLine
 10
-5.3500000317785492
 20
-18.0
 30
0.0
 11
-11.350000031778553
 21
-18.0
 31
0.0
  0
LINE
  5
16D
100
AcDbEntity
  8
0
  6
CONTINUOUS
 62
               4
100
AcDbLine
 10
19.700000000000003
 20
-18.0
 30
0.0
 11
13.700000000000003
 21
-18.0
 31
0.0
  0
LINE
  5
16E
100
AcDbEntity
  8
0
  6
CONTINUOUS
 62
               7
100
AcDbLine
 10
19.0
 20
0.0
 30
0.0
 11
20.0
 21
-1.0
 31
0.0
  0
LINE
  5
16F
100
AcDbEntity
  8
0
  6
CONTINUOUS
 62
               7
100
AcDbLine
 10
19.79999999999999
 20
-17.0
 30
0.0
 11
-19.79999999999999
 21
-17.0
 31
0.0
  0
LINE
  5
170
100
AcDbEntity
  8
0
  6
CONTINUOUS
 62
               7
100
AcDbLine
 10
20.0
 20
-1.0
 30
0.0
 11
20.0
 21
-16.799999999999983
 31
0.0
  0
ENDBLK
  5
171
100
AcDbEntity
  8
0
100
AcDbBlockEnd
  0
BLOCK
  5
172
100
AcDbEntity
  8
0
100
AcDbBlockBegin
  2
NCT40-3
 70
               0
 10
0.0
 20
0.0
 30
0.0
  3
NCT40-3
  1

  0
LINE
  5
173
100
AcDbEntity
  8
0
  6
CONTINUOUS
 62
               7
100
AcDbLine
 10
-20.399999988148068
 20
5.3000000000000114
 30
0.0
 11
-19.999999988148069
 21
5.3000000000000114
 31
0.0
  0
LINE
  5
174
100
AcDbEntity
  8
0
  6
CONTINUOUS
 62
               7
100
AcDbLine
 10
-20.399999988148068
 20
11.300000000000011
 30
0.0
 11
-19.999999988148069
 21
11.300000000000011
 31
0.0
  0
LINE
  5
175
100
AcDbEntity
  8
0
  6
PHANTOM
 62
               2
100
AcDbLine
 10
-28.591154277324669
 20
6.4000000243766664
 30
0.0
 11
-30.785085305571549
 21
10.200000036297595
 31
0.0
  0
LINE
  5
176
100
AcDbEntity
  8
0
  6
PHANTOM
 62
               2
100
AcDbLine
 10
-29.514914676547043
 20
6.399999994574344
 30
0.0
 11
-31.708845719695084
 21
10.200000036297595
 31
0.0
  0
LINE
  5
177
100
AcDbEntity
  8
0
  6
CONTINUOUS
 62
               7
100
AcDbLine
 10
-31.362435538355754
 20
9.6000000000000227
 30
0.0
 11
-32.899999988148068
 21
9.6000000000000227
 31
0.0
  0
LINE
  5
178
100
AcDbEntity
  8
0
  6
CONTINUOUS
 62
               7
100
AcDbLine
 10
-29.861324838462728
 20
7.0
 30
0.0
 11
-32.899999988148068
 21
7.0
 31
0.0
  0
LINE
  5
179
100
AcDbEntity
  8
0
  6
CONTINUOUS
 62
               7
100
AcDbLine
 10
-27.399999988148068
 20
9.6000000000000227
 30
0.0
 11
-30.43867513913338
 21
9.6000000000000227
 31
0.0
  0
LINE
  5
17A
100
AcDbEntity
  8
0
  6
CONTINUOUS
 62
               7
100
AcDbLine
 10
-27.399999988148068
 20
7.0
 30
0.0
 11
-28.937564439240354
 21
7.0
 31
0.0
  0
LINE
  5
17B
100
AcDbEntity
  8
0
  6
CONTINUOUS
 62
               7
100
AcDbLine
 10
-32.899999988148068
 20
7.0
 30
0.0
 11
-32.899999988148068
 21
9.6000000000000227
 31
0.0
  0
LINE
  5
17C
100
AcDbEntity
  8
0
  6
CONTINUOUS
 62
               7
100
AcDbLine
 10
-22.899999988148068
 20
6.5500000000000114
 30
0.0
 11
-21.899999988148068
 21
6.5500000000000114
 31
0.0
  0
LINE
  5
17D
100
AcDbEntity
  8
0
  6
CONTINUOUS
 62
               7
100
AcDbLine
 10
-22.899999988148068
 20
10.050000000000011
 30
0.0
 11
-21.899999988148068
 21
10.050000000000011
 31
0.0
  0
LINE
  5
17E
100
AcDbEntity
  8
0
  6
CONTINUOUS
 62
               7
100
AcDbLine
 10
-25.399999988148068
 20
6.5500000000000114
 30
0.0
 11
-24.399999988148068
 21
6.5500000000000114
 31
0.0
  0
LINE
  5
17F
100
AcDbEntity
  8
0
  6
CONTINUOUS
 62
               7
100
AcDbLine
 10
-25.399999988148068
 20
10.050000000000011
 30
0.0
 11
-24.399999988148068
 21
10.050000000000011
 31
0.0
  0
LINE
  5
180
100
AcDbEntity
  8
0
  6
CONTINUOUS
 62
               7
100
AcDbLine
 10
-21.899999988148068
 20
5.5142857142857338
 30
0.0
 11
-20.399999988148068
 21
5.3000000000000114
 31
0.0
  0
LINE
  5
181
100
AcDbEntity
  8
0
  6
CONTINUOUS
 62
               7
100
AcDbLine
 10
-24.399999988148068
 20
5.8714285714285808
 30
0.0
 11
-22.899999988148068
 21
5.6571428571428726
 31
0.0
  0
LINE
  5
182
100
AcDbEntity
  8
0
  6
CONTINUOUS
 62
               7
100
AcDbLine
 10
-21.899999988148068
 20
11.085714285714289
 30
0.0
 11
-20.399999988148068
 21
11.300000000000011
 31
0.0
  0
LINE
  5
183
100
AcDbEntity
  8
0
  6
CONTINUOUS
 62
               7
100
AcDbLine
 10
-24.399999988148068
 20
10.728571428571442
 30
0.0
 11
-22.899999988148068
 21
10.94285714285715
 31
0.0
  0
LINE
  5
184
100
AcDbEntity
  8
0
  6
CONTINUOUS
 62
               7
100
AcDbLine
 10
-21.899999988148068
 20
5.5142857142857338
 30
0.0
 11
-21.899999988148068
 21
11.085714285714289
 31
0.0
  0
LINE
  5
185
100
AcDbEntity
  8
0
  6
CONTINUOUS
 62
               7
100
AcDbLine
 10
-22.899999988148068
 20
5.6571428571428726
 30
0.0
 11
-22.899999988148068
 21
10.94285714285715
 31
0.0
  0
LINE
  5
186
100
AcDbEntity
  8
0
  6
CONTINUOUS
 62
               7
100
AcDbLine
 10
-24.399999988148068
 20
5.8714285714285808
 30
0.0
 11
-24.399999988148068
 21
10.728571428571442
 31
0.0
  0
LINE
  5
187
100
AcDbEntity
  8
0
  6
CONTINUOUS
 62
               7
100
AcDbLine
 10
-25.399999988148068
 20
6.0142857142857338
 30
0.0
 11
-25.399999988148068
 21
10.585714285714289
 31
0.0
  0
LINE
  5
188
100
AcDbEntity
  8
0
  6
CONTINUOUS
 62
               7
100
AcDbLine
 10
-27.399999988148068
 20
6.3000000000000114
 30
0.0
 11
-25.399999988148068
 21
6.0142857142857338
 31
0.0
  0
LINE
  5
189
100
AcDbEntity
  8
0
  6
CONTINUOUS
 62
               7
100
AcDbLine
 10
-27.399999988148068
 20
10.300000000000011
 30
0.0
 11
-25.399999988148068
 21
10.585714285714289
 31
0.0
  0
LINE
  5
18A
100
AcDbEntity
  8
0
  6
CONTINUOUS
 62
               7
100
AcDbLine
 10
-27.399999988148068
 20
6.3000000000000114
 30
0.0
 11
-27.399999988148068
 21
10.300000000000011
 31
0.0
  0
LINE
  5
18B
100
AcDbEntity
  8
0
  6
CONTINUOUS
 62
               7
100
AcDbLine
 10
-20.399999988148068
 20
5.3000000000000114
 30
0.0
 11
-20.399999988148068
 21
11.300000000000011
 31
0.0
  0
LINE
  5
18C
100
AcDbEntity
  8
0
  6
CONTINUOUS
 62
               7
100
AcDbLine
 10
-32.899999988148068
 20
9.1500000000000057
 30
0.0
 11
-34.928867510330136
 21
9.1500000000000057
 31
0.0
  0
LINE
  5
18D
100
AcDbEntity
  8
0
  6
CONTINUOUS
 62
               7
100
AcDbLine
 10
-32.899999988148068
 20
8.3500000000000085
 30
0.0
 11
-34.466987295935802
 21
8.3500000000000085
 31
0.0
  0
LINE
  5
18E
100
AcDbEntity
  8
0
  6
CONTINUOUS
 62
               7
100
AcDbLine
 10
-32.899999988148068
 20
8.2500000000000142
 30
0.0
 11
-34.409252269136516
 21
8.2500000000000142
 31
0.0
  0
LINE
  5
18F
100
AcDbEntity
  8
0
  6
CONTINUOUS
 62
               7
100
AcDbLine
 10
-32.899999988148068
 20
7.4500000000000028
 30
0.0
 11
-33.947372054742189
 21
7.4500000000000028
 31
0.0
  0
ARC
  5
190
100
AcDbEntity
  8
0
  6
CONTINUOUS
 62
               7
100
AcDbCircle
 10
-41.551368390972975
 20
9.9000000000000057
 30
0.0
 40
5.0
100
AcDbArc
 50
269.99999999999937
 51
299.99999999999932
  0
ARC
  5
191
100
AcDbEntity
  8
0
  6
CONTINUOUS
 62
               7
100
AcDbCircle
 10
-41.765727744917868
 20
10.700000000000017
 30
0.0
 40
5.0
100
AcDbArc
 50
269.99999999999937
 51
299.99999999999932
  0
ARC
  5
192
100
AcDbEntity
  8
0
  6
CONTINUOUS
 62
               7
100
AcDbCircle
 10
-41.551368390972975
 20
6.7000000000000171
 30
0.0
 40
5.0
100
AcDbArc
 50
59.999999999999858
 51
89.999999999999815
  0
ARC
  5
193
100
AcDbEntity
  8
0
  6
CONTINUOUS
 62
               7
100
AcDbCircle
 10
-41.765727744917868
 20
5.9000000000000057
 30
0.0
 40
5.0
100
AcDbArc
 50
59.999999999999858
 51
89.999999999999815
  0
LINE
  5
194
100
AcDbEntity
  8
0
  6
CONTINUOUS
 62
               7
100
AcDbLine
 10
-36.47335383859938
 20
7.9820508075688821
 30
0.0
 11
-39.265727744917868
 21
6.369872981077819
 31
0.0
  0
LINE
  5
195
100
AcDbEntity
  8
0
  6
CONTINUOUS
 62
               7
100
AcDbLine
 10
-36.25899448465448
 20
7.1820508075688849
 30
0.0
 11
-39.051368390972975
 21
5.5698729810778076
 31
0.0
  0
LINE
  5
196
100
AcDbEntity
  8
0
  6
CONTINUOUS
 62
               7
100
AcDbLine
 10
-36.47335383859938
 20
8.6179491924311407
 30
0.0
 11
-39.265727744917868
 21
10.230127018922204
 31
0.0
  0
LINE
  5
197
100
AcDbEntity
  8
0
  6
CONTINUOUS
 62
               7
100
AcDbLine
 10
-36.25899448465448
 20
9.4179491924311378
 30
0.0
 11
-39.051368390972975
 21
11.030127018922201
 31
0.0
  0
LINE
  5
198
100
AcDbEntity
  8
0
  6
CONTINUOUS
 62
               7
100
AcDbLine
 10
-45.122649683083175
 20
5.7000000000000171
 30
0.0
 11
-41.765727744917868
 21
5.7000000000000171
 31
0.0
  0
LINE
  5
199
100
AcDbEntity
  8
0
  6
CONTINUOUS
 62
               7
100
AcDbLine
 10
-45.122649683083175
 20
4.9000000000000057
 30
0.0
 11
-41.551368390972975
 21
4.9000000000000057
 31
0.0
  0
LINE
  5
19A
100
AcDbEntity
  8
0
  6
CONTINUOUS
 62
               7
100
AcDbLine
 10
-45.122649683083175
 20
11.700000000000017
 30
0.0
 11
-41.551368390972975
 21
11.700000000000017
 31
0.0
  0
LINE
  5
19B
100
AcDbEntity
  8
0
  6
CONTINUOUS
 62
               7
100
AcDbLine
 10
-45.122649683083175
 20
10.900000000000006
 30
0.0
 11
-41.765727744917868
 21
10.900000000000006
 31
0.0
  0
LINE
  5
19C
100
AcDbEntity
  8
0
  6
CONTINUOUS
 62
               7
100
AcDbLine
 10
-34.871132439562864
 20
7.4500000000000028
 30
0.0
 11
-35.25899448465448
 21
7.4500000000000028
 31
0.0
  0
LINE
  5
19D
100
AcDbEntity
  8
0
  6
CONTINUOUS
 62
               7
100
AcDbLine
 10
-35.333012654571917
 20
8.2500000000000142
 30
0.0
 11
-35.473353838599373
 21
8.2500000000000142
 31
0.0
  0
LINE
  5
19E
100
AcDbEntity
  8
0
  6
CONTINUOUS
 62
               7
100
AcDbLine
 10
-35.390747681448048
 20
8.3500000000000085
 30
0.0
 11
-35.473353838599373
 21
8.3500000000000085
 31
0.0
  0
LINE
  5
19F
100
AcDbEntity
  8
0
  6
CONTINUOUS
 62
               7
100
AcDbLine
 10
-45.122649683083175
 20
7.9000000000000057
 30
0.0
 11
-36.615470006110726
 21
7.9000000000000057
 31
0.0
  0
LINE
  5
1A0
100
AcDbEntity
  8
0
  6
CONTINUOUS
 62
               7
100
AcDbLine
 10
-45.122649683083175
 20
8.7000000000000171
 30
0.0
 11
-36.615470006110726
 21
8.7000000000000171
 31
0.0
  0
ARC
  5
1A1
100
AcDbEntity
  8
0
  6
CONTINUOUS
 62
               7
100
AcDbCircle
 10
-35.25899448465448
 20
5.4500000000000028
 30
0.0
 40
2.0
100
AcDbArc
 50
89.999999999999815
 51
119.99999999999973
  0
ARC
  5
1A2
100
AcDbEntity
  8
0
  6
CONTINUOUS
 62
               7
100
AcDbCircle
 10
-35.473353838599373
 20
6.2500000000000142
 30
0.0
 40
2.0
100
AcDbArc
 50
89.999999999999815
 51
119.99999999999973
  0
ARC
  5
1A3
100
AcDbEntity
  8
0
  6
CONTINUOUS
 62
               7
100
AcDbCircle
 10
-35.473353838599373
 20
10.350000000000009
 30
0.0
 40
2.0
100
AcDbArc
 50
239.99999999999946
 51
269.99999999999937
  0
ARC
  5
1A4
100
AcDbEntity
  8
0
  6
CONTINUOUS
 62
               7
100
AcDbCircle
 10
-35.25899448465448
 20
11.150000000000006
 30
0.0
 40
2.0
100
AcDbArc
 50
239.99999999999943
 51
250.79511110182787
  0
LINE
  5
1A5
100
AcDbEntity
  8
0
  6
PHANTOM
 62
               2
100
AcDbLine
 10
-34.495854765176773
 20
6.8000000005348085
 30
0.0
 11
-36.227905571460724
 21
9.8000000005348085
 31
0.0
  0
LINE
  5
1A6
100
AcDbEntity
  8
0
  6
PHANTOM
 62
               2
100
AcDbLine
 10
-33.57209438085556
 20
6.8000000005348085
 30
0.0
 11
-35.304145202040672
 21
9.8000000303371309
 31
0.0
  0
LINE
  5
1A7
100
AcDbEntity
  8
0
  6
CONTINUOUS
 62
               7
100
AcDbLine
 10
-57.429633835914316
 20
4.5000000000000142
 30
0.0
 11
-45.122649683083175
 21
4.5000000000000142
 31
0.0
  0
LINE
  5
1A8
100
AcDbEntity
  8
0
  6
CONTINUOUS
 62
               7
100
AcDbLine
 10
-57.429633835914316
 20
6.1000000000000085
 30
0.0
 11
-45.122649683083175
 21
6.1000000000000085
 31
0.0
  0
LINE
  5
1A9
100
AcDbEntity
  8
0
  6
CONTINUOUS
 62
               7
100
AcDbLine
 10
-57.429633835914316
 20
7.5000000000000142
 30
0.0
 11
-45.122649683083175
 21
7.5000000000000142
 31
0.0
  0
LINE
  5
1AA
100
AcDbEntity
  8
0
  6
CONTINUOUS
 62
               7
100
AcDbLine
 10
-57.429633835914316
 20
9.1000000000000085
 30
0.0
 11
-45.122649683083175
 21
9.1000000000000085
 31
0.0
  0
LINE
  5
1AB
100
AcDbEntity
  8
0
  6
CONTINUOUS
 62
               7
100
AcDbLine
 10
-57.429633835914316
 20
10.500000000000014
 30
0.0
 11
-45.122649683083175
 21
10.500000000000014
 31
0.0
  0
LINE
  5
1AC
100
AcDbEntity
  8
0
  6
CONTINUOUS
 62
               7
100
AcDbLine
 10
-57.429633835914316
 20
12.100000000000009
 30
0.0
 11
-45.122649683083175
 21
12.100000000000009
 31
0.0
  0
LINE
  5
1AD
100
AcDbEntity
  8
0
  6
CONTINUOUS
 62
               7
100
AcDbLine
 10
-57.429633835914316
 20
4.4999999992561897
 30
0.0
 11
-57.429633835914316
 21
6.1000000000000085
 31
0.0
  0
LINE
  5
1AE
100
AcDbEntity
  8
0
  6
CONTINUOUS
 62
               7
100
AcDbLine
 10
-57.629633835914319
 20
4.9999999992561897
 30
0.0
 11
-57.629633835914319
 21
5.5999999996280962
 31
0.0
  0
LINE
  5
1AF
100
AcDbEntity
  8
0
  6
CONTINUOUS
 62
               7
100
AcDbLine
 10
-57.429633846632925
 20
4.9999999996281019
 30
0.0
 11
-57.629633835914319
 21
4.9999999996281019
 31
0.0
  0
LINE
  5
1B0
100
AcDbEntity
  8
0
  6
CONTINUOUS
 62
               7
100
AcDbLine
 10
-57.429633846632925
 20
5.5999999996280962
 30
0.0
 11
-57.629633835914319
 21
5.5999999996280962
 31
0.0
  0
LINE
  5
1B1
100
AcDbEntity
  8
0
  6
CONTINUOUS
 62
               7
100
AcDbLine
 10
-57.429633846632925
 20
8.5999999996280962
 30
0.0
 11
-57.629633835914319
 21
8.5999999996280962
 31
0.0
  0
LINE
  5
1B2
100
AcDbEntity
  8
0
  6
CONTINUOUS
 62
               7
100
AcDbLine
 10
-57.429633846632925
 20
7.9999999996281019
 30
0.0
 11
-57.629633835914319
 21
7.9999999996281019
 31
0.0
  0
LINE
  5
1B3
100
AcDbEntity
  8
0
  6
CONTINUOUS
 62
               7
100
AcDbLine
 10
-57.629633835914319
 20
7.9999999992561897
 30
0.0
 11
-57.629633835914319
 21
8.5999999996280962
 31
0.0
  0
LINE
  5
1B4
100
AcDbEntity
  8
0
  6
CONTINUOUS
 62
               7
100
AcDbLine
 10
-57.429633835914316
 20
7.4999999992561897
 30
0.0
 11
-57.429633835914316
 21
9.1000000000000085
 31
0.0
  0
LINE
  5
1B5
100
AcDbEntity
  8
0
  6
CONTINUOUS
 62
               7
100
AcDbLine
 10
-57.429633846632925
 20
11.599999999628096
 30
0.0
 11
-57.629633835914319
 21
11.599999999628096
 31
0.0
  0
LINE
  5
1B6
100
AcDbEntity
  8
0
  6
CONTINUOUS
 62
               7
100
AcDbLine
 10
-57.429633846632925
 20
10.999999999628102
 30
0.0
 11
-57.629633835914319
 21
10.999999999628102
 31
0.0
  0
LINE
  5
1B7
100
AcDbEntity
  8
0
  6
CONTINUOUS
 62
               7
100
AcDbLine
 10
-57.629633835914319
 20
10.99999999925619
 30
0.0
 11
-57.629633835914319
 21
11.599999999628096
 31
0.0
  0
LINE
  5
1B8
100
AcDbEntity
  8
0
  6
CONTINUOUS
 62
               7
100
AcDbLine
 10
-57.429633835914316
 20
10.49999999925619
 30
0.0
 11
-57.429633835914316
 21
12.100000000000009
 31
0.0
  0
LINE
  5
1B9
100
AcDbEntity
  8
0
  6
CONTINUOUS
 62
               7
100
AcDbLine
 10
-45.122649683083175
 20
6.1000000000000085
 30
0.0
 11
-45.122649683083175
 21
4.5000000000000142
 31
0.0
  0
LINE
  5
1BA
100
AcDbEntity
  8
0
  6
CONTINUOUS
 62
               7
100
AcDbLine
 10
-45.122649683083175
 20
9.1000000000000085
 30
0.0
 11
-45.122649683083175
 21
7.5000000000000142
 31
0.0
  0
LINE
  5
1BB
100
AcDbEntity
  8
0
  6
CONTINUOUS
 62
               7
100
AcDbLine
 10
-45.122649683083175
 20
12.100000000000009
 30
0.0
 11
-45.122649683083175
 21
10.500000000000014
 31
0.0
  0
LINE
  5
1BC
100
AcDbEntity
  8
0
  6
CONTINUOUS
 62
               7
100
AcDbLine
 10
-53.297963802495751
 20
4.5000000107111049
 30
0.0
 11
-53.297963802495751
 21
6.1000000047506404
 31
0.0
  0
LINE
  5
1BD
100
AcDbEntity
  8
0
  6
CONTINUOUS
 62
               7
100
AcDbLine
 10
-53.990784161489039
 20
4.5000000107111049
 30
0.0
 11
-53.990784161489039
 21
6.1000000047506404
 31
0.0
  0
LINE
  5
1BE
100
AcDbEntity
  8
0
  6
CONTINUOUS
 62
               7
100
AcDbLine
 10
-54.497963779370814
 20
4.7000000000000171
 30
0.0
 11
-54.497963779370814
 21
5.3000000000000114
 31
0.0
  0
LINE
  5
1BF
100
AcDbEntity
  8
0
  6
CONTINUOUS
 62
               7
100
AcDbLine
 10
-57.429633835914316
 20
4.7000000000000171
 30
0.0
 11
-54.497963779370814
 21
4.7000000000000171
 31
0.0
  0
LINE
  5
1C0
100
AcDbEntity
  8
0
  6
CONTINUOUS
 62
               7
100
AcDbLine
 10
-57.429633835914316
 20
5.5000000000000142
 30
0.0
 11
-54.497963779370814
 21
5.3000000000000114
 31
0.0
  0
LINE
  5
1C1
100
AcDbEntity
  8
0
  6
CONTINUOUS
 62
               7
100
AcDbLine
 10
-53.297963802495751
 20
7.5000000107111049
 30
0.0
 11
-53.297963802495751
 21
9.1000000047506404
 31
0.0
  0
LINE
  5
1C2
100
AcDbEntity
  8
0
  6
CONTINUOUS
 62
               7
100
AcDbLine
 10
-53.990784161489039
 20
7.5000000107111049
 30
0.0
 11
-53.990784161489039
 21
9.1000000047506404
 31
0.0
  0
LINE
  5
1C3
100
AcDbEntity
  8
0
  6
CONTINUOUS
 62
               7
100
AcDbLine
 10
-57.429633835914316
 20
7.7000000000000171
 30
0.0
 11
-54.497963779370814
 21
7.7000000000000171
 31
0.0
  0
LINE
  5
1C4
100
AcDbEntity
  8
0
  6
CONTINUOUS
 62
               7
100
AcDbLine
 10
-57.429633835914316
 20
8.5000000000000142
 30
0.0
 11
-54.497963779370814
 21
8.3000000000000114
 31
0.0
  0
LINE
  5
1C5
100
AcDbEntity
  8
0
  6
CONTINUOUS
 62
               7
100
AcDbLine
 10
-54.497963779370814
 20
7.7000000000000171
 30
0.0
 11
-54.497963779370814
 21
8.3000000000000114
 31
0.0
  0
LINE
  5
1C6
100
AcDbEntity
  8
0
  6
CONTINUOUS
 62
               7
100
AcDbLine
 10
-53.297963802495751
 20
10.500000010711105
 30
0.0
 11
-53.297963802495751
 21
12.10000000475064
 31
0.0
  0
LINE
  5
1C7
100
AcDbEntity
  8
0
  6
CONTINUOUS
 62
               7
100
AcDbLine
 10
-53.990784161489039
 20
10.500000010711105
 30
0.0
 11
-53.990784161489039
 21
12.10000000475064
 31
0.0
  0
LINE
  5
1C8
100
AcDbEntity
  8
0
  6
CONTINUOUS
 62
               7
100
AcDbLine
 10
-57.429633835914316
 20
10.700000000000017
 30
0.0
 11
-54.497963779370814
 21
10.700000000000017
 31
0.0
  0
LINE
  5
1C9
100
AcDbEntity
  8
0
  6
CONTINUOUS
 62
               7
100
AcDbLine
 10
-57.429633835914316
 20
11.500000000000014
 30
0.0
 11
-54.497963779370814
 21
11.300000000000011
 31
0.0
  0
LINE
  5
1CA
100
AcDbEntity
  8
0
  6
CONTINUOUS
 62
               7
100
AcDbLine
 10
-54.497963779370814
 20
10.700000000000017
 30
0.0
 11
-54.497963779370814
 21
11.300000000000011
 31
0.0
  0
LINE
  5
1CB
100
AcDbEntity
  8
0
  6
CONTINUOUS
 62
               7
100
AcDbLine
 10
-19.18232027224856
 20
-7.912668459159903
 30
0.0
 11
-19.504363255897275
 21
-7.9083298105362587
 31
0.0
  0
ARC
  5
1CC
100
AcDbEntity
  8
0
  6
CONTINUOUS
 62
               7
100
AcDbCircle
 10
-18.899999988148082
 20
-5.4999999999999716
 30
0.0
 40
0.5
100
AcDbArc
 50
89.999999999999815
 51
179.99999999999963
  0
ARC
  5
1CD
100
AcDbEntity
  8
0
  6
CONTINUOUS
 62
               7
100
AcDbCircle
 10
-18.899999988148082
 20
-7.5
 30
0.0
 40
0.5
100
AcDbArc
 50
179.99999999999963
 51
269.99999999999937
  0
LINE
  5
1CE
100
AcDbEntity
  8
0
  6
CONTINUOUS
 62
               7
100
AcDbLine
 10
-18.799999988148087
 20
-8.0
 30
0.0
 11
-18.899999988148082
 21
-7.9999999999999716
 31
0.0
  0
LINE
  5
1CF
100
AcDbEntity
  8
0
  6
CONTINUOUS
 62
               7
100
AcDbLine
 10
-18.799999988148087
 20
-4.9999999999999716
 30
0.0
 11
-18.899999988148082
 21
-5.0
 31
0.0
  0
LINE
  5
1D0
100
AcDbEntity
  8
0
  6
CONTINUOUS
 62
               7
100
AcDbLine
 10
-19.399999988148082
 20
-7.4999999999999716
 30
0.0
 11
-19.399999988148082
 21
-5.5
 31
0.0
  0
LINE
  5
1D2
100
AcDbEntity
  8
0
  6
DASHED
 62
               2
100
AcDbLine
 10
10.359114344382917
 20
-17.07662876565513
 30
0.0
 11
7.954951288348667
 21
-14.672465709620894
 31
0.0
  0
LINE
  5
1D3
100
AcDbEntity
  8
0
  6
DASHED
 62
               2
100
AcDbLine
 10
17.07662876565513
 20
-10.359114344382931
 30
0.0
 11
14.672465709620866
 21
-7.9549512883486955
 31
0.0
  0
LINE
  5
1D4
100
AcDbEntity
  8
0
  6
DASHED
 62
               2
100
AcDbLine
 10
17.076628765655101
 20
10.359114344382959
 30
0.0
 11
14.672465709620852
 21
7.9549512883486955
 31
0.0
  0
LINE
  5
1D5
100
AcDbEntity
  8
0
  6
DASHED
 62
               2
100
AcDbLine
 10
10.35911434438291
 20
17.076628765655158
 30
0.0
 11
7.9549512883486457
 21
14.672465709620923
 31
0.0
  0
LINE
  5
1D6
100
AcDbEntity
  8
0
  6
CENTER
 62
               2
100
AcDbLine
 10
0.0000000000000071
 20
0.0
 30
0.0
 11
15.026709999372281
 21
15.026709999372287
 31
0.0
  0
ARC
  5
1D7
100
AcDbEntity
  8
0
  6
CONTINUOUS
 62
               7
100
AcDbCircle
 10
0.0
 20
0.0
 30
0.0
 40
20.0
100
AcDbArc
 50
203.3399030676182
 51
143.29075909869263
  0
CIRCLE
  5
1D8
100
AcDbEntity
  8
0
  6
CONTINUOUS
 62
               7
100
AcDbCircle
 10
15.999999999999993
 20
0.0
 30
0.0
 40
1.6499999999999999
  0
CIRCLE
  5
1D9
100
AcDbEntity
  8
0
  6
CONTINUOUS
 62
               7
100
AcDbCircle
 10
0.0000000000000071
 20
-16.0
 30
0.0
 40
1.6499999999999999
  0
CIRCLE
  5
1DA
100
AcDbEntity
  8
0
  6
CONTINUOUS
 62
               7
100
AcDbCircle
 10
0.0
 20
16.0
 30
0.0
 40
1.6499999999999999
  0
CIRCLE
  5
1DB
100
AcDbEntity
  8
0
  6
CONTINUOUS
 62
               2
100
AcDbCircle
 10
0.0
 20
16.0
 30
0.0
 40
2.0
  0
CIRCLE
  5
1DC
100
AcDbEntity
  8
0
  6
CONTINUOUS
 62
               2
100
AcDbCircle
 10
15.999999999999993
 20
0.0
 30
0.0
 40
2.0
  0
CIRCLE
  5
1DD
100
AcDbEntity
  8
0
  6
CONTINUOUS
 62
               2
100
AcDbCircle
 10
0.0000000000000071
 20
-16.0
 30
0.0
 40
2.0
  0
CIRCLE
  5
1DE
100
AcDbEntity
  8
0
  6
CENTER
 62
               2
100
AcDbCircle
 10
-0.0000000000000071
 20
0.0
 30
0.0
 40
16.0
  0
LINE
  5
1DF
100
AcDbEntity
  8
0
  6
CENTER
 62
               2
100
AcDbLine
 10
-22.174868658010126
 20
0.0
 30
0.0
 11
26.909532282059175
 21
0.0
 31
0.0
  0
LINE
  5
1E0
100
AcDbEntity
  8
0
  6
CENTER
 62
               2
100
AcDbLine
 10
0.0000000000000071
 20
-22.0
 30
0.0
 11
0.0
 21
22.0
 31
0.0
  0
ARC
  5
1E1
100
AcDbEntity
  8
0
  6
CONTINUOUS
 62
               7
100
AcDbCircle
 10
0.0000000000000071
 20
0.0
 30
0.0
 40
19.0
100
AcDbArc
 50
241.72628636863439
 51
118.27371363136476
  0
LINE
  5
1E2
100
AcDbEntity
  8
0
  6
CENTER
 62
               2
100
AcDbLine
 10
0.0
 20
0.0
 30
0.0
 11
14.709130317186563
 21
-14.709130317186549
 31
0.0
  0
CIRCLE
  5
1E3
100
AcDbEntity
  8
0
  6
CONTINUOUS
 62
               7
100
AcDbCircle
 10
0.0
 20
0.0
 30
0.0
 40
2.1000000000000001
  0
CIRCLE
  5
1E4
100
AcDbEntity
  8
0
  6
CONTINUOUS
 62
               2
100
AcDbCircle
 10
0.0
 20
0.0
 30
0.0
 40
2.5
  0
LINE
  5
1E5
100
AcDbEntity
  8
0
  6
CONTINUOUS
 62
               7
100
AcDbLine
 10
-9.0
 20
-17.860571099491722
 30
0.0
 11
-9.0
 21
17.860571099491779
 31
0.0
  0
LINE
  5
1E6
100
AcDbEntity
  8
0
  6
CONTINUOUS
 62
               7
100
AcDbLine
 10
-12.699999988148079
 20
12.000000000000028
 30
0.0
 11
-9.0
 21
11.967710589277658
 31
0.0
  0
LINE
  5
1E7
100
AcDbEntity
  8
0
  6
CONTINUOUS
 62
               7
100
AcDbLine
 10
-12.699999988148075
 20
-7.9999999999999716
 30
0.0
 11
-12.699999988148079
 21
12.000000000000028
 31
0.0
  0
LINE
  5
1E8
100
AcDbEntity
  8
0
  6
CONTINUOUS
 62
               7
100
AcDbLine
 10
-19.999999988148076
 20
-7.4083488490041418
 30
0.0
 11
-19.999999988148069
 21
11.408348849004199
 31
0.0
  0
LINE
  5
1E9
100
AcDbEntity
  8
0
  6
CONTINUOUS
 62
               7
100
AcDbLine
 10
-18.79999998814808
 20
-4.8999999999999773
 30
0.0
 11
-19.999999988148076
 21
-4.8999999999999773
 31
0.0
  0
LINE
  5
1EA
100
AcDbEntity
  8
0
  6
CONTINUOUS
 62
               7
100
AcDbLine
 10
-18.799999988148073
 20
-8.0
 30
0.0
 11
-18.79999998814808
 21
-4.8999999999999773
 31
0.0
  0
LINE
  5
1EB
100
AcDbEntity
  8
0
  6
CENTER
 62
               2
100
AcDbLine
 10
-18.195856974999174
 20
-6.5
 30
0.0
 11
-20.43544927920842
 21
-6.5
 31
0.0
  0
LINE
  5
1EC
100
AcDbEntity
  8
0
  6
CONTINUOUS
 62
               7
100
AcDbLine
 10
-13.699999988148083
 20
-4.1999999999999886
 30
0.0
 11
-13.699999988148079
 21
-3.0
 31
0.0
  0
LINE
  5
1ED
100
AcDbEntity
  8
0
  6
CONTINUOUS
 62
               7
100
AcDbLine
 10
-14.599999988148074
 20
-4.1999999999999886
 30
0.0
 11
-14.599999988148067
 21
-2.9999999999999716
 31
0.0
  0
LINE
  5
1EE
100
AcDbEntity
  8
0
  6
CONTINUOUS
 62
               7
100
AcDbLine
 10
-13.699999988148075
 20
-4.0999999999999943
 30
0.0
 11
-14.549999988148073
 21
-4.1000000000000227
 31
0.0
  0
LINE
  5
1EF
100
AcDbEntity
  8
0
  6
CONTINUOUS
 62
               7
100
AcDbLine
 10
-13.699999988148079
 20
-3.1000000000000227
 30
0.0
 11
-14.549999988148073
 21
-3.1000000000000227
 31
0.0
  0
LINE
  5
1F0
100
AcDbEntity
  8
0
  6
CONTINUOUS
 62
               7
100
AcDbLine
 10
-14.549999988148073
 20
-4.1000000000000227
 30
0.0
 11
-14.549999988148073
 21
-3.1000000000000227
 31
0.0
  0
LINE
  5
1F1
100
AcDbEntity
  8
0
  6
CONTINUOUS
 62
               7
100
AcDbLine
 10
-13.84999998814807
 20
-4.0999999999999943
 30
0.0
 11
-13.849999988148078
 21
-3.1000000000000227
 31
0.0
  0
LINE
  5
1F2
100
AcDbEntity
  8
0
  6
CONTINUOUS
 62
               7
100
AcDbLine
 10
-13.84999998814807
 20
7.1000000000000227
 30
0.0
 11
-13.84999998814807
 21
8.1000000000000227
 31
0.0
  0
LINE
  5
1F3
100
AcDbEntity
  8
0
  6
CONTINUOUS
 62
               7
100
AcDbLine
 10
-14.549999988148073
 20
7.1000000000000227
 30
0.0
 11
-14.549999988148073
 21
8.1000000000000227
 31
0.0
  0
LINE
  5
1F4
100
AcDbEntity
  8
0
  6
CONTINUOUS
 62
               7
100
AcDbLine
 10
-13.699999988148072
 20
8.1000000000000512
 30
0.0
 11
-14.549999988148073
 21
8.1000000000000227
 31
0.0
  0
LINE
  5
1F5
100
AcDbEntity
  8
0
  6
CONTINUOUS
 62
               7
100
AcDbLine
 10
-13.699999988148079
 20
7.1000000000000227
 30
0.0
 11
-14.549999988148073
 21
7.1000000000000227
 31
0.0
  0
LINE
  5
1F6
100
AcDbEntity
  8
0
  6
CONTINUOUS
 62
               7
100
AcDbLine
 10
-14.59999998814807
 20
7.0000000000000284
 30
0.0
 11
-14.59999998814807
 21
8.1999999999999886
 31
0.0
  0
LINE
  5
1F7
100
AcDbEntity
  8
0
  6
CONTINUOUS
 62
               7
100
AcDbLine
 10
-13.699999988148079
 20
7.0
 30
0.0
 11
-13.699999988148072
 21
8.2000000000000171
 31
0.0
  0
LINE
  5
1F8
100
AcDbEntity
  8
0
  6
CENTER
 62
               2
100
AcDbLine
 10
-32.899999988148075
 20
8.3000000000000114
 30
0.0
 11
-18.799999988148073
 21
8.3000000000000114
 31
0.0
  0
LINE
  5
1F9
100
AcDbEntity
  8
0
  6
CONTINUOUS
 62
               7
100
AcDbLine
 10
-14.59999998814807
 20
8.1999999999999886
 30
0.0
 11
-13.699999988148072
 21
8.2000000000000171
 31
0.0
  0
LINE
  5
1FA
100
AcDbEntity
  8
0
  6
CONTINUOUS
 62
               7
100
AcDbLine
 10
-13.699999988148079
 20
7.0
 30
0.0
 11
-14.59999998814807
 21
7.0000000000000284
 31
0.0
  0
LINE
  5
1FB
100
AcDbEntity
  8
0
  6
CONTINUOUS
 62
               7
100
AcDbLine
 10
-13.699999988148079
 20
-3.0
 30
0.0
 11
-14.599999988148067
 21
-2.9999999999999716
 31
0.0
  0
LINE
  5
1FC
100
AcDbEntity
  8
0
  6
CONTINUOUS
 62
               7
100
AcDbLine
 10
-14.599999988148074
 20
-4.1999999999999886
 30
0.0
 11
-13.699999988148083
 21
-4.1999999999999886
 31
0.0
  0
LINE
  5
1FD
100
AcDbEntity
  8
0
  6
CONTINUOUS
 62
               7
100
AcDbLine
 10
-12.699999988148079
 20
12.000000000000028
 30
0.0
 11
-19.504363255897253
 21
11.908329810536316
 31
0.0
  0
LINE
  5
1FE
100
AcDbEntity
  8
0
  6
CONTINUOUS
 62
               7
100
AcDbLine
 10
-12.699999988148075
 20
-7.9999999999999716
 30
0.0
 11
-18.799999988148073
 21
-7.9178191795874113
 31
0.0
  0
ARC
  5
1FF
100
AcDbEntity
  8
0
  6
CONTINUOUS
 62
               7
100
AcDbCircle
 10
-19.499999988148076
 20
-7.4083488490041134
 30
0.0
 40
0.5
100
AcDbArc
 50
179.99999999999963
 51
269.49999999999915
  0
ARC
  5
200
100
AcDbEntity
  8
0
  6
CONTINUOUS
 62
               7
100
AcDbCircle
 10
-19.499999988148076
 20
11.408348849004227
 30
0.0
 40
0.5
100
AcDbArc
 50
90.499999999999659
 51
179.99999999999963
  0
LINE
  5
201
100
AcDbEntity
  8
0
  6
CONTINUOUS
 62
               7
100
AcDbLine
 10
-12.699999988148075
 20
-7.9999999999999716
 30
0.0
 11
-9.0
 21
-7.9677105892776012
 31
0.0
  0
LINE
  5
202
100
AcDbEntity
  8
0
  6
DASHED
 62
               2
100
AcDbLine
 10
14.672465709620866
 20
-7.9549512883486955
 30
0.0
 11
7.954951288348667
 21
-14.672465709620894
 31
0.0
  0
LINE
  5
203
100
AcDbEntity
  8
0
  6
DASHED
 62
               2
100
AcDbLine
 10
14.601755031502208
 20
-8.8741901038911806
 30
0.0
 11
8.8741901038911806
 21
-14.601755031502222
 31
0.0
  0
LINE
  5
204
100
AcDbEntity
  8
0
  6
DASHED
 62
               2
100
AcDbLine
 10
13.081475451951135
 20
-9.5459415460184118
 30
0.0
 11
10.716230302582659
 21
-7.1806963966499211
 31
0.0
  0
LINE
  5
205
100
AcDbEntity
  8
0
  6
DASHED
 62
               2
100
AcDbLine
 10
12.798632739476517
 20
-9.8287842584930445
 30
0.0
 11
10.11466375975796
 21
-7.1448152787744732
 31
0.0
  0
LINE
  5
206
100
AcDbEntity
  8
0
  6
DASHED
 62
               2
100
AcDbLine
 10
12.798632739476517
 20
-12.091525958289992
 30
0.0
 11
12.091525958289964
 21
-12.798632739476545
 31
0.0
  0
LINE
  5
207
100
AcDbEntity
  8
0
  6
DASHED
 62
               2
100
AcDbLine
 10
13.859292911256347
 20
-13.152186130069794
 30
0.0
 11
12.798632739476517
 21
-12.091525958289992
 31
0.0
  0
LINE
  5
208
100
AcDbEntity
  8
0
  6
DASHED
 62
               2
100
AcDbLine
 10
16.0159685938753
 20
-10.288403666264287
 30
0.0
 11
16.015968593875314
 21
-10.99551044745084
 31
0.0
  0
ARC
  5
209
100
AcDbEntity
  8
0
  6
DASHED
 62
               2
100
AcDbCircle
 10
12.154649514246117
 20
-5.1235610961754503
 30
0.0
 40
7.0277716396203269
100
AcDbArc
 50
290.25462085736189
 51
303.32841020147521
  0
LINE
  5
20A
100
AcDbEntity
  8
0
  6
DASHED
 62
               2
100
AcDbLine
 10
14.587612895878479
 20
-11.716759364261122
 30
0.0
 11
13.173399333505401
 21
-10.302545801888016
 31
0.0
  0
LINE
  5
20B
100
AcDbEntity
  8
0
  6
DASHED
 62
               2
100
AcDbLine
 10
16.015968593875314
 20
-10.99551044745084
 30
0.0
 11
13.859292911256347
 21
-13.152186130069794
 31
0.0
  0
ARC
  5
20C
100
AcDbEntity
  8
0
  6
DASHED
 62
               2
100
AcDbCircle
 10
10.412952354406983
 20
-10.440535532380466
 30
0.0
 40
4.3653794686807261
100
AcDbArc
 50
321.83471178066645
 51
343.001229803738
  0
LINE
  5
20D
100
AcDbEntity
  8
0
  6
DASHED
 62
               2
100
AcDbLine
 10
14.142135623730965
 20
-8.485281374238582
 30
0.0
 11
14.5663996924429
 21
-8.909545442950531
 31
0.0
  0
LINE
  5
20E
100
AcDbEntity
  8
0
  6
DASHED
 62
               2
100
AcDbLine
 10
16.0159685938753
 20
-10.288403666264287
 30
0.0
 11
14.601755031502208
 21
-8.8741901038911806
 31
0.0
  0
LINE
  5
20F
100
AcDbEntity
  8
0
  6
DASHED
 62
               2
100
AcDbLine
 10
10.995510447450826
 20
-16.0159685938753
 30
0.0
 11
10.288403666264287
 21
-16.015968593875328
 31
0.0
  0
LINE
  5
210
100
AcDbEntity
  8
0
  6
DASHED
 62
               2
100
AcDbLine
 10
9.5459415460183976
 20
-13.08147545195115
 30
0.0
 11
7.3599785512218432
 21
-10.895512457154609
 31
0.0
  0
LINE
  5
211
100
AcDbEntity
  8
0
  6
DASHED
 62
               2
100
AcDbLine
 10
9.8287842584930161
 20
-12.798632739476545
 30
0.0
 11
7.4635391091245396
 21
-10.433387590108055
 31
0.0
  0
ARC
  5
212
100
AcDbEntity
  8
0
  6
DASHED
 62
               2
100
AcDbCircle
 10
5.1221656684584929
 20
-12.153944892329662
 30
0.0
 40
7.0293247160888015
100
AcDbArc
 50
326.67304037350175
 51
339.74392856765854
  0
LINE
  5
213
100
AcDbEntity
  8
0
  6
DASHED
 62
               2
100
AcDbLine
 10
11.716759364261094
 20
-14.587612895878493
 30
0.0
 11
10.302545801888016
 21
-13.173399333505387
 31
0.0
  0
LINE
  5
214
100
AcDbEntity
  8
0
  6
DASHED
 62
               2
100
AcDbLine
 10
13.152186130069794
 20
-13.859292911256347
 30
0.0
 11
10.995510447450826
 21
-16.0159685938753
 31
0.0
  0
LINE
  5
215
100
AcDbEntity
  8
0
  6
DASHED
 62
               2
100
AcDbLine
 10
13.152186130069794
 20
-13.859292911256347
 30
0.0
 11
12.091525958289964
 21
-12.798632739476545
 31
0.0
  0
ARC
  5
216
100
AcDbEntity
  8
0
  6
DASHED
 62
               2
100
AcDbCircle
 10
10.44121847766786
 20
-10.414259706814278
 30
0.0
 40
4.363929581700825
100
AcDbArc
 50
286.99521341413669
 51
308.16884500145608
  0
LINE
  5
217
100
AcDbEntity
  8
0
  6
DASHED
 62
               2
100
AcDbLine
 10
10.288403666264287
 20
-16.015968593875328
 30
0.0
 11
8.8741901038911806
 21
-14.601755031502222
 31
0.0
  0
LINE
  5
218
100
AcDbEntity
  8
0
  6
DASHED
 62
               2
100
AcDbLine
 10
8.4852813742385678
 20
-14.142135623730979
 30
0.0
 11
8.9095454429505025
 21
-14.5663996924429
 31
0.0
  0
LINE
  5
219
100
AcDbEntity
  8
0
  6
DASHED
 62
               2
100
AcDbLine
 10
7.9549512883486457
 20
14.672465709620923
 30
0.0
 11
14.672465709620852
 21
7.9549512883486955
 31
0.0
  0
LINE
  5
21A
100
AcDbEntity
  8
0
  6
DASHED
 62
               2
100
AcDbLine
 10
8.8741901038911593
 20
14.60175503150225
 30
0.0
 11
14.601755031502194
 21
8.874190103891209
 31
0.0
  0
LINE
  5
21B
100
AcDbEntity
  8
0
  6
DASHED
 62
               2
100
AcDbLine
 10
9.5459415460183763
 20
13.081475451951178
 30
0.0
 11
7.1806963966498927
 21
10.716230302582687
 31
0.0
  0
LINE
  5
21C
100
AcDbEntity
  8
0
  6
DASHED
 62
               2
100
AcDbLine
 10
9.8287842584929948
 20
12.798632739476545
 30
0.0
 11
7.1448152787744235
 21
10.114663759758002
 31
0.0
  0
LINE
  5
21D
100
AcDbEntity
  8
0
  6
DASHED
 62
               2
100
AcDbLine
 10
12.798632739476496
 20
9.8287842584930445
 30
0.0
 11
10.433387590108012
 21
7.4635391091245538
 31
0.0
  0
LINE
  5
21E
100
AcDbEntity
  8
0
  6
DASHED
 62
               2
100
AcDbLine
 10
16.015968593875286
 20
10.99551044745084
 30
0.0
 11
16.015968593875286
 21
10.288403666264315
 31
0.0
  0
ARC
  5
21F
100
AcDbEntity
  8
0
  6
DASHED
 62
               2
100
AcDbCircle
 10
10.414259706814242
 20
10.441218477667888
 30
0.0
 40
4.363929581700825
100
AcDbArc
 50
16.995213414137279
 51
38.168845001456681
  0
LINE
  5
220
100
AcDbEntity
  8
0
  6
DASHED
 62
               2
100
AcDbLine
 10
13.859292911256311
 20
13.152186130069822
 30
0.0
 11
12.798632739476496
 21
12.091525958289992
 31
0.0
  0
LINE
  5
221
100
AcDbEntity
  8
0
  6
DASHED
 62
               2
100
AcDbLine
 10
13.859292911256311
 20
13.152186130069822
 30
0.0
 11
16.015968593875286
 21
10.99551044745084
 31
0.0
  0
LINE
  5
222
100
AcDbEntity
  8
0
  6
DASHED
 62
               2
100
AcDbLine
 10
14.587612895878458
 20
11.716759364261122
 30
0.0
 11
13.173399333505358
 21
10.302545801888044
 31
0.0
  0
ARC
  5
223
100
AcDbEntity
  8
0
  6
DASHED
 62
               2
100
AcDbCircle
 10
12.153944892329633
 20
5.1221656684585355
 30
0.0
 40
7.0293247160888015
100
AcDbArc
 50
56.673040373502339
 51
69.743928567659154
  0
LINE
  5
224
100
AcDbEntity
  8
0
  6
DASHED
 62
               2
100
AcDbLine
 10
13.081475451951114
 20
9.5459415460184402
 30
0.0
 11
10.895512457154553
 21
7.3599785512218716
 31
0.0
  0
LINE
  5
225
100
AcDbEntity
  8
0
  6
DASHED
 62
               2
100
AcDbLine
 10
10.288403666264259
 20
16.015968593875328
 30
0.0
 11
8.8741901038911593
 21
14.60175503150225
 31
0.0
  0
LINE
  5
226
100
AcDbEntity
  8
0
  6
DASHED
 62
               2
100
AcDbLine
 10
8.4852813742385536
 20
14.142135623731008
 30
0.0
 11
8.9095454429504883
 21
14.566399692442928
 31
0.0
  0
ARC
  5
227
100
AcDbEntity
  8
0
  6
DASHED
 62
               2
100
AcDbCircle
 10
10.440535532380444
 20
10.412952354407025
 30
0.0
 40
4.3653794686807261
100
AcDbArc
 50
51.834711780667043
 51
73.001229803738639
  0
LINE
  5
228
100
AcDbEntity
  8
0
  6
DASHED
 62
               2
100
AcDbLine
 10
10.995510447450798
 20
16.015968593875357
 30
0.0
 11
13.152186130069765
 21
13.859292911256375
 31
0.0
  0
LINE
  5
229
100
AcDbEntity
  8
0
  6
DASHED
 62
               2
100
AcDbLine
 10
11.716759364261073
 20
14.587612895878522
 30
0.0
 11
10.30254580188798
 21
13.173399333505415
 31
0.0
  0
ARC
  5
22A
100
AcDbEntity
  8
0
  6
DASHED
 62
               2
100
AcDbCircle
 10
5.1235610961754148
 20
12.154649514246159
 30
0.0
 40
7.0277716396203269
100
AcDbArc
 50
20.2546208573625
 51
33.328410201475762
  0
LINE
  5
22B
100
AcDbEntity
  8
0
  6
DASHED
 62
               2
100
AcDbLine
 10
10.288403666264259
 20
16.015968593875328
 30
0.0
 11
10.995510447450798
 21
16.015968593875357
 31
0.0
  0
LINE
  5
22C
100
AcDbEntity
  8
0
  6
DASHED
 62
               2
100
AcDbLine
 10
13.152186130069765
 20
13.859292911256375
 30
0.0
 11
12.091525958289942
 21
12.798632739476545
 31
0.0
  0
LINE
  5
22D
100
AcDbEntity
  8
0
  6
DASHED
 62
               2
100
AcDbLine
 10
12.091525958289942
 20
12.798632739476545
 30
0.0
 11
12.798632739476496
 21
12.091525958289992
 31
0.0
  0
LINE
  5
22E
100
AcDbEntity
  8
0
  6
DASHED
 62
               2
100
AcDbLine
 10
14.142135623730937
 20
8.4852813742386104
 30
0.0
 11
14.566399692442864
 21
8.909545442950531
 31
0.0
  0
LINE
  5
22F
100
AcDbEntity
  8
0
  6
DASHED
 62
               2
100
AcDbLine
 10
16.015968593875286
 20
10.288403666264315
 30
0.0
 11
14.601755031502194
 21
8.874190103891209
 31
0.0
  0
ENDBLK
  5
230
100
AcDbEntity
  8
0
100
AcDbBlockEnd
  0
BLOCK
  5
231
100
AcDbEntity
  8
0
100
AcDbBlockBegin
  2
NCT40-4
 70
               0
 10
0.0
 20
0.0
 30
0.0
  3
NCT40-4
  1

  0
LINE
  5
232
100
AcDbEntity
  8
0
  6
CONTINUOUS
 62
               7
100
AcDbLine
 10
-20.400000097362664
 20
-5.2999995906006063
 30
0.0
 11
-20.000000097362665
 21
-5.2999995906006063
 31
0.0
  0
LINE
  5
233
100
AcDbEntity
  8
0
  6
CONTINUOUS
 62
               7
100
AcDbLine
 10
-20.400000097362664
 20
-11.299999590600606
 30
0.0
 11
-20.000000097362665
 21
-11.299999590600606
 31
0.0
  0
LINE
  5
234
100
AcDbEntity
  8
0
  6
PHANTOM
 62
               2
100
AcDbLine
 10
-28.591154386539266
 20
-10.199999566223937
 30
0.0
 11
-30.785085414786145
 21
-6.3999995543030082
 31
0.0
  0
LINE
  5
235
100
AcDbEntity
  8
0
  6
CONTINUOUS
 62
               7
100
AcDbLine
 10
-27.400000097362664
 20
-6.999999590600595
 30
0.0
 11
-30.438675248347977
 21
-6.999999590600595
 31
0.0
  0
LINE
  5
236
100
AcDbEntity
  8
0
  6
CONTINUOUS
 62
               7
100
AcDbLine
 10
-27.400000097362664
 20
-9.5999995906005893
 30
0.0
 11
-28.937564548454951
 21
-9.5999995906005893
 31
0.0
  0
LINE
  5
237
100
AcDbEntity
  8
0
  6
CONTINUOUS
 62
               7
100
AcDbLine
 10
-20.400000097362664
 20
-11.299999590600606
 30
0.0
 11
-20.400000097362664
 21
-5.2999995906006063
 31
0.0
  0
LINE
  5
238
100
AcDbEntity
  8
0
  6
CONTINUOUS
 62
               7
100
AcDbLine
 10
-27.400000097362664
 20
-10.299999590600606
 30
0.0
 11
-27.400000097362664
 21
-6.2999995906006063
 31
0.0
  0
LINE
  5
239
100
AcDbEntity
  8
0
  6
CONTINUOUS
 62
               7
100
AcDbLine
 10
-27.400000097362664
 20
-6.2999995906006063
 30
0.0
 11
-25.400000097362664
 21
-6.0142853048863003
 31
0.0
  0
LINE
  5
23A
100
AcDbEntity
  8
0
  6
CONTINUOUS
 62
               7
100
AcDbLine
 10
-27.400000097362664
 20
-10.299999590600606
 30
0.0
 11
-25.400000097362664
 21
-10.585713876314884
 31
0.0
  0
LINE
  5
23B
100
AcDbEntity
  8
0
  6
CONTINUOUS
 62
               7
100
AcDbLine
 10
-25.400000097362664
 20
-10.585713876314884
 30
0.0
 11
-25.400000097362664
 21
-6.0142853048863003
 31
0.0
  0
LINE
  5
23C
100
AcDbEntity
  8
0
  6
CONTINUOUS
 62
               7
100
AcDbLine
 10
-24.400000097362664
 20
-10.728571019172023
 30
0.0
 11
-24.400000097362664
 21
-5.8714281620291615
 31
0.0
  0
LINE
  5
23D
100
AcDbEntity
  8
0
  6
CONTINUOUS
 62
               7
100
AcDbLine
 10
-22.900000097362664
 20
-10.942856733457745
 30
0.0
 11
-22.900000097362664
 21
-5.6571424477434391
 31
0.0
  0
LINE
  5
23E
100
AcDbEntity
  8
0
  6
CONTINUOUS
 62
               7
100
AcDbLine
 10
-21.900000097362664
 20
-11.085713876314884
 30
0.0
 11
-21.900000097362664
 21
-5.5142853048863003
 31
0.0
  0
LINE
  5
23F
100
AcDbEntity
  8
0
  6
CONTINUOUS
 62
               7
100
AcDbLine
 10
-24.400000097362664
 20
-5.8714281620291615
 30
0.0
 11
-22.900000097362664
 21
-5.6571424477434391
 31
0.0
  0
LINE
  5
240
100
AcDbEntity
  8
0
  6
CONTINUOUS
 62
               7
100
AcDbLine
 10
-21.900000097362664
 20
-5.5142853048863003
 30
0.0
 11
-20.400000097362664
 21
-5.2999995906006063
 31
0.0
  0
LINE
  5
241
100
AcDbEntity
  8
0
  6
CONTINUOUS
 62
               7
100
AcDbLine
 10
-24.400000097362664
 20
-10.728571019172023
 30
0.0
 11
-22.900000097362664
 21
-10.942856733457745
 31
0.0
  0
LINE
  5
242
100
AcDbEntity
  8
0
  6
CONTINUOUS
 62
               7
100
AcDbLine
 10
-21.900000097362664
 20
-11.085713876314884
 30
0.0
 11
-20.400000097362664
 21
-11.299999590600606
 31
0.0
  0
LINE
  5
243
100
AcDbEntity
  8
0
  6
CONTINUOUS
 62
               7
100
AcDbLine
 10
-25.400000097362664
 20
-6.5499995906006063
 30
0.0
 11
-24.400000097362664
 21
-6.5499995906006063
 31
0.0
  0
LINE
  5
244
100
AcDbEntity
  8
0
  6
CONTINUOUS
 62
               7
100
AcDbLine
 10
-25.400000097362664
 20
-10.049999590600606
 30
0.0
 11
-24.400000097362664
 21
-10.049999590600606
 31
0.0
  0
LINE
  5
245
100
AcDbEntity
  8
0
  6
CONTINUOUS
 62
               7
100
AcDbLine
 10
-22.900000097362664
 20
-6.5499995906006063
 30
0.0
 11
-21.900000097362664
 21
-6.5499995906006063
 31
0.0
  0
LINE
  5
246
100
AcDbEntity
  8
0
  6
CONTINUOUS
 62
               7
100
AcDbLine
 10
-22.900000097362664
 20
-10.049999590600606
 30
0.0
 11
-21.900000097362664
 21
-10.049999590600606
 31
0.0
  0
LINE
  5
247
100
AcDbEntity
  8
0
  6
CONTINUOUS
 62
               7
100
AcDbLine
 10
-29.861324947677325
 20
-9.5999995906005893
 30
0.0
 11
-32.900000097362664
 21
-9.5999995906005893
 31
0.0
  0
LINE
  5
248
100
AcDbEntity
  8
0
  6
PHANTOM
 62
               2
100
AcDbLine
 10
-29.51491478576164
 20
-10.199999596026259
 30
0.0
 11
-31.708845828909681
 21
-6.3999995543030082
 31
0.0
  0
LINE
  5
249
100
AcDbEntity
  8
0
  6
CONTINUOUS
 62
               7
100
AcDbLine
 10
-31.362435647570351
 20
-6.999999590600595
 30
0.0
 11
-32.900000097362664
 21
-6.999999590600595
 31
0.0
  0
LINE
  5
24A
100
AcDbEntity
  8
0
  6
CONTINUOUS
 62
               7
100
AcDbLine
 10
-32.900000097362664
 20
-9.5999995906005893
 30
0.0
 11
-32.900000097362664
 21
-6.999999590600595
 31
0.0
  0
LINE
  5
24B
100
AcDbEntity
  8
0
  6
PHANTOM
 62
               2
100
AcDbLine
 10
-33.572094490070157
 20
-9.799999590065795
 30
0.0
 11
-35.304145311255269
 21
-6.7999995602634726
 31
0.0
  0
LINE
  5
24C
100
AcDbEntity
  8
0
  6
CONTINUOUS
 62
               7
100
AcDbLine
 10
-32.900000097362664
 20
-7.4499995906005836
 30
0.0
 11
-34.928867619544732
 21
-7.4499995906005836
 31
0.0
  0
LINE
  5
24D
100
AcDbEntity
  8
0
  6
CONTINUOUS
 62
               7
100
AcDbLine
 10
-32.900000097362664
 20
-8.249999590600595
 30
0.0
 11
-34.466987405150398
 21
-8.249999590600595
 31
0.0
  0
LINE
  5
24E
100
AcDbEntity
  8
0
  6
CONTINUOUS
 62
               7
100
AcDbLine
 10
-32.900000097362664
 20
-8.3499995906005893
 30
0.0
 11
-34.409252378351113
 21
-8.3499995906005893
 31
0.0
  0
LINE
  5
24F
100
AcDbEntity
  8
0
  6
PHANTOM
 62
               2
100
AcDbLine
 10
-34.49585487439137
 20
-9.799999590065795
 30
0.0
 11
-36.22790568067532
 21
-6.799999590065795
 31
0.0
  0
ARC
  5
250
100
AcDbEntity
  8
0
  6
CONTINUOUS
 62
               7
100
AcDbCircle
 10
-35.258994593869076
 20
-5.4499995906005836
 30
0.0
 40
2.0
100
AcDbArc
 50
239.99999999999943
 51
250.79511110182787
  0
ARC
  5
251
100
AcDbEntity
  8
0
  6
CONTINUOUS
 62
               7
100
AcDbCircle
 10
-35.473353947813969
 20
-6.249999590600595
 30
0.0
 40
2.0
100
AcDbArc
 50
239.99999999999946
 51
269.99999999999937
  0
ARC
  5
252
100
AcDbEntity
  8
0
  6
CONTINUOUS
 62
               7
100
AcDbCircle
 10
-35.473353947813969
 20
-10.349999590600589
 30
0.0
 40
2.0
100
AcDbArc
 50
89.999999999999815
 51
119.99999999999973
  0
ARC
  5
253
100
AcDbEntity
  8
0
  6
CONTINUOUS
 62
               7
100
AcDbCircle
 10
-35.258994593869076
 20
-11.149999590600601
 30
0.0
 40
2.0
100
AcDbArc
 50
89.999999999999815
 51
119.99999999999973
  0
LINE
  5
254
100
AcDbEntity
  8
0
  6
CONTINUOUS
 62
               7
100
AcDbLine
 10
-45.122649792297771
 20
-7.8999995906006006
 30
0.0
 11
-36.615470115325323
 21
-7.8999995906006006
 31
0.0
  0
LINE
  5
255
100
AcDbEntity
  8
0
  6
CONTINUOUS
 62
               7
100
AcDbLine
 10
-45.122649792297771
 20
-8.6999995906005836
 30
0.0
 11
-36.615470115325323
 21
-8.6999995906005836
 31
0.0
  0
LINE
  5
256
100
AcDbEntity
  8
0
  6
CONTINUOUS
 62
               7
100
AcDbLine
 10
-35.390747790662644
 20
-8.249999590600595
 30
0.0
 11
-35.473353947813969
 21
-8.249999590600595
 31
0.0
  0
LINE
  5
257
100
AcDbEntity
  8
0
  6
CONTINUOUS
 62
               7
100
AcDbLine
 10
-35.333012763786513
 20
-8.3499995906005893
 30
0.0
 11
-35.473353947813969
 21
-8.3499995906005893
 31
0.0
  0
LINE
  5
258
100
AcDbEntity
  8
0
  6
CONTINUOUS
 62
               7
100
AcDbLine
 10
-34.87113254877746
 20
-9.1499995906006006
 30
0.0
 11
-35.258994593869076
 21
-9.1499995906006006
 31
0.0
  0
LINE
  5
259
100
AcDbEntity
  8
0
  6
CONTINUOUS
 62
               7
100
AcDbLine
 10
-45.122649792297771
 20
-5.6999995906005836
 30
0.0
 11
-41.765727854132464
 21
-5.6999995906005836
 31
0.0
  0
LINE
  5
25A
100
AcDbEntity
  8
0
  6
CONTINUOUS
 62
               7
100
AcDbLine
 10
-45.122649792297771
 20
-4.8999995906006006
 30
0.0
 11
-41.551368500187571
 21
-4.8999995906006006
 31
0.0
  0
LINE
  5
25B
100
AcDbEntity
  8
0
  6
CONTINUOUS
 62
               7
100
AcDbLine
 10
-45.122649792297771
 20
-11.699999590600584
 30
0.0
 11
-41.551368500187571
 21
-11.699999590600584
 31
0.0
  0
LINE
  5
25C
100
AcDbEntity
  8
0
  6
CONTINUOUS
 62
               7
100
AcDbLine
 10
-45.122649792297771
 20
-10.899999590600601
 30
0.0
 11
-41.765727854132464
 21
-10.899999590600601
 31
0.0
  0
LINE
  5
25D
100
AcDbEntity
  8
0
  6
CONTINUOUS
 62
               7
100
AcDbLine
 10
-36.258994593869076
 20
-7.1820503981694799
 30
0.0
 11
-39.051368500187571
 21
-5.5698725716783883
 31
0.0
  0
LINE
  5
25E
100
AcDbEntity
  8
0
  6
CONTINUOUS
 62
               7
100
AcDbLine
 10
-36.473353947813976
 20
-7.9820503981694628
 30
0.0
 11
-39.265727854132464
 21
-6.3698725716783997
 31
0.0
  0
LINE
  5
25F
100
AcDbEntity
  8
0
  6
CONTINUOUS
 62
               7
100
AcDbLine
 10
-36.258994593869076
 20
-9.4179487830317044
 30
0.0
 11
-39.051368500187571
 21
-11.030126609522796
 31
0.0
  0
LINE
  5
260
100
AcDbEntity
  8
0
  6
CONTINUOUS
 62
               7
100
AcDbLine
 10
-36.473353947813976
 20
-8.6179487830317214
 30
0.0
 11
-39.265727854132464
 21
-10.230126609522785
 31
0.0
  0
ARC
  5
261
100
AcDbEntity
  8
0
  6
CONTINUOUS
 62
               7
100
AcDbCircle
 10
-41.765727854132464
 20
-10.699999590600584
 30
0.0
 40
5.0
100
AcDbArc
 50
59.999999999999858
 51
89.999999999999815
  0
ARC
  5
262
100
AcDbEntity
  8
0
  6
CONTINUOUS
 62
               7
100
AcDbCircle
 10
-41.551368500187571
 20
-9.8999995906006006
 30
0.0
 40
5.0
100
AcDbArc
 50
59.999999999999858
 51
89.999999999999815
  0
ARC
  5
263
100
AcDbEntity
  8
0
  6
CONTINUOUS
 62
               7
100
AcDbCircle
 10
-41.765727854132464
 20
-5.8999995906006006
 30
0.0
 40
5.0
100
AcDbArc
 50
269.99999999999937
 51
299.99999999999932
  0
ARC
  5
264
100
AcDbEntity
  8
0
  6
CONTINUOUS
 62
               7
100
AcDbCircle
 10
-41.551368500187571
 20
-6.6999995906005836
 30
0.0
 40
5.0
100
AcDbArc
 50
269.99999999999937
 51
299.99999999999932
  0
LINE
  5
265
100
AcDbEntity
  8
0
  6
CONTINUOUS
 62
               7
100
AcDbLine
 10
-32.900000097362664
 20
-9.1499995906006006
 30
0.0
 11
-33.947372163956786
 21
-9.1499995906006006
 31
0.0
  0
LINE
  5
266
100
AcDbEntity
  8
0
  6
CONTINUOUS
 62
               7
100
AcDbLine
 10
-57.429633945128913
 20
-12.099999590600589
 30
0.0
 11
-45.122649792297771
 21
-12.099999590600589
 31
0.0
  0
LINE
  5
267
100
AcDbEntity
  8
0
  6
CONTINUOUS
 62
               7
100
AcDbLine
 10
-57.429633945128913
 20
-10.499999590600595
 30
0.0
 11
-45.122649792297771
 21
-10.499999590600595
 31
0.0
  0
LINE
  5
268
100
AcDbEntity
  8
0
  6
CONTINUOUS
 62
               7
100
AcDbLine
 10
-57.429633945128913
 20
-9.0999995906005893
 30
0.0
 11
-45.122649792297771
 21
-9.0999995906005893
 31
0.0
  0
LINE
  5
269
100
AcDbEntity
  8
0
  6
CONTINUOUS
 62
               7
100
AcDbLine
 10
-57.429633945128913
 20
-7.499999590600595
 30
0.0
 11
-45.122649792297771
 21
-7.499999590600595
 31
0.0
  0
LINE
  5
26A
100
AcDbEntity
  8
0
  6
CONTINUOUS
 62
               7
100
AcDbLine
 10
-57.429633945128913
 20
-6.0999995906005893
 30
0.0
 11
-45.122649792297771
 21
-6.0999995906005893
 31
0.0
  0
LINE
  5
26B
100
AcDbEntity
  8
0
  6
CONTINUOUS
 62
               7
100
AcDbLine
 10
-57.429633945128913
 20
-4.499999590600595
 30
0.0
 11
-45.122649792297771
 21
-4.499999590600595
 31
0.0
  0
LINE
  5
26C
100
AcDbEntity
  8
0
  6
CONTINUOUS
 62
               7
100
AcDbLine
 10
-57.429633945128913
 20
-6.0999995913444138
 30
0.0
 11
-57.429633945128913
 21
-4.499999590600595
 31
0.0
  0
LINE
  5
26D
100
AcDbEntity
  8
0
  6
CONTINUOUS
 62
               7
100
AcDbLine
 10
-57.629633945128916
 20
-5.5999995913444138
 30
0.0
 11
-57.629633945128916
 21
-4.999999590972493
 31
0.0
  0
LINE
  5
26E
100
AcDbEntity
  8
0
  6
CONTINUOUS
 62
               7
100
AcDbLine
 10
-57.429633955847521
 20
-5.5999995909724873
 30
0.0
 11
-57.629633945128916
 21
-5.5999995909724873
 31
0.0
  0
LINE
  5
26F
100
AcDbEntity
  8
0
  6
CONTINUOUS
 62
               7
100
AcDbLine
 10
-57.429633955847521
 20
-4.999999590972493
 30
0.0
 11
-57.629633945128916
 21
-4.999999590972493
 31
0.0
  0
LINE
  5
270
100
AcDbEntity
  8
0
  6
CONTINUOUS
 62
               7
100
AcDbLine
 10
-46.575943648869703
 20
-6.0999995913444138
 30
0.0
 11
-46.575943648869703
 21
-4.499999590600595
 31
0.0
  0
LINE
  5
271
100
AcDbEntity
  8
0
  6
CONTINUOUS
 62
               7
100
AcDbLine
 10
-47.629633945128909
 20
-6.0999995913444138
 30
0.0
 11
-47.629633945128909
 21
-4.499999590600595
 31
0.0
  0
LINE
  5
272
100
AcDbEntity
  8
0
  6
CONTINUOUS
 62
               7
100
AcDbLine
 10
-50.429633945128906
 20
-6.0999995913444138
 30
0.0
 11
-50.429633945128906
 21
-4.499999590600595
 31
0.0
  0
LINE
  5
273
100
AcDbEntity
  8
0
  6
CONTINUOUS
 62
               7
100
AcDbLine
 10
-51.179633945128906
 20
-6.0999995913444138
 30
0.0
 11
-51.179633945128906
 21
-4.499999590600595
 31
0.0
  0
LINE
  5
274
100
AcDbEntity
  8
0
  6
CONTINUOUS
 62
               7
100
AcDbLine
 10
-53.429633945128906
 20
-6.0999995913444138
 30
0.0
 11
-53.429633945128906
 21
-4.499999590600595
 31
0.0
  0
LINE
  5
275
100
AcDbEntity
  8
0
  6
CONTINUOUS
 62
               7
100
AcDbLine
 10
-56.929633945128913
 20
-6.0999995913444138
 30
0.0
 11
-56.929633945128913
 21
-4.499999590600595
 31
0.0
  0
LINE
  5
276
100
AcDbEntity
  8
0
  6
CONTINUOUS
 62
               7
100
AcDbLine
 10
-57.429633945128913
 20
-9.0999995913444138
 30
0.0
 11
-57.429633945128913
 21
-7.499999590600595
 31
0.0
  0
LINE
  5
277
100
AcDbEntity
  8
0
  6
CONTINUOUS
 62
               7
100
AcDbLine
 10
-57.629633945128916
 20
-8.5999995913444138
 30
0.0
 11
-57.629633945128916
 21
-7.999999590972493
 31
0.0
  0
LINE
  5
278
100
AcDbEntity
  8
0
  6
CONTINUOUS
 62
               7
100
AcDbLine
 10
-57.429633955847521
 20
-8.5999995909724873
 30
0.0
 11
-57.629633945128916
 21
-8.5999995909724873
 31
0.0
  0
LINE
  5
279
100
AcDbEntity
  8
0
  6
CONTINUOUS
 62
               7
100
AcDbLine
 10
-57.429633955847521
 20
-7.999999590972493
 30
0.0
 11
-57.629633945128916
 21
-7.999999590972493
 31
0.0
  0
LINE
  5
27A
100
AcDbEntity
  8
0
  6
CONTINUOUS
 62
               7
100
AcDbLine
 10
-46.575943648869703
 20
-9.0999995913444138
 30
0.0
 11
-46.575943648869703
 21
-7.499999590600595
 31
0.0
  0
LINE
  5
27B
100
AcDbEntity
  8
0
  6
CONTINUOUS
 62
               7
100
AcDbLine
 10
-47.629633945128909
 20
-9.0999995913444138
 30
0.0
 11
-47.629633945128909
 21
-7.499999590600595
 31
0.0
  0
LINE
  5
27C
100
AcDbEntity
  8
0
  6
CONTINUOUS
 62
               7
100
AcDbLine
 10
-50.429633945128906
 20
-9.0999995913444138
 30
0.0
 11
-50.429633945128906
 21
-7.499999590600595
 31
0.0
  0
LINE
  5
27D
100
AcDbEntity
  8
0
  6
CONTINUOUS
 62
               7
100
AcDbLine
 10
-51.179633945128906
 20
-9.0999995913444138
 30
0.0
 11
-51.179633945128906
 21
-7.499999590600595
 31
0.0
  0
LINE
  5
27E
100
AcDbEntity
  8
0
  6
CONTINUOUS
 62
               7
100
AcDbLine
 10
-53.429633945128906
 20
-9.0999995913444138
 30
0.0
 11
-53.429633945128906
 21
-7.499999590600595
 31
0.0
  0
LINE
  5
27F
100
AcDbEntity
  8
0
  6
CONTINUOUS
 62
               7
100
AcDbLine
 10
-56.929633945128913
 20
-9.0999995913444138
 30
0.0
 11
-56.929633945128913
 21
-7.499999590600595
 31
0.0
  0
LINE
  5
280
100
AcDbEntity
  8
0
  6
CONTINUOUS
 62
               7
100
AcDbLine
 10
-56.929633945128913
 20
-12.099999591344414
 30
0.0
 11
-56.929633945128913
 21
-10.499999590600595
 31
0.0
  0
LINE
  5
281
100
AcDbEntity
  8
0
  6
CONTINUOUS
 62
               7
100
AcDbLine
 10
-53.429633945128906
 20
-12.099999591344414
 30
0.0
 11
-53.429633945128906
 21
-10.499999590600595
 31
0.0
  0
LINE
  5
282
100
AcDbEntity
  8
0
  6
CONTINUOUS
 62
               7
100
AcDbLine
 10
-51.179633945128906
 20
-12.099999591344414
 30
0.0
 11
-51.179633945128906
 21
-10.499999590600595
 31
0.0
  0
LINE
  5
283
100
AcDbEntity
  8
0
  6
CONTINUOUS
 62
               7
100
AcDbLine
 10
-50.429633945128906
 20
-12.099999591344414
 30
0.0
 11
-50.429633945128906
 21
-10.499999590600595
 31
0.0
  0
LINE
  5
284
100
AcDbEntity
  8
0
  6
CONTINUOUS
 62
               7
100
AcDbLine
 10
-47.629633945128909
 20
-12.099999591344414
 30
0.0
 11
-47.629633945128909
 21
-10.499999590600595
 31
0.0
  0
LINE
  5
285
100
AcDbEntity
  8
0
  6
CONTINUOUS
 62
               7
100
AcDbLine
 10
-46.575943648869703
 20
-12.099999591344414
 30
0.0
 11
-46.575943648869703
 21
-10.499999590600595
 31
0.0
  0
LINE
  5
286
100
AcDbEntity
  8
0
  6
CONTINUOUS
 62
               7
100
AcDbLine
 10
-57.429633955847521
 20
-10.999999590972493
 30
0.0
 11
-57.629633945128916
 21
-10.999999590972493
 31
0.0
  0
LINE
  5
287
100
AcDbEntity
  8
0
  6
CONTINUOUS
 62
               7
100
AcDbLine
 10
-57.429633955847521
 20
-11.599999590972487
 30
0.0
 11
-57.629633945128916
 21
-11.599999590972487
 31
0.0
  0
LINE
  5
288
100
AcDbEntity
  8
0
  6
CONTINUOUS
 62
               7
100
AcDbLine
 10
-57.629633945128916
 20
-11.599999591344414
 30
0.0
 11
-57.629633945128916
 21
-10.999999590972493
 31
0.0
  0
LINE
  5
289
100
AcDbEntity
  8
0
  6
CONTINUOUS
 62
               7
100
AcDbLine
 10
-57.429633945128913
 20
-12.099999591344414
 30
0.0
 11
-57.429633945128913
 21
-10.499999590600595
 31
0.0
  0
LINE
  5
28A
100
AcDbEntity
  8
0
  6
CONTINUOUS
 62
               7
100
AcDbLine
 10
-45.122649792297771
 20
-4.499999590600595
 30
0.0
 11
-45.122649792297771
 21
-6.0999995906005893
 31
0.0
  0
LINE
  5
28B
100
AcDbEntity
  8
0
  6
CONTINUOUS
 62
               7
100
AcDbLine
 10
-45.122649792297771
 20
-7.499999590600595
 30
0.0
 11
-45.122649792297771
 21
-9.0999995906005893
 31
0.0
  0
LINE
  5
28C
100
AcDbEntity
  8
0
  6
CONTINUOUS
 62
               7
100
AcDbLine
 10
-45.122649792297771
 20
-10.499999590600595
 30
0.0
 11
-45.122649792297771
 21
-12.099999590600589
 31
0.0
  0
LINE
  5
28D
100
AcDbEntity
  8
0
  6
CONTINUOUS
 62
               7
100
AcDbLine
 10
-19.18232038146315
 20
-11.912668049760526
 30
0.0
 11
-19.504363365111864
 21
-11.908329401136854
 31
0.0
  0
LINE
  5
28E
100
AcDbEntity
  8
0
  6
CONTINUOUS
 62
               7
100
AcDbLine
 10
-19.400000097362671
 20
-11.499999590600595
 30
0.0
 11
-19.400000097362671
 21
-9.499999590600595
 31
0.0
  0
LINE
  5
28F
100
AcDbEntity
  8
0
  6
CONTINUOUS
 62
               7
100
AcDbLine
 10
-18.800000097362677
 20
-11.999999590600595
 30
0.0
 11
-18.900000097362671
 21
-11.999999590600595
 31
0.0
  0
LINE
  5
290
100
AcDbEntity
  8
0
  6
CONTINUOUS
 62
               7
100
AcDbLine
 10
-18.800000097362677
 20
-8.999999590600595
 30
0.0
 11
-18.900000097362671
 21
-8.999999590600595
 31
0.0
  0
ARC
  5
291
100
AcDbEntity
  8
0
  6
CONTINUOUS
 62
               7
100
AcDbCircle
 10
-18.900000097362671
 20
-11.499999590600595
 30
0.0
 40
0.5
100
AcDbArc
 50
179.99999999999963
 51
269.99999999999937
  0
ARC
  5
292
100
AcDbEntity
  8
0
  6
CONTINUOUS
 62
               7
100
AcDbCircle
 10
-18.900000097362671
 20
-9.499999590600595
 30
0.0
 40
0.5
100
AcDbArc
 50
89.999999999999815
 51
179.99999999999963
  0
CIRCLE
  5
293
100
AcDbEntity
  8
0
  6
CONTINUOUS
 62
               4
100
AcDbCircle
 10
-8.3500000353927391
 20
-14.462624082054617
 30
0.0
 40
3.0
  0
CIRCLE
  5
294
100
AcDbEntity
  8
0
  6
CONTINUOUS
 62
               4
100
AcDbCircle
 10
16.699999949932085
 20
-0.0000001675305157
 30
0.0
 40
3.0
  0
CIRCLE
  5
295
100
AcDbEntity
  8
0
  6
CONTINUOUS
 62
               4
100
AcDbCircle
 10
-8.350000081846467
 20
14.462624394470993
 30
0.0
 40
3.0
  0
ARC
  5
296
100
AcDbEntity
  8
0
  6
CONTINUOUS
 62
               7
100
AcDbCircle
 10
-0.0000001092145823
 20
0.000000409399405
 30
0.0
 40
14.66
100
AcDbArc
 50
248.0613275518941
 51
351.93867042710133
  0
LINE
  5
297
100
AcDbEntity
  8
0
  6
CONTINUOUS
 62
               7
100
AcDbLine
 10
-18.800000097362663
 20
-11.999999590600595
 30
0.0
 11
-18.80000009736267
 21
-8.8999995906005722
 31
0.0
  0
ARC
  5
298
100
AcDbEntity
  8
0
  6
CONTINUOUS
 62
               7
100
AcDbCircle
 10
-19.500000097362665
 20
7.4083492584036037
 30
0.0
 40
0.5
100
AcDbArc
 50
90.499999999999659
 51
179.99999999999963
  0
ARC
  5
299
100
AcDbEntity
  8
0
  6
CONTINUOUS
 62
               7
100
AcDbCircle
 10
-19.500000097362665
 20
-11.408348439604737
 30
0.0
 40
0.5
100
AcDbArc
 50
179.99999999999963
 51
269.49999999999915
  0
LINE
  5
29A
100
AcDbEntity
  8
0
  6
CONTINUOUS
 62
               7
100
AcDbLine
 10
-20.000000097362665
 20
-11.408348439604737
 30
0.0
 11
-20.000000097362658
 21
7.4083492584036037
 31
0.0
  0
LINE
  5
29B
100
AcDbEntity
  8
0
  6
CONTINUOUS
 62
               7
100
AcDbLine
 10
-18.80000009736267
 20
-8.8999995906005722
 30
0.0
 11
-20.000000097362665
 21
-8.8999995906005722
 31
0.0
  0
LINE
  5
29C
100
AcDbEntity
  8
0
  6
CENTER
 62
               2
100
AcDbLine
 10
-18.195857084213763
 20
-10.499999590600595
 30
0.0
 11
-20.43544938842301
 21
-10.499999590600595
 31
0.0
  0
LINE
  5
29D
100
AcDbEntity
  8
0
  6
CENTER
 62
               2
100
AcDbLine
 10
-32.900000097362664
 20
-8.2999995906006063
 30
0.0
 11
-18.800000097362663
 21
-8.2999995906006063
 31
0.0
  0
LINE
  5
29E
100
AcDbEntity
  8
0
  6
CONTINUOUS
 62
               7
100
AcDbLine
 10
-16.033585135322696
 20
-11.955088647430955
 30
0.0
 11
-18.800000097362663
 21
-11.917818770188035
 31
0.0
  0
LINE
  5
29F
100
AcDbEntity
  8
0
  6
CONTINUOUS
 62
               7
100
AcDbLine
 10
-18.363413742248106
 20
7.9237013963384015
 30
0.0
 11
-19.504363365111843
 21
7.9083302199357206
 31
0.0
  0
ARC
  5
2A0
100
AcDbEntity
  8
0
  6
CONTINUOUS
 62
               7
100
AcDbCircle
 10
-0.0000001092145823
 20
0.000000409399405
 30
0.0
 40
14.66
100
AcDbArc
 50
128.06132878250932
 51
231.93867373851936
  0
CIRCLE
  5
2A1
100
AcDbEntity
  8
0
  6
CONTINUOUS
 62
               7
100
AcDbCircle
 10
0.0000000432174261
 20
0.0000001453794312
 30
0.0
 40
6.0
  0
ARC
  5
2A2
100
AcDbEntity
  8
0
  6
CONTINUOUS
 62
               7
100
AcDbCircle
 10
-0.0000001092145823
 20
0.000000409399405
 30
0.0
 40
14.66
100
AcDbArc
 50
8.0613251078213253
 51
111.93867194046535
  0
LINE
  5
2A3
100
AcDbEntity
  8
0
  6
CENTER
 62
               2
100
AcDbLine
 10
-0.000000059604659
 20
0.0000001192092896
 30
0.0
 11
-11.694827032483403
 21
-20.256034383543692
 31
0.0
  0
LINE
  5
2A4
100
AcDbEntity
  8
0
  6
CENTER
 62
               2
100
AcDbLine
 10
-11.527661496485784
 20
19.966495417496105
 30
0.0
 11
0.0
 21
0.0
 31
0.0
  0
CIRCLE
  5
2A5
100
AcDbEntity
  8
0
  6
CENTER
 62
               2
100
AcDbCircle
 10
-0.000000103584334
 20
0.000000270264934
 30
0.0
 40
16.699999999999999
  0
CIRCLE
  5
2A6
100
AcDbEntity
  8
0
  6
CONTINUOUS
 62
               7
100
AcDbCircle
 10
-0.0000000068504775
 20
0.0000003149976919
 30
0.0
 40
5.0
  0
CIRCLE
  5
2A7
100
AcDbEntity
  8
0
  6
CONTINUOUS
 62
               7
100
AcDbCircle
 10
-0.000000103584334
 20
0.000000270264934
 30
0.0
 40
20.0
  0
LINE
  5
2A8
100
AcDbEntity
  8
0
  6
CENTER
 62
               2
100
AcDbLine
 10
-21.448512623078607
 20
0.0000002845416134
 30
0.0
 11
23.300140096806111
 21
0.0000002845416134
 31
0.0
  0
LINE
  5
2A9
100
AcDbEntity
  8
0
  6
CENTER
 62
               2
100
AcDbLine
 10
-0.0000002381870985
 20
22.000000270264934
 30
0.0
 11
-0.0000002381870985
 21
-21.999999729735066
 31
0.0
  0
ENDBLK
  5
2AA
100
AcDbEntity
  8
0
100
AcDbBlockEnd
  0
BLOCK
  5
2AB
100
AcDbEntity
  8
0
100
AcDbBlockBegin
  2
NCT40-5
 70
               0
 10
0.0
 20
0.0
 30
0.0
  3
NCT40-5
  1

  0
LINE
  5
2AC
100
AcDbEntity
  8
0
  6
CONTINUOUS
 62
               7
100
AcDbLine
 10
19.0
 20
0.0
 30
0.0
 11
-9.0000000000000284
 21
0.0
 31
0.0
  0
LINE
  5
2AD
100
AcDbEntity
  8
0
  6
CONTINUOUS
 62
               7
100
AcDbLine
 10
20.0
 20
-1.0
 30
0.0
 11
20.0
 21
-16.799999999999983
 31
0.0
  0
LINE
  5
2AE
100
AcDbEntity
  8
0
  6
CONTINUOUS
 62
               7
100
AcDbLine
 10
19.799999999999955
 20
-17.0
 30
0.0
 11
-19.800000000000011
 21
-17.0
 31
0.0
  0
LINE
  5
2AF
100
AcDbEntity
  8
0
  6
CONTINUOUS
 62
               7
100
AcDbLine
 10
19.0
 20
0.0
 30
0.0
 11
20.0
 21
-1.0
 31
0.0
  0
LINE
  5
2B0
100
AcDbEntity
  8
0
  6
CONTINUOUS
 62
               7
100
AcDbLine
 10
20.0
 20
-1.0
 30
0.0
 11
-9.0000000000000284
 21
-1.0
 31
0.0
  0
LINE
  5
2B1
100
AcDbEntity
  8
0
  6
CONTINUOUS
 62
               4
100
AcDbLine
 10
19.699999999999989
 20
-18.0
 30
0.0
 11
13.699999999999989
 21
-18.0
 31
0.0
  0
LINE
  5
2B2
100
AcDbEntity
  8
0
  6
CONTINUOUS
 62
               4
100
AcDbLine
 10
-5.3500000317785634
 20
-18.0
 30
0.0
 11
-11.350000031778592
 21
-18.0
 31
0.0
  0
LINE
  5
2B3
100
AcDbEntity
  8
0
  6
CENTER
 62
               2
100
AcDbLine
 10
15.606601717798185
 20
-0.9845058082447906
 30
0.0
 11
15.606601717798185
 21
-12.015494191755238
 31
0.0
  0
LINE
  5
2B4
100
AcDbEntity
  8
0
  6
CONTINUOUS
 62
               7
100
AcDbLine
 10
19.648053602125572
 20
-6.5
 30
0.0
 11
17.627327659961907
 21
-3.0
 31
0.0
  0
LINE
  5
2B5
100
AcDbEntity
  8
0
  6
CONTINUOUS
 62
               7
100
AcDbLine
 10
17.627327659961907
 20
-10.0
 30
0.0
 11
19.648053602125572
 21
-6.5
 31
0.0
  0
ARC
  5
2B6
100
AcDbEntity
  8
0
  6
CONTINUOUS
 62
               7
100
AcDbCircle
 10
15.606601717798185
 20
-6.5
 30
0.0
 40
4.75
100
AcDbArc
 50
22.342807841340186
 51
337.65719215865909
  0
ARC
  5
2B7
100
AcDbEntity
  8
0
  6
CONTINUOUS
 62
               7
100
AcDbCircle
 10
15.606601717798185
 20
-6.5
 30
0.0
 40
4.0
100
AcDbArc
 50
1.0449756281401477
 51
58.955024371859722
  0
ARC
  5
2B8
100
AcDbEntity
  8
0
  6
CONTINUOUS
 62
               7
100
AcDbCircle
 10
15.606601717798185
 20
-6.5
 30
0.0
 40
4.0
100
AcDbArc
 50
301.04497562813941
 51
358.95502437185911
  0
ARC
  5
2B9
100
AcDbEntity
  8
0
  6
CONTINUOUS
 62
               7
100
AcDbCircle
 10
15.606601717798185
 20
-6.5
 30
0.0
 40
3.5
100
AcDbArc
 50
278.21321070173758
 51
81.786789298261581
  0
ARC
  5
2BA
100
AcDbEntity
  8
0
  6
CONTINUOUS
 62
               7
100
AcDbCircle
 10
15.606601717798185
 20
-6.5
 30
0.0
 40
3.5
100
AcDbArc
 50
98.213210701737992
 51
261.78678929826128
  0
ARC
  5
2BB
100
AcDbEntity
  8
0
  6
CONTINUOUS
 62
               7
100
AcDbCircle
 10
15.606601717798185
 20
-6.5
 30
0.0
 40
4.0
100
AcDbArc
 50
241.04497562813958
 51
298.95502437185922
  0
ARC
  5
2BC
100
AcDbEntity
  8
0
  6
CONTINUOUS
 62
               7
100
AcDbCircle
 10
15.606601717798185
 20
-6.5
 30
0.0
 40
4.0
100
AcDbArc
 50
181.04497562813958
 51
238.95502437185922
  0
ARC
  5
2BD
100
AcDbEntity
  8
0
  6
CONTINUOUS
 62
               7
100
AcDbCircle
 10
15.606601717798185
 20
-6.5
 30
0.0
 40
4.0
100
AcDbArc
 50
121.04497562813988
 51
178.95502437185934
  0
ARC
  5
2BE
100
AcDbEntity
  8
0
  6
CONTINUOUS
 62
               7
100
AcDbCircle
 10
15.606601717798185
 20
-6.5
 30
0.0
 40
4.0
100
AcDbArc
 50
61.044975628139994
 51
118.95502437185961
  0
LINE
  5
2BF
100
AcDbEntity
  8
0
  6
CONTINUOUS
 62
               7
100
AcDbLine
 10
13.58587577563452
 20
-10.0
 30
0.0
 11
17.627327659961907
 21
-10.0
 31
0.0
  0
LINE
  5
2C0
100
AcDbEntity
  8
0
  6
CONTINUOUS
 62
               7
100
AcDbLine
 10
11.565149833470798
 20
-6.5
 30
0.0
 11
13.58587577563452
 21
-10.0
 31
0.0
  0
LINE
  5
2C1
100
AcDbEntity
  8
0
  6
CONTINUOUS
 62
               7
100
AcDbLine
 10
13.58587577563452
 20
-3.0
 30
0.0
 11
11.565149833470798
 21
-6.5
 31
0.0
  0
LINE
  5
2C2
100
AcDbEntity
  8
0
  6
CONTINUOUS
 62
               7
100
AcDbLine
 10
17.627327659961907
 20
-3.0
 30
0.0
 11
13.58587577563452
 21
-3.0
 31
0.0
  0
LINE
  5
2C3
100
AcDbEntity
  8
0
  6
CONTINUOUS
 62
               7
100
AcDbLine
 10
15.106601717798185
 20
-3.0
 30
0.0
 11
15.106601717798185
 21
-10.0
 31
0.0
  0
LINE
  5
2C4
100
AcDbEntity
  8
0
  6
CONTINUOUS
 62
               7
100
AcDbLine
 10
16.106601717798185
 20
-3.0
 30
0.0
 11
16.106601717798185
 21
-10.0
 31
0.0
  0
LINE
  5
2C5
100
AcDbEntity
  8
0
  6
CONTINUOUS
 62
               7
100
AcDbLine
 10
-20.000000000000028
 20
-10.807957916329826
 30
0.0
 11
-20.000000000000028
 21
-16.800000000000011
 31
0.0
  0
LINE
  5
2C6
100
AcDbEntity
  8
0
  6
CONTINUOUS
 62
               7
100
AcDbLine
 10
-9.0000000000000284
 20
0.0
 30
0.0
 11
-9.0000000000000284
 21
-10.807957925442707
 31
0.0
  0
LINE
  5
2C7
100
AcDbEntity
  8
0
  6
CONTINUOUS
 62
               7
100
AcDbLine
 10
-20.000000000000028
 20
-10.807957916329826
 30
0.0
 11
-9.0000000000000284
 21
-10.807957916329826
 31
0.0
  0
LINE
  5
2C8
100
AcDbEntity
  8
0
  6
CONTINUOUS
 62
               7
100
AcDbLine
 10
-12.700000000000017
 20
-10.500000001673413
 30
0.0
 11
-9.0
 21
-10.467710590847616
 31
0.0
  0
LINE
  5
2C9
100
AcDbEntity
  8
0
  6
CONTINUOUS
 62
               7
100
AcDbLine
 10
-12.700000000000017
 20
-0.5
 30
0.0
 11
-9.0000000000000284
 21
-0.532289410825797
 31
0.0
  0
ARC
  5
2CA
100
AcDbEntity
  8
0
  6
CONTINUOUS
 62
               7
100
AcDbCircle
 10
-19.500000000000028
 20
-9.9083488506775552
 30
0.0
 40
0.5
100
AcDbArc
 50
179.99999999999963
 51
269.49999999999909
  0
ARC
  5
2CB
100
AcDbEntity
  8
0
  6
CONTINUOUS
 62
               7
100
AcDbCircle
 10
-19.500000000000028
 20
-1.0916511509958582
 30
0.0
 40
0.5
100
AcDbArc
 50
90.500000000000171
 51
179.99999999999963
  0
LINE
  5
2CC
100
AcDbEntity
  8
0
  6
CONTINUOUS
 62
               7
100
AcDbLine
 10
-12.700000000000017
 20
-10.500000001673413
 30
0.0
 11
-19.504363267749227
 21
-10.408329812209672
 31
0.0
  0
LINE
  5
2CD
100
AcDbEntity
  8
0
  6
CONTINUOUS
 62
               7
100
AcDbLine
 10
-12.700000000000017
 20
-0.5
 30
0.0
 11
-18.800000000000011
 21
-0.5821808204125887
 31
0.0
  0
LINE
  5
2CE
100
AcDbEntity
  8
0
  6
CENTER
 62
               2
100
AcDbLine
 10
-16.400000000000006
 20
-0.2797323457621701
 30
0.0
 11
-16.400000000000006
 21
-8.1311926605504823
 31
0.0
  0
LINE
  5
2CF
100
AcDbEntity
  8
0
  6
CENTER
 62
               2
100
AcDbLine
 10
-7.8555882192472382
 20
-5.5
 30
0.0
 11
-22.000000000000028
 21
-5.5
 31
0.0
  0
LINE
  5
2D0
100
AcDbEntity
  8
0
  6
CENTER
 62
               2
100
AcDbLine
 10
-20.430359701872334
 20
-4.1000000000000227
 30
0.0
 11
-12.546982881739353
 21
-4.1000000000000227
 31
0.0
  0
LINE
  5
2D1
100
AcDbEntity
  8
0
  6
CENTER
 62
               2
100
AcDbLine
 10
-18.195856986851112
 20
-2.0
 30
0.0
 11
-20.400000000000034
 21
-2.0
 31
0.0
  0
LINE
  5
2D2
100
AcDbEntity
  8
0
  6
CONTINUOUS
 62
               7
100
AcDbLine
 10
-18.800000000000011
 20
-3.6000000000000227
 30
0.0
 11
-18.800000000000011
 21
-0.5
 31
0.0
  0
LINE
  5
2D3
100
AcDbEntity
  8
0
  6
CONTINUOUS
 62
               7
100
AcDbLine
 10
-18.800000000000011
 20
-3.6000000000000227
 30
0.0
 11
-20.000000000000028
 21
-3.6000000000000227
 31
0.0
  0
LINE
  5
2D4
100
AcDbEntity
  8
0
  6
CONTINUOUS
 62
               7
100
AcDbLine
 10
-20.000000000000028
 20
-9.9083488506775552
 30
0.0
 11
-20.000000000000028
 21
-1.0916511509958582
 31
0.0
  0
LINE
  5
2D5
100
AcDbEntity
  8
0
  6
CONTINUOUS
 62
               7
100
AcDbLine
 10
-12.700000000000017
 20
-10.500000001673413
 30
0.0
 11
-12.700000000000017
 21
-0.5
 31
0.0
  0
LINE
  5
2D6
100
AcDbEntity
  8
0
  6
CENTER
 62
             200
100
AcDbLine
 10
-8.3500000317785918
 20
-14.0800174257636
 30
0.0
 11
-8.3500000317785918
 21
-19.807957916433281
 31
0.0
  0
LINE
  5
2D7
100
AcDbEntity
  8
0
  6
CENTER
 62
             200
100
AcDbLine
 10
16.699999999999989
 20
-14.0800174257636
 30
0.0
 11
16.699999999999989
 21
-19.807957916433281
 31
0.0
  0
LINE
  5
2D8
100
AcDbEntity
  8
0
  6
CENTER
 62
               2
100
AcDbLine
 10
0.0
 20
2.1920420835667187
 30
0.0
 11
0.0
 21
-18.807957916433281
 31
0.0
  0
LINE
  5
2D9
100
AcDbEntity
  8
0
  6
CONTINUOUS
 62
               7
100
AcDbLine
 10
20.0
 20
-16.799999999999983
 30
0.0
 11
19.799999999999955
 21
-17.0
 31
0.0
  0
LINE
  5
2DA
100
AcDbEntity
  8
0
  6
CONTINUOUS
 62
               7
100
AcDbLine
 10
-20.000000000000028
 20
-16.800000000000011
 30
0.0
 11
-19.800000000000011
 21
-17.0
 31
0.0
  0
LINE
  5
2DB
100
AcDbEntity
  8
0
  6
CONTINUOUS
 62
               7
100
AcDbLine
 10
20.0
 20
-16.799999999999983
 30
0.0
 11
-20.0
 21
-16.800000000000011
 31
0.0
  0
LINE
  5
2DC
100
AcDbEntity
  8
0
  6
CONTINUOUS
 62
               4
100
AcDbLine
 10
19.699999999999989
 20
-17.0
 30
0.0
 11
19.699999999999989
 21
-18.0
 31
0.0
  0
LINE
  5
2DD
100
AcDbEntity
  8
0
  6
CONTINUOUS
 62
               4
100
AcDbLine
 10
13.699999999999989
 20
-17.000000009112881
 30
0.0
 11
13.699999999999989
 21
-18.0
 31
0.0
  0
LINE
  5
2DE
100
AcDbEntity
  8
0
  6
CONTINUOUS
 62
               4
100
AcDbLine
 10
-5.3500000317785634
 20
-17.0
 30
0.0
 11
-5.3500000317785634
 21
-18.0
 31
0.0
  0
LINE
  5
2DF
100
AcDbEntity
  8
0
  6
CONTINUOUS
 62
               4
100
AcDbLine
 10
-11.350000031778592
 20
-17.0
 30
0.0
 11
-11.350000031778592
 21
-18.0
 31
0.0
  0
LINE
  5
2E0
100
AcDbEntity
  8
0
  6
CENTER
 62
               2
100
AcDbLine
 10
10.091107553874735
 20
-6.5
 30
0.0
 11
21.122095889484171
 21
-6.5
 31
0.0
  0
CIRCLE
  5
2E1
100
AcDbEntity
  8
0
  6
DASHED
 62
               2
100
AcDbCircle
 10
-16.400000000000006
 20
-4.1000000000000227
 30
0.0
 40
3.0
  0
LINE
  5
2E2
100
AcDbEntity
  8
0
  6
CONTINUOUS
 62
               7
100
AcDbLine
 10
-19.400000000000034
 20
-3.0
 30
0.0
 11
-19.400000000000034
 21
-1.0
 31
0.0
  0
LINE
  5
2E3
100
AcDbEntity
  8
0
  6
CONTINUOUS
 62
               7
100
AcDbLine
 10
-18.800000000000011
 20
-0.5
 30
0.0
 11
-18.900000000000034
 21
-0.5
 31
0.0
  0
LINE
  5
2E4
100
AcDbEntity
  8
0
  6
CONTINUOUS
 62
               7
100
AcDbLine
 10
-18.800000000000011
 20
-3.5
 30
0.0
 11
-18.900000000000034
 21
-3.5
 31
0.0
  0
ARC
  5
2E5
100
AcDbEntity
  8
0
  6
CONTINUOUS
 62
               7
100
AcDbCircle
 10
-18.900000000000034
 20
-3.0
 30
0.0
 40
0.5
100
AcDbArc
 50
179.99999999999963
 51
269.99999999999937
  0
ARC
  5
2E6
100
AcDbEntity
  8
0
  6
CONTINUOUS
 62
               7
100
AcDbCircle
 10
-18.900000000000034
 20
-1.0
 30
0.0
 40
0.5
100
AcDbArc
 50
89.999999999999815
 51
179.99999999999963
  0
LINE
  5
2E7
100
AcDbEntity
  8
0
  6
CONTINUOUS
 62
               7
100
AcDbLine
 10
-19.182320284100513
 20
-0.5873315408400686
 30
0.0
 11
-19.504363267749227
 21
-0.5916701894637413
 31
0.0
  0
ENDBLK
  5
2E8
100
AcDbEntity
  8
0
100
AcDbBlockEnd
  0
BLOCK
  5
2E9
100
AcDbEntity
  8
0
100
AcDbBlockBegin
  2
NCT40-6
 70
               0
 10
0.0
 20
0.0
 30
0.0
  3
NCT40-6
  1

  0
LINE
  5
2EA
100
AcDbEntity
  8
0
  6
DASHED
 62
               2
100
AcDbLine
 10
7.9549512883486386
 20
14.672465709620923
 30
0.0
 11
14.672465709620838
 21
7.9549512883487239
 31
0.0
  0
LINE
  5
2EB
100
AcDbEntity
  8
0
  6
DASHED
 62
               2
100
AcDbLine
 10
8.8741901038911237
 20
14.60175503150225
 30
0.0
 11
14.601755031502194
 21
8.8741901038912374
 31
0.0
  0
LINE
  5
2EC
100
AcDbEntity
  8
0
  6
DASHED
 62
               2
100
AcDbLine
 10
12.798632739476488
 20
9.8287842584930729
 30
0.0
 11
10.433387590107998
 21
7.4635391091245822
 31
0.0
  0
LINE
  5
2ED
100
AcDbEntity
  8
0
  6
DASHED
 62
               2
100
AcDbLine
 10
16.015968593875243
 20
10.995510447450869
 30
0.0
 11
16.0159685938753
 21
10.288403666264344
 31
0.0
  0
ARC
  5
2EE
100
AcDbEntity
  8
0
  6
DASHED
 62
               2
100
AcDbCircle
 10
10.414259706814221
 20
10.441218477667917
 30
0.0
 40
4.363929581700825
100
AcDbArc
 50
16.995213414137279
 51
38.168845001456681
  0
LINE
  5
2EF
100
AcDbEntity
  8
0
  6
DASHED
 62
               2
100
AcDbLine
 10
13.859292911256318
 20
13.15218613006985
 30
0.0
 11
12.798632739476488
 21
12.091525958290021
 31
0.0
  0
LINE
  5
2F0
100
AcDbEntity
  8
0
  6
DASHED
 62
               2
100
AcDbLine
 10
13.859292911256318
 20
13.15218613006985
 30
0.0
 11
16.015968593875243
 21
10.995510447450869
 31
0.0
  0
LINE
  5
2F1
100
AcDbEntity
  8
0
  6
DASHED
 62
               2
100
AcDbLine
 10
14.587612895878465
 20
11.716759364261151
 30
0.0
 11
13.173399333505358
 21
10.302545801888073
 31
0.0
  0
ARC
  5
2F2
100
AcDbEntity
  8
0
  6
DASHED
 62
               2
100
AcDbCircle
 10
12.153944892329605
 20
5.1221656684585355
 30
0.0
 40
7.0293247160888015
100
AcDbArc
 50
56.673040373502339
 51
69.743928567659154
  0
LINE
  5
2F3
100
AcDbEntity
  8
0
  6
DASHED
 62
               2
100
AcDbLine
 10
13.081475451951121
 20
9.5459415460184402
 30
0.0
 11
10.895512457154553
 21
7.3599785512219
 31
0.0
  0
LINE
  5
2F4
100
AcDbEntity
  8
0
  6
DASHED
 62
               2
100
AcDbLine
 10
10.28840366626423
 20
16.015968593875357
 30
0.0
 11
8.8741901038911237
 21
14.60175503150225
 31
0.0
  0
LINE
  5
2F5
100
AcDbEntity
  8
0
  6
DASHED
 62
               2
100
AcDbLine
 10
8.4852813742385251
 20
14.142135623731008
 30
0.0
 11
8.9095454429505025
 21
14.566399692442957
 31
0.0
  0
ARC
  5
2F6
100
AcDbEntity
  8
0
  6
DASHED
 62
               2
100
AcDbCircle
 10
10.440535532380409
 20
10.412952354407054
 30
0.0
 40
4.3653794686807261
100
AcDbArc
 50
51.834711780667043
 51
73.001229803738639
  0
LINE
  5
2F7
100
AcDbEntity
  8
0
  6
DASHED
 62
               2
100
AcDbLine
 10
10.995510447450783
 20
16.015968593875357
 30
0.0
 11
13.152186130069765
 21
13.859292911256404
 31
0.0
  0
LINE
  5
2F8
100
AcDbEntity
  8
0
  6
DASHED
 62
               2
100
AcDbLine
 10
11.716759364261065
 20
14.58761289587855
 30
0.0
 11
10.302545801887959
 21
13.173399333505444
 31
0.0
  0
ARC
  5
2F9
100
AcDbEntity
  8
0
  6
DASHED
 62
               2
100
AcDbCircle
 10
5.1235610961754219
 20
12.154649514246188
 30
0.0
 40
7.0277716396203269
100
AcDbArc
 50
20.2546208573625
 51
33.328410201475762
  0
LINE
  5
2FA
100
AcDbEntity
  8
0
  6
DASHED
 62
               2
100
AcDbLine
 10
10.28840366626423
 20
16.015968593875357
 30
0.0
 11
10.995510447450783
 21
16.015968593875357
 31
0.0
  0
LINE
  5
2FB
100
AcDbEntity
  8
0
  6
DASHED
 62
               2
100
AcDbLine
 10
13.152186130069765
 20
13.859292911256404
 30
0.0
 11
12.091525958289935
 21
12.798632739476574
 31
0.0
  0
LINE
  5
2FC
100
AcDbEntity
  8
0
  6
DASHED
 62
               2
100
AcDbLine
 10
12.091525958289935
 20
12.798632739476574
 30
0.0
 11
12.798632739476488
 21
12.091525958290021
 31
0.0
  0
LINE
  5
2FD
100
AcDbEntity
  8
0
  6
DASHED
 62
               2
100
AcDbLine
 10
14.142135623730951
 20
8.4852813742386104
 30
0.0
 11
14.566399692442872
 21
8.9095454429505594
 31
0.0
  0
LINE
  5
2FE
100
AcDbEntity
  8
0
  6
DASHED
 62
               2
100
AcDbLine
 10
16.0159685938753
 20
10.288403666264344
 30
0.0
 11
14.601755031502194
 21
8.8741901038912374
 31
0.0
  0
LINE
  5
2FF
100
AcDbEntity
  8
0
  6
DASHED
 62
               2
100
AcDbLine
 10
9.8287842584929876
 20
12.798632739476574
 30
0.0
 11
7.1448152787743879
 21
10.114663759758002
 31
0.0
  0
LINE
  5
300
100
AcDbEntity
  8
0
  6
DASHED
 62
               2
100
AcDbLine
 10
9.545941546018355
 20
13.081475451951178
 30
0.0
 11
7.1806963966498643
 21
10.716230302582716
 31
0.0
  0
LINE
  5
301
100
AcDbEntity
  8
0
  6
DASHED
 62
               2
100
AcDbLine
 10
14.672465709620838
 20
-7.954951288348667
 30
0.0
 11
7.9549512883486386
 21
-14.672465709620866
 31
0.0
  0
LINE
  5
302
100
AcDbEntity
  8
0
  6
DASHED
 62
               2
100
AcDbLine
 10
14.601755031502194
 20
-8.8741901038911806
 30
0.0
 11
8.8741901038911806
 21
-14.601755031502222
 31
0.0
  0
LINE
  5
303
100
AcDbEntity
  8
0
  6
DASHED
 62
               2
100
AcDbLine
 10
12.798632739476488
 20
-12.091525958289964
 30
0.0
 11
12.091525958289935
 21
-12.798632739476517
 31
0.0
  0
LINE
  5
304
100
AcDbEntity
  8
0
  6
DASHED
 62
               2
100
AcDbLine
 10
13.859292911256318
 20
-13.152186130069794
 30
0.0
 11
12.798632739476488
 21
-12.091525958289964
 31
0.0
  0
LINE
  5
305
100
AcDbEntity
  8
0
  6
DASHED
 62
               2
100
AcDbLine
 10
16.0159685938753
 20
-10.288403666264287
 30
0.0
 11
16.0159685938753
 21
-10.995510447450812
 31
0.0
  0
ARC
  5
306
100
AcDbEntity
  8
0
  6
DASHED
 62
               2
100
AcDbCircle
 10
12.154649514246103
 20
-5.1235610961754219
 30
0.0
 40
7.0277716396203269
100
AcDbArc
 50
290.25462085736189
 51
303.32841020147521
  0
LINE
  5
307
100
AcDbEntity
  8
0
  6
DASHED
 62
               2
100
AcDbLine
 10
14.587612895878465
 20
-11.716759364261094
 30
0.0
 11
13.173399333505358
 21
-10.302545801888016
 31
0.0
  0
LINE
  5
308
100
AcDbEntity
  8
0
  6
DASHED
 62
               2
100
AcDbLine
 10
16.0159685938753
 20
-10.995510447450812
 30
0.0
 11
13.859292911256318
 21
-13.152186130069794
 31
0.0
  0
ARC
  5
309
100
AcDbEntity
  8
0
  6
DASHED
 62
               2
100
AcDbCircle
 10
10.412952354406968
 20
-10.440535532380466
 30
0.0
 40
4.3653794686807261
100
AcDbArc
 50
321.83471178066645
 51
343.001229803738
  0
LINE
  5
30A
100
AcDbEntity
  8
0
  6
DASHED
 62
               2
100
AcDbLine
 10
14.142135623730951
 20
-8.485281374238582
 30
0.0
 11
14.566399692442872
 21
-8.9095454429505025
 31
0.0
  0
LINE
  5
30B
100
AcDbEntity
  8
0
  6
DASHED
 62
               2
100
AcDbLine
 10
16.0159685938753
 20
-10.288403666264287
 30
0.0
 11
14.601755031502194
 21
-8.8741901038911806
 31
0.0
  0
LINE
  5
30C
100
AcDbEntity
  8
0
  6
DASHED
 62
               2
100
AcDbLine
 10
10.995510447450783
 20
-16.0159685938753
 30
0.0
 11
10.288403666264287
 21
-16.0159685938753
 31
0.0
  0
LINE
  5
30D
100
AcDbEntity
  8
0
  6
DASHED
 62
               2
100
AcDbLine
 10
9.545941546018355
 20
-13.081475451951121
 30
0.0
 11
7.3599785512218432
 21
-10.895512457154581
 31
0.0
  0
LINE
  5
30E
100
AcDbEntity
  8
0
  6
DASHED
 62
               2
100
AcDbLine
 10
9.8287842584929876
 20
-12.798632739476517
 30
0.0
 11
7.4635391091244969
 21
-10.433387590108026
 31
0.0
  0
ARC
  5
30F
100
AcDbEntity
  8
0
  6
DASHED
 62
               2
100
AcDbCircle
 10
5.1221656684584786
 20
-12.153944892329662
 30
0.0
 40
7.0293247160888015
100
AcDbArc
 50
326.67304037350175
 51
339.74392856765854
  0
LINE
  5
310
100
AcDbEntity
  8
0
  6
DASHED
 62
               2
100
AcDbLine
 10
11.716759364261065
 20
-14.587612895878465
 30
0.0
 11
10.302545801888016
 21
-13.173399333505387
 31
0.0
  0
LINE
  5
311
100
AcDbEntity
  8
0
  6
DASHED
 62
               2
100
AcDbLine
 10
13.152186130069765
 20
-13.859292911256318
 30
0.0
 11
10.995510447450783
 21
-16.0159685938753
 31
0.0
  0
LINE
  5
312
100
AcDbEntity
  8
0
  6
DASHED
 62
               2
100
AcDbLine
 10
13.152186130069765
 20
-13.859292911256318
 30
0.0
 11
12.091525958289935
 21
-12.798632739476517
 31
0.0
  0
ARC
  5
313
100
AcDbEntity
  8
0
  6
DASHED
 62
               2
100
AcDbCircle
 10
10.44121847766786
 20
-10.414259706814278
 30
0.0
 40
4.363929581700825
100
AcDbArc
 50
286.99521341413669
 51
308.16884500145608
  0
LINE
  5
314
100
AcDbEntity
  8
0
  6
DASHED
 62
               2
100
AcDbLine
 10
10.288403666264287
 20
-16.0159685938753
 30
0.0
 11
8.8741901038911806
 21
-14.601755031502222
 31
0.0
  0
LINE
  5
315
100
AcDbEntity
  8
0
  6
DASHED
 62
               2
100
AcDbLine
 10
8.4852813742385251
 20
-14.142135623730951
 30
0.0
 11
8.9095454429505025
 21
-14.566399692442872
 31
0.0
  0
LINE
  5
316
100
AcDbEntity
  8
0
  6
DASHED
 62
               2
100
AcDbLine
 10
12.798632739476488
 20
-9.8287842584930161
 30
0.0
 11
10.114663759757946
 21
-7.1448152787744448
 31
0.0
  0
LINE
  5
317
100
AcDbEntity
  8
0
  6
DASHED
 62
               2
100
AcDbLine
 10
13.081475451951121
 20
-9.5459415460184118
 30
0.0
 11
10.71623030258263
 21
-7.1806963966499211
 31
0.0
  0
LINE
  5
318
100
AcDbEntity
  8
0
  6
CONTINUOUS
 62
               7
100
AcDbLine
 10
-12.699999999999989
 20
-8.0
 30
0.0
 11
-12.699999999999989
 21
12.0
 31
0.0
  0
LINE
  5
319
100
AcDbEntity
  8
0
  6
CONTINUOUS
 62
               7
100
AcDbLine
 10
-20.000000000000028
 20
-7.4083488490042271
 30
0.0
 11
-20.000000000000028
 21
11.408348849004199
 31
0.0
  0
LINE
  5
31A
100
AcDbEntity
  8
0
  6
CENTER
 62
               2
100
AcDbLine
 10
-16.400000000000006
 20
10.805227088550964
 30
0.0
 11
-16.400000000000034
 21
31.522492218972957
 31
0.0
  0
LINE
  5
31B
100
AcDbEntity
  8
0
  6
CONTINUOUS
 62
               7
100
AcDbLine
 10
-18.800000000000011
 20
-4.8999999999999773
 30
0.0
 11
-20.0
 21
-4.8999999999999773
 31
0.0
  0
LINE
  5
31C
100
AcDbEntity
  8
0
  6
CONTINUOUS
 62
               7
100
AcDbLine
 10
-18.80000000000004
 20
-8.0
 30
0.0
 11
-18.800000000000011
 21
-4.8999999999999773
 31
0.0
  0
LINE
  5
31D
100
AcDbEntity
  8
0
  6
CENTER
 62
               2
100
AcDbLine
 10
-18.195856986851112
 20
-6.5
 30
0.0
 11
-20.435449291060365
 21
-6.5
 31
0.0
  0
LINE
  5
31E
100
AcDbEntity
  8
0
  6
CONTINUOUS
 62
               7
100
AcDbLine
 10
-13.700000000000017
 20
-4.1999999999999886
 30
0.0
 11
-13.700000000000017
 21
-3.0000000000000284
 31
0.0
  0
LINE
  5
31F
100
AcDbEntity
  8
0
  6
CONTINUOUS
 62
               7
100
AcDbLine
 10
-14.600000000000023
 20
-4.1999999999999886
 30
0.0
 11
-14.600000000000023
 21
-3.0000000000000284
 31
0.0
  0
LINE
  5
320
100
AcDbEntity
  8
0
  6
CONTINUOUS
 62
               7
100
AcDbLine
 10
-13.700000000000017
 20
-4.1000000000000227
 30
0.0
 11
-14.55000000000004
 21
-4.1000000000000227
 31
0.0
  0
LINE
  5
321
100
AcDbEntity
  8
0
  6
CONTINUOUS
 62
               7
100
AcDbLine
 10
-13.699999999999989
 20
-3.1000000000000227
 30
0.0
 11
-14.550000000000011
 21
-3.1000000000000227
 31
0.0
  0
LINE
  5
322
100
AcDbEntity
  8
0
  6
CONTINUOUS
 62
               7
100
AcDbLine
 10
-14.55000000000004
 20
-4.1000000000000227
 30
0.0
 11
-14.550000000000011
 21
-3.1000000000000227
 31
0.0
  0
LINE
  5
323
100
AcDbEntity
  8
0
  6
CONTINUOUS
 62
               7
100
AcDbLine
 10
-13.850000000000051
 20
-4.1000000000000512
 30
0.0
 11
-13.850000000000051
 21
-3.1000000000000512
 31
0.0
  0
LINE
  5
324
100
AcDbEntity
  8
0
  6
CONTINUOUS
 62
               7
100
AcDbLine
 10
-13.700000000000017
 20
-3.0000000000000284
 30
0.0
 11
-14.600000000000023
 21
-3.0000000000000284
 31
0.0
  0
LINE
  5
325
100
AcDbEntity
  8
0
  6
CONTINUOUS
 62
               7
100
AcDbLine
 10
-13.700000000000017
 20
-4.1999999999999886
 30
0.0
 11
-14.600000000000023
 21
-4.1999999999999886
 31
0.0
  0
LINE
  5
326
100
AcDbEntity
  8
0
  6
CONTINUOUS
 62
               7
100
AcDbLine
 10
-13.700000000000017
 20
7.0
 30
0.0
 11
-14.600000000000051
 21
7.0
 31
0.0
  0
LINE
  5
327
100
AcDbEntity
  8
0
  6
CONTINUOUS
 62
               7
100
AcDbLine
 10
-13.700000000000017
 20
8.1999999999999602
 30
0.0
 11
-14.600000000000023
 21
8.1999999999999886
 31
0.0
  0
LINE
  5
328
100
AcDbEntity
  8
0
  6
CONTINUOUS
 62
               7
100
AcDbLine
 10
-13.850000000000023
 20
7.0999999999999943
 30
0.0
 11
-13.850000000000051
 21
8.1000000000000227
 31
0.0
  0
LINE
  5
329
100
AcDbEntity
  8
0
  6
CONTINUOUS
 62
               7
100
AcDbLine
 10
-14.550000000000011
 20
7.1000000000000227
 30
0.0
 11
-14.550000000000011
 21
8.1000000000000227
 31
0.0
  0
LINE
  5
32A
100
AcDbEntity
  8
0
  6
CONTINUOUS
 62
               7
100
AcDbLine
 10
-13.699999999999989
 20
8.1000000000000227
 30
0.0
 11
-14.550000000000011
 21
8.1000000000000227
 31
0.0
  0
LINE
  5
32B
100
AcDbEntity
  8
0
  6
CONTINUOUS
 62
               7
100
AcDbLine
 10
-13.699999999999989
 20
7.1000000000000227
 30
0.0
 11
-14.550000000000011
 21
7.1000000000000227
 31
0.0
  0
LINE
  5
32C
100
AcDbEntity
  8
0
  6
CONTINUOUS
 62
               7
100
AcDbLine
 10
-14.600000000000051
 20
7.0
 30
0.0
 11
-14.600000000000023
 21
8.1999999999999886
 31
0.0
  0
LINE
  5
32D
100
AcDbEntity
  8
0
  6
CONTINUOUS
 62
               7
100
AcDbLine
 10
-13.700000000000017
 20
7.0
 30
0.0
 11
-13.700000000000017
 21
8.1999999999999602
 31
0.0
  0
LINE
  5
32E
100
AcDbEntity
  8
0
  6
CONTINUOUS
 62
               7
100
AcDbLine
 10
-13.400000000000006
 20
12.399999999999977
 30
0.0
 11
-19.400000000000034
 21
12.400000000000006
 31
0.0
  0
LINE
  5
32F
100
AcDbEntity
  8
0
  6
CONTINUOUS
 62
               7
100
AcDbLine
 10
-14.400000000000006
 20
19.399999999999977
 30
0.0
 11
-18.400000000000006
 21
19.399999999999977
 31
0.0
  0
LINE
  5
330
100
AcDbEntity
  8
0
  6
CONTINUOUS
 62
               7
100
AcDbLine
 10
-18.400000000000006
 20
19.399999999999977
 30
0.0
 11
-18.685714285714312
 21
17.399999999999977
 31
0.0
  0
LINE
  5
331
100
AcDbEntity
  8
0
  6
CONTINUOUS
 62
               7
100
AcDbLine
 10
-14.400000000000006
 20
19.399999999999977
 30
0.0
 11
-14.114285714285728
 21
17.399999999999977
 31
0.0
  0
LINE
  5
332
100
AcDbEntity
  8
0
  6
CONTINUOUS
 62
               7
100
AcDbLine
 10
-14.114285714285728
 20
17.399999999999977
 30
0.0
 11
-18.685714285714312
 21
17.399999999999977
 31
0.0
  0
LINE
  5
333
100
AcDbEntity
  8
0
  6
CONTINUOUS
 62
               7
100
AcDbLine
 10
-13.971428571428589
 20
16.399999999999977
 30
0.0
 11
-18.828571428571422
 21
16.399999999999977
 31
0.0
  0
LINE
  5
334
100
AcDbEntity
  8
0
  6
CONTINUOUS
 62
               7
100
AcDbLine
 10
-13.757142857142895
 20
14.900000000000006
 30
0.0
 11
-19.042857142857173
 21
14.899999999999977
 31
0.0
  0
LINE
  5
335
100
AcDbEntity
  8
0
  6
CONTINUOUS
 62
               7
100
AcDbLine
 10
-13.614285714285757
 20
13.900000000000006
 30
0.0
 11
-19.185714285714312
 21
13.899999999999977
 31
0.0
  0
LINE
  5
336
100
AcDbEntity
  8
0
  6
CONTINUOUS
 62
               7
100
AcDbLine
 10
-18.828571428571422
 20
16.399999999999977
 30
0.0
 11
-19.042857142857173
 21
14.899999999999977
 31
0.0
  0
LINE
  5
337
100
AcDbEntity
  8
0
  6
CONTINUOUS
 62
               7
100
AcDbLine
 10
-19.185714285714312
 20
13.899999999999977
 30
0.0
 11
-19.400000000000034
 21
12.400000000000006
 31
0.0
  0
LINE
  5
338
100
AcDbEntity
  8
0
  6
CONTINUOUS
 62
               7
100
AcDbLine
 10
-13.971428571428589
 20
16.399999999999977
 30
0.0
 11
-13.757142857142895
 21
14.900000000000006
 31
0.0
  0
LINE
  5
339
100
AcDbEntity
  8
0
  6
CONTINUOUS
 62
               7
100
AcDbLine
 10
-13.614285714285757
 20
13.900000000000006
 30
0.0
 11
-13.400000000000006
 21
12.399999999999977
 31
0.0
  0
LINE
  5
33A
100
AcDbEntity
  8
0
  6
CONTINUOUS
 62
               7
100
AcDbLine
 10
-18.150000000000006
 20
17.400000000000006
 30
0.0
 11
-18.150000000000034
 21
16.399999999999977
 31
0.0
  0
LINE
  5
33B
100
AcDbEntity
  8
0
  6
CONTINUOUS
 62
               7
100
AcDbLine
 10
-14.650000000000006
 20
17.399999999999977
 30
0.0
 11
-14.650000000000006
 21
16.399999999999977
 31
0.0
  0
LINE
  5
33C
100
AcDbEntity
  8
0
  6
CONTINUOUS
 62
               7
100
AcDbLine
 10
-18.150000000000006
 20
14.899999999999977
 30
0.0
 11
-18.150000000000006
 21
13.899999999999977
 31
0.0
  0
LINE
  5
33D
100
AcDbEntity
  8
0
  6
CONTINUOUS
 62
               7
100
AcDbLine
 10
-14.650000000000006
 20
14.899999999999977
 30
0.0
 11
-14.650000000000034
 21
13.900000000000006
 31
0.0
  0
LINE
  5
33E
100
AcDbEntity
  8
0
  6
CONTINUOUS
 62
               7
100
AcDbLine
 10
-15.099999999999994
 20
24.899999999999977
 30
0.0
 11
-17.699999999999989
 21
24.899999999999977
 31
0.0
  0
LINE
  5
33F
100
AcDbEntity
  8
0
  6
CENTER
 62
               2
100
AcDbLine
 10
-15.950000000000045
 20
24.001543741441964
 30
0.0
 11
-15.950000000000017
 21
31.522492218972957
 31
0.0
  0
LINE
  5
340
100
AcDbEntity
  8
0
  6
CENTER
 62
               2
100
AcDbLine
 10
-16.850000000000023
 20
24.001543741441935
 30
0.0
 11
-16.850000000000023
 21
31.522492218972957
 31
0.0
  0
LINE
  5
341
100
AcDbEntity
  8
0
  6
CONTINUOUS
 62
               7
100
AcDbLine
 10
-15.700000000000017
 20
30.899999999999977
 30
0.0
 11
-16.200000000000045
 21
30.899999999999977
 31
0.0
  0
LINE
  5
342
100
AcDbEntity
  8
0
  6
CONTINUOUS
 62
               7
100
AcDbLine
 10
-16.600000000000023
 20
30.900000000000006
 30
0.0
 11
-17.100000000000023
 21
30.900000000000006
 31
0.0
  0
LINE
  5
343
100
AcDbEntity
  8
0
  6
CONTINUOUS
 62
               7
100
AcDbLine
 10
-15.500000000000028
 20
28.900000000000006
 30
0.0
 11
-17.300000000000011
 21
28.899999999999977
 31
0.0
  0
LINE
  5
344
100
AcDbEntity
  8
0
  6
CONTINUOUS
 62
               7
100
AcDbLine
 10
-17.30000000000004
 20
24.900000000000006
 30
0.0
 11
-17.300000000000011
 21
26.899999999999977
 31
0.0
  0
LINE
  5
345
100
AcDbEntity
  8
0
  6
CONTINUOUS
 62
               2
100
AcDbLine
 10
-16.400000000000034
 20
24.900000000000006
 30
0.0
 11
-16.400000000000034
 21
26.379999999999995
 31
0.0
  0
LINE
  5
346
100
AcDbEntity
  8
0
  6
CONTINUOUS
 62
               2
100
AcDbLine
 10
-16.400000000000006
 20
27.361880179861885
 30
0.0
 11
-16.400000000000006
 21
28.899999999999977
 31
0.0
  0
LINE
  5
347
100
AcDbEntity
  8
0
  6
CONTINUOUS
 62
               7
100
AcDbLine
 10
-17.300000000000011
 20
27.881495421747104
 30
0.0
 11
-17.300000000000011
 21
28.899999999999977
 31
0.0
  0
LINE
  5
348
100
AcDbEntity
  8
0
  6
CONTINUOUS
 62
               7
100
AcDbLine
 10
-15.500000000000028
 20
24.899999999999977
 30
0.0
 11
-15.5
 21
25.860000000000014
 31
0.0
  0
LINE
  5
349
100
AcDbEntity
  8
0
  6
CONTINUOUS
 62
               7
100
AcDbLine
 10
-15.500000000000028
 20
26.842264937976722
 30
0.0
 11
-15.500000000000028
 21
28.900000000000006
 31
0.0
  0
LINE
  5
34A
100
AcDbEntity
  8
0
  6
CONTINUOUS
 62
               7
100
AcDbLine
 10
-15.700000000000017
 20
28.899999999999977
 30
0.0
 11
-15.700000000000017
 21
30.899999999999977
 31
0.0
  0
LINE
  5
34B
100
AcDbEntity
  8
0
  6
CONTINUOUS
 62
               7
100
AcDbLine
 10
-16.200000000000017
 20
28.899999999999977
 30
0.0
 11
-16.200000000000045
 21
30.899999999999977
 31
0.0
  0
LINE
  5
34C
100
AcDbEntity
  8
0
  6
CONTINUOUS
 62
               7
100
AcDbLine
 10
-16.600000000000023
 20
28.900000000000006
 30
0.0
 11
-16.600000000000023
 21
30.900000000000006
 31
0.0
  0
LINE
  5
34D
100
AcDbEntity
  8
0
  6
CONTINUOUS
 62
               7
100
AcDbLine
 10
-17.100000000000023
 20
28.900000000000006
 30
0.0
 11
-17.100000000000023
 21
30.900000000000006
 31
0.0
  0
LINE
  5
34E
100
AcDbEntity
  8
0
  6
CONTINUOUS
 62
               7
100
AcDbLine
 10
-15.100000000000023
 20
19.399999999999977
 30
0.0
 11
-15.100000000000023
 21
20.937564451092271
 31
0.0
  0
LINE
  5
34F
100
AcDbEntity
  8
0
  6
CONTINUOUS
 62
               7
100
AcDbLine
 10
-17.700000000000017
 20
19.399999999999977
 30
0.0
 11
-17.700000000000045
 21
22.438675150985347
 31
0.0
  0
LINE
  5
350
100
AcDbEntity
  8
0
  6
CONTINUOUS
 62
               7
100
AcDbLine
 10
-15.100000000000023
 20
21.861324850314645
 30
0.0
 11
-15.099999999999994
 21
24.899999999999977
 31
0.0
  0
LINE
  5
351
100
AcDbEntity
  8
0
  6
CONTINUOUS
 62
               7
100
AcDbLine
 10
-17.700000000000045
 20
23.362435550207721
 30
0.0
 11
-17.699999999999989
 21
24.899999999999977
 31
0.0
  0
LINE
  5
352
100
AcDbEntity
  8
0
  6
PHANTOM
 62
               2
100
AcDbLine
 10
-14.900000000534817
 20
26.495854777028711
 30
0.0
 11
-17.900000000534817
 21
28.227905583312662
 31
0.0
  0
LINE
  5
353
100
AcDbEntity
  8
0
  6
PHANTOM
 62
               2
100
AcDbLine
 10
-14.900000000534817
 20
25.57209439270747
 30
0.0
 11
-17.900000030337139
 21
27.30414521389261
 31
0.0
  0
LINE
  5
354
100
AcDbEntity
  8
0
  6
PHANTOM
 62
               2
100
AcDbLine
 10
-14.499999994574353
 20
21.514914688398989
 30
0.0
 11
-18.300000036297575
 21
23.708845731547001
 31
0.0
  0
LINE
  5
355
100
AcDbEntity
  8
0
  6
PHANTOM
 62
               2
100
AcDbLine
 10
-14.500000024376675
 20
20.591154289176586
 30
0.0
 11
-18.300000036297575
 21
22.785085317423466
 31
0.0
  0
LINE
  5
356
100
AcDbEntity
  8
0
  6
CONTINUOUS
 62
               7
100
AcDbLine
 10
-13.400000000000006
 20
12.399999999999977
 30
0.0
 11
-13.400000000000034
 21
12.000000000000028
 31
0.0
  0
LINE
  5
357
100
AcDbEntity
  8
0
  6
CONTINUOUS
 62
               7
100
AcDbLine
 10
-19.400000000000034
 20
12.400000000000006
 30
0.0
 11
-19.400000000000006
 21
12.0
 31
0.0
  0
LINE
  5
358
100
AcDbEntity
  8
0
  6
CONTINUOUS
 62
               7
100
AcDbLine
 10
-12.699999999999989
 20
-8.0
 30
0.0
 11
-18.80000000000004
 21
-7.9178191795874682
 31
0.0
  0
LINE
  5
359
100
AcDbEntity
  8
0
  6
CONTINUOUS
 62
               7
100
AcDbLine
 10
-12.699999999999989
 20
12.0
 30
0.0
 11
-19.504363267749198
 21
11.908329810536287
 31
0.0
  0
ARC
  5
35A
100
AcDbEntity
  8
0
  6
CONTINUOUS
 62
               7
100
AcDbCircle
 10
-19.500000000000028
 20
11.408348849004199
 30
0.0
 40
0.5
100
AcDbArc
 50
90.499999999999773
 51
179.99999999999963
  0
ARC
  5
35B
100
AcDbEntity
  8
0
  6
CONTINUOUS
 62
               7
100
AcDbCircle
 10
-19.500000000000028
 20
-7.4083488490042271
 30
0.0
 40
0.5
100
AcDbArc
 50
179.99999999999963
 51
269.49999999999943
  0
LINE
  5
35C
100
AcDbEntity
  8
0
  6
CONTINUOUS
 62
               7
100
AcDbLine
 10
-12.699999999999989
 20
12.0
 30
0.0
 11
-9.0
 21
11.967710589174175
 31
0.0
  0
LINE
  5
35D
100
AcDbEntity
  8
0
  6
CONTINUOUS
 62
               7
100
AcDbLine
 10
-12.699999999999989
 20
-8.0
 30
0.0
 11
-9.0000000000000284
 21
-7.9677105891742031
 31
0.0
  0
LINE
  5
35E
100
AcDbEntity
  8
0
  6
CONTINUOUS
 62
               7
100
AcDbLine
 10
-9.0
 20
-17.86057109949175
 30
0.0
 11
-9.0000000000000284
 21
17.86057109949175
 31
0.0
  0
CIRCLE
  5
35F
100
AcDbEntity
  8
0
  6
CONTINUOUS
 62
               2
100
AcDbCircle
 10
0.0
 20
0.0
 30
0.0
 40
2.5
  0
CIRCLE
  5
360
100
AcDbEntity
  8
0
  6
CONTINUOUS
 62
               7
100
AcDbCircle
 10
0.0
 20
0.0
 30
0.0
 40
2.1000000000000001
  0
LINE
  5
361
100
AcDbEntity
  8
0
  6
CENTER
 62
               2
100
AcDbLine
 10
0.0
 20
0.0
 30
0.0
 11
15.556349186104001
 21
-15.556349186104057
 31
0.0
  0
ARC
  5
362
100
AcDbEntity
  8
0
  6
CONTINUOUS
 62
               7
100
AcDbCircle
 10
0.0
 20
0.0
 30
0.0
 40
19.0
100
AcDbArc
 50
241.72628636863439
 51
118.27371363136476
  0
LINE
  5
363
100
AcDbEntity
  8
0
  6
CENTER
 62
               2
100
AcDbLine
 10
0.0
 20
-22.0
 30
0.0
 11
0.0
 21
22.0
 31
0.0
  0
LINE
  5
364
100
AcDbEntity
  8
0
  6
CENTER
 62
               2
100
AcDbLine
 10
-22.000000000000028
 20
0.0
 30
0.0
 11
22.0
 21
0.0
 31
0.0
  0
CIRCLE
  5
365
100
AcDbEntity
  8
0
  6
CENTER
 62
               2
100
AcDbCircle
 10
0.0
 20
0.0
 30
0.0
 40
16.0
  0
CIRCLE
  5
366
100
AcDbEntity
  8
0
  6
CONTINUOUS
 62
               2
100
AcDbCircle
 10
0.0
 20
-16.0
 30
0.0
 40
2.0
  0
CIRCLE
  5
367
100
AcDbEntity
  8
0
  6
CONTINUOUS
 62
               2
100
AcDbCircle
 10
16.0
 20
0.0
 30
0.0
 40
2.0
  0
CIRCLE
  5
368
100
AcDbEntity
  8
0
  6
CONTINUOUS
 62
               2
100
AcDbCircle
 10
0.0
 20
16.0
 30
0.0
 40
2.0
  0
CIRCLE
  5
369
100
AcDbEntity
  8
0
  6
CONTINUOUS
 62
               7
100
AcDbCircle
 10
0.0
 20
16.0
 30
0.0
 40
1.6499999999999999
  0
CIRCLE
  5
36A
100
AcDbEntity
  8
0
  6
CONTINUOUS
 62
               7
100
AcDbCircle
 10
0.0
 20
-16.0
 30
0.0
 40
1.6499999999999999
  0
CIRCLE
  5
36B
100
AcDbEntity
  8
0
  6
CONTINUOUS
 62
               7
100
AcDbCircle
 10
16.0
 20
0.0
 30
0.0
 40
1.6499999999999999
  0
ARC
  5
36C
100
AcDbEntity
  8
0
  6
CONTINUOUS
 62
               7
100
AcDbCircle
 10
0.0
 20
0.0
 30
0.0
 40
20.0
100
AcDbArc
 50
203.33990306811953
 51
135.97278279027674
  0
LINE
  5
36D
100
AcDbEntity
  8
0
  6
CENTER
 62
               2
100
AcDbLine
 10
0.0
 20
0.0
 30
0.0
 11
15.556349186104057
 21
15.556349186104029
 31
0.0
  0
LINE
  5
36E
100
AcDbEntity
  8
0
  6
DASHED
 62
               2
100
AcDbLine
 10
17.076628765655073
 20
10.359114344382988
 30
0.0
 11
14.672465709620838
 21
7.9549512883487239
 31
0.0
  0
LINE
  5
36F
100
AcDbEntity
  8
0
  6
DASHED
 62
               2
100
AcDbLine
 10
10.359114344382874
 20
17.076628765655187
 30
0.0
 11
7.9549512883486386
 21
14.672465709620923
 31
0.0
  0
LINE
  5
370
100
AcDbEntity
  8
0
  6
DASHED
 62
               2
100
AcDbLine
 10
17.07662876565513
 20
-10.359114344382931
 30
0.0
 11
14.672465709620838
 21
-7.954951288348667
 31
0.0
  0
LINE
  5
371
100
AcDbEntity
  8
0
  6
DASHED
 62
               2
100
AcDbLine
 10
10.359114344382874
 20
-17.07662876565513
 30
0.0
 11
7.9549512883486386
 21
-14.672465709620866
 31
0.0
  0
LINE
  5
372
100
AcDbEntity
  8
0
  6
CONTINUOUS
 62
               7
100
AcDbLine
 10
-19.400000000000034
 20
-7.5
 30
0.0
 11
-19.400000000000034
 21
-5.5
 31
0.0
  0
LINE
  5
373
100
AcDbEntity
  8
0
  6
CONTINUOUS
 62
               7
100
AcDbLine
 10
-18.80000000000004
 20
-5.0
 30
0.0
 11
-18.900000000000034
 21
-5.0
 31
0.0
  0
LINE
  5
374
100
AcDbEntity
  8
0
  6
CONTINUOUS
 62
               7
100
AcDbLine
 10
-18.80000000000004
 20
-8.0
 30
0.0
 11
-18.900000000000034
 21
-8.0
 31
0.0
  0
ARC
  5
375
100
AcDbEntity
  8
0
  6
CONTINUOUS
 62
               7
100
AcDbCircle
 10
-18.900000000000034
 20
-7.5
 30
0.0
 40
0.5
100
AcDbArc
 50
179.99999999999963
 51
269.99999999999937
  0
ARC
  5
376
100
AcDbEntity
  8
0
  6
CONTINUOUS
 62
               7
100
AcDbCircle
 10
-18.900000000000034
 20
-5.5
 30
0.0
 40
0.5
100
AcDbArc
 50
89.999999999999815
 51
179.99999999999963
  0
LINE
  5
377
100
AcDbEntity
  8
0
  6
CONTINUOUS
 62
               7
100
AcDbLine
 10
-19.182320284100427
 20
-7.9126684591599883
 30
0.0
 11
-19.504363267749198
 21
-7.9083298105363156
 31
0.0
  0
ENDBLK
  5
378
100
AcDbEntity
  8
0
100
AcDbBlockEnd
  0
BLOCK
  5
379
100
AcDbEntity
  8
0
100
AcDbBlockBegin
  2
NCT40-7
 70
               0
 10
0.0
 20
0.0
 30
0.0
  3
NCT40-7
  1

  0
LINE
  5
37A
100
AcDbEntity
  8
0
  6
CONTINUOUS
 62
               7
100
AcDbLine
 10
-20.000000458838372
 20
7.408344644589917
 30
0.0
 11
-20.000000458838372
 21
-11.408353053418509
 31
0.0
  0
LINE
  5
37B
100
AcDbEntity
  8
0
  6
CENTER
 62
               2
100
AcDbLine
 10
-18.195857445689455
 20
6.4999957955856758
 30
0.0
 11
-20.435449749898709
 21
6.4999957955856758
 31
0.0
  0
ARC
  5
37C
100
AcDbEntity
  8
0
  6
CONTINUOUS
 62
               7
100
AcDbCircle
 10
-19.500000458838372
 20
7.4083446445899028
 30
0.0
 40
0.5
100
AcDbArc
 50
90.499999999999744
 51
179.99999999999963
  0
LINE
  5
37D
100
AcDbEntity
  8
0
  6
CONTINUOUS
 62
               7
100
AcDbLine
 10
-18.36341359571702
 20
7.9236967893686767
 30
0.0
 11
-18.800000458838383
 21
7.9178149751731581
 31
0.0
  0
LINE
  5
37E
100
AcDbEntity
  8
0
  6
CONTINUOUS
 62
               7
100
AcDbLine
 10
-19.400000458838377
 20
-12.400004015610847
 30
0.0
 11
-19.400000458838349
 21
-12.000004015610841
 31
0.0
  0
LINE
  5
37F
100
AcDbEntity
  8
0
  6
PHANTOM
 62
               2
100
AcDbLine
 10
-14.500000483215018
 20
-20.591158304787442
 30
0.0
 11
-18.300000495135919
 21
-22.785089333034307
 31
0.0
  0
LINE
  5
380
100
AcDbEntity
  8
0
  6
PHANTOM
 62
               2
100
AcDbLine
 10
-14.500000453412724
 20
-21.51491870400983
 30
0.0
 11
-18.300000495135919
 21
-23.708849747157828
 31
0.0
  0
LINE
  5
381
100
AcDbEntity
  8
0
  6
PHANTOM
 62
               2
100
AcDbLine
 10
-14.90000045937316
 20
-25.572098408318297
 30
0.0
 11
-17.900000489175511
 21
-27.304149229503466
 31
0.0
  0
LINE
  5
382
100
AcDbEntity
  8
0
  6
PHANTOM
 62
               2
100
AcDbLine
 10
-14.900000459373189
 20
-26.495858792639567
 30
0.0
 11
-17.900000459373189
 21
-28.227909598923517
 31
0.0
  0
LINE
  5
383
100
AcDbEntity
  8
0
  6
CONTINUOUS
 62
               7
100
AcDbLine
 10
-17.700000458838389
 20
-23.362439565818562
 30
0.0
 11
-17.70000045883836
 21
-24.900004015610833
 31
0.0
  0
LINE
  5
384
100
AcDbEntity
  8
0
  6
CONTINUOUS
 62
               7
100
AcDbLine
 10
-15.100000458838338
 20
-21.861328865925486
 30
0.0
 11
-15.100000458838338
 21
-24.900004015610833
 31
0.0
  0
LINE
  5
385
100
AcDbEntity
  8
0
  6
CONTINUOUS
 62
               7
100
AcDbLine
 10
-17.70000045883836
 20
-19.400004015610833
 30
0.0
 11
-17.700000458838389
 21
-22.438679166596188
 31
0.0
  0
LINE
  5
386
100
AcDbEntity
  8
0
  6
CONTINUOUS
 62
               7
100
AcDbLine
 10
-15.100000458838366
 20
-19.400004015610833
 30
0.0
 11
-15.100000458838338
 21
-20.937568466703127
 31
0.0
  0
LINE
  5
387
100
AcDbEntity
  8
0
  6
CONTINUOUS
 62
               7
100
AcDbLine
 10
-17.100000458838366
 20
-28.900004015610861
 30
0.0
 11
-17.100000458838394
 21
-30.900004015610861
 31
0.0
  0
LINE
  5
388
100
AcDbEntity
  8
0
  6
CONTINUOUS
 62
               7
100
AcDbLine
 10
-16.600000458838366
 20
-28.900004015610861
 30
0.0
 11
-16.600000458838366
 21
-30.900004015610861
 31
0.0
  0
LINE
  5
389
100
AcDbEntity
  8
0
  6
CONTINUOUS
 62
               7
100
AcDbLine
 10
-16.20000045883836
 20
-28.900004015610833
 30
0.0
 11
-16.200000458838389
 21
-30.900004015610833
 31
0.0
  0
LINE
  5
38A
100
AcDbEntity
  8
0
  6
CONTINUOUS
 62
               7
100
AcDbLine
 10
-15.70000045883836
 20
-28.900004015610833
 30
0.0
 11
-15.70000045883836
 21
-30.900004015610833
 31
0.0
  0
LINE
  5
38B
100
AcDbEntity
  8
0
  6
CONTINUOUS
 62
               7
100
AcDbLine
 10
-15.500000458838372
 20
-26.842268953587578
 30
0.0
 11
-15.500000458838372
 21
-28.900004015610861
 31
0.0
  0
LINE
  5
38C
100
AcDbEntity
  8
0
  6
CONTINUOUS
 62
               7
100
AcDbLine
 10
-15.500000458838372
 20
-24.900004015610833
 30
0.0
 11
-15.500000458838343
 21
-25.860004015610841
 31
0.0
  0
LINE
  5
38D
100
AcDbEntity
  8
0
  6
CONTINUOUS
 62
               7
100
AcDbLine
 10
-17.300000458838355
 20
-27.881499437357959
 30
0.0
 11
-17.300000458838355
 21
-28.900004015610833
 31
0.0
  0
LINE
  5
38E
100
AcDbEntity
  8
0
  6
CONTINUOUS
 62
               7
100
AcDbLine
 10
-17.300000458838383
 20
-24.900004015610861
 30
0.0
 11
-17.300000458838355
 21
-26.900004015610804
 31
0.0
  0
LINE
  5
38F
100
AcDbEntity
  8
0
  6
CONTINUOUS
 62
               7
100
AcDbLine
 10
-15.500000458838372
 20
-28.900004015610861
 30
0.0
 11
-17.300000458838355
 21
-28.900004015610833
 31
0.0
  0
LINE
  5
390
100
AcDbEntity
  8
0
  6
CONTINUOUS
 62
               7
100
AcDbLine
 10
-16.600000458838366
 20
-30.900004015610861
 30
0.0
 11
-17.100000458838394
 21
-30.900004015610861
 31
0.0
  0
LINE
  5
391
100
AcDbEntity
  8
0
  6
CONTINUOUS
 62
               7
100
AcDbLine
 10
-15.70000045883836
 20
-30.900004015610833
 30
0.0
 11
-16.200000458838389
 21
-30.900004015610833
 31
0.0
  0
LINE
  5
392
100
AcDbEntity
  8
0
  6
CENTER
 62
               2
100
AcDbLine
 10
-16.850000458838366
 20
-24.001547757052762
 30
0.0
 11
-16.850000458838366
 21
-31.522496234583841
 31
0.0
  0
LINE
  5
393
100
AcDbEntity
  8
0
  6
CENTER
 62
               2
100
AcDbLine
 10
-15.950000458838389
 20
-24.001547757052819
 30
0.0
 11
-15.95000045883836
 21
-31.522496234583812
 31
0.0
  0
LINE
  5
394
100
AcDbEntity
  8
0
  6
CONTINUOUS
 62
               7
100
AcDbLine
 10
-15.100000458838338
 20
-24.900004015610833
 30
0.0
 11
-17.70000045883836
 21
-24.900004015610833
 31
0.0
  0
LINE
  5
395
100
AcDbEntity
  8
0
  6
CONTINUOUS
 62
               7
100
AcDbLine
 10
-18.150000458838349
 20
-14.900004015610833
 30
0.0
 11
-18.150000458838349
 21
-13.900004015610833
 31
0.0
  0
LINE
  5
396
100
AcDbEntity
  8
0
  6
CONTINUOUS
 62
               7
100
AcDbLine
 10
-14.650000458838349
 20
-17.400004015610833
 30
0.0
 11
-14.650000458838349
 21
-16.400004015610833
 31
0.0
  0
LINE
  5
397
100
AcDbEntity
  8
0
  6
CONTINUOUS
 62
               7
100
AcDbLine
 10
-18.150000458838349
 20
-17.400004015610847
 30
0.0
 11
-18.150000458838349
 21
-16.400004015610833
 31
0.0
  0
LINE
  5
398
100
AcDbEntity
  8
0
  6
CONTINUOUS
 62
               7
100
AcDbLine
 10
-19.185714744552627
 20
-13.900004015610833
 30
0.0
 11
-19.400000458838377
 21
-12.400004015610847
 31
0.0
  0
LINE
  5
399
100
AcDbEntity
  8
0
  6
CONTINUOUS
 62
               7
100
AcDbLine
 10
-18.828571887409794
 20
-16.400004015610833
 30
0.0
 11
-19.042857601695516
 21
-14.900004015610833
 31
0.0
  0
LINE
  5
39A
100
AcDbEntity
  8
0
  6
CONTINUOUS
 62
               7
100
AcDbLine
 10
-14.380194684010121
 20
-13.900004015610861
 30
0.0
 11
-19.185714744552627
 21
-13.900004015610833
 31
0.0
  0
LINE
  5
39B
100
AcDbEntity
  8
0
  6
CONTINUOUS
 62
               7
100
AcDbLine
 10
-13.757143315981182
 20
-14.900004015610861
 30
0.0
 11
-19.042857601695516
 21
-14.900004015610833
 31
0.0
  0
LINE
  5
39C
100
AcDbEntity
  8
0
  6
CONTINUOUS
 62
               7
100
AcDbLine
 10
-13.971429030266933
 20
-16.400004015610833
 30
0.0
 11
-18.828571887409794
 21
-16.400004015610833
 31
0.0
  0
LINE
  5
39D
100
AcDbEntity
  8
0
  6
CONTINUOUS
 62
               7
100
AcDbLine
 10
-14.114286173124071
 20
-17.400004015610833
 30
0.0
 11
-18.685714744552655
 21
-17.400004015610833
 31
0.0
  0
LINE
  5
39E
100
AcDbEntity
  8
0
  6
CONTINUOUS
 62
               7
100
AcDbLine
 10
-14.400000458838349
 20
-19.400004015610804
 30
0.0
 11
-14.114286173124071
 21
-17.400004015610833
 31
0.0
  0
LINE
  5
39F
100
AcDbEntity
  8
0
  6
CONTINUOUS
 62
               7
100
AcDbLine
 10
-18.400000458838349
 20
-19.400004015610833
 30
0.0
 11
-18.685714744552655
 21
-17.400004015610833
 31
0.0
  0
LINE
  5
3A0
100
AcDbEntity
  8
0
  6
CONTINUOUS
 62
               7
100
AcDbLine
 10
-14.400000458838349
 20
-19.400004015610804
 30
0.0
 11
-18.400000458838349
 21
-19.400004015610833
 31
0.0
  0
LINE
  5
3A1
100
AcDbEntity
  8
0
  6
CONTINUOUS
 62
               7
100
AcDbLine
 10
-15.692036148022424
 20
-12.400004015610847
 30
0.0
 11
-19.400000458838377
 21
-12.400004015610847
 31
0.0
  0
LINE
  5
3A2
100
AcDbEntity
  8
0
  6
CONTINUOUS
 62
               7
100
AcDbLine
 10
-18.800000458838383
 20
7.9999957955856758
 30
0.0
 11
-18.800000458838383
 21
6.823483084360987
 31
0.0
  0
LINE
  5
3A3
100
AcDbEntity
  8
0
  6
CONTINUOUS
 62
               7
100
AcDbLine
 10
-19.39046145828425
 20
4.8999957955856672
 30
0.0
 11
-20.000000458838343
 21
4.8999957955856672
 31
0.0
  0
LINE
  5
3A4
100
AcDbEntity
  8
0
  6
CENTER
 62
               2
100
AcDbLine
 10
-16.400000458838349
 20
-10.80523110416182
 30
0.0
 11
-16.400000458838377
 21
-31.522496234583812
 31
0.0
  0
ARC
  5
3A5
100
AcDbEntity
  8
0
  6
CONTINUOUS
 62
               7
100
AcDbCircle
 10
-19.500000458838343
 20
-11.408353053418509
 30
0.0
 40
0.5
100
AcDbArc
 50
179.99999999999963
 51
269.49999999999943
  0
LINE
  5
3A6
100
AcDbEntity
  8
0
  6
CONTINUOUS
 62
               7
100
AcDbLine
 10
-16.033584725905712
 20
-11.955093271630389
 30
0.0
 11
-19.504363726587542
 21
-11.908334014950611
 31
0.0
  0
LINE
  5
3A7
100
AcDbEntity
  8
0
  6
CENTER
 62
               2
100
AcDbLine
 10
-21.448512384891529
 20
-0.0000041100125827
 30
0.0
 11
23.300140334993159
 21
-0.0000041100125827
 31
0.0
  0
CIRCLE
  5
3A8
100
AcDbEntity
  8
0
  6
CONTINUOUS
 62
               7
100
AcDbCircle
 10
0.0000001346027716
 20
-0.0000041242892621
 30
0.0
 40
20.0
  0
LINE
  5
3A9
100
AcDbEntity
  8
0
  6
CENTER
 62
               2
100
AcDbLine
 10
0.0000009209031191
 20
-0.0000015790799637
 30
0.0
 11
-11.694826051975639
 21
-20.256036081832931
 31
0.0
  0
ARC
  5
3AA
100
AcDbEntity
  8
0
  6
CONTINUOUS
 62
               7
100
AcDbCircle
 10
0.0000008280757697
 20
-0.0000014342692793
 30
0.0
 40
14.66
100
AcDbArc
 50
248.06132796877475
 51
351.93867133662104
  0
ARC
  5
3AB
100
AcDbEntity
  8
0
  6
CONTINUOUS
 62
               7
100
AcDbCircle
 10
0.0000008280757697
 20
-0.0000014342692793
 30
0.0
 40
14.66
100
AcDbArc
 50
128.06132802442997
 51
231.93867307967659
  0
CIRCLE
  5
3AC
100
AcDbEntity
  8
0
  6
CONTINUOUS
 62
               7
100
AcDbCircle
 10
0.0000002814044819
 20
-0.0000042491747791
 30
0.0
 40
6.0
  0
ARC
  5
3AD
100
AcDbEntity
  8
0
  6
CONTINUOUS
 62
               7
100
AcDbCircle
 10
0.0000008280757697
 20
-0.0000014342692793
 30
0.0
 40
14.66
100
AcDbArc
 50
8.0613257021781948
 51
111.93867194294634
  0
LINE
  5
3AE
100
AcDbEntity
  8
0
  6
CENTER
 62
               2
100
AcDbLine
 10
-11.527660515978027
 20
19.966493719206838
 30
0.0
 11
0.0000009805077639
 21
-0.0000016982892674
 31
0.0
  0
CIRCLE
  5
3AF
100
AcDbEntity
  8
0
  6
CENTER
 62
               2
100
AcDbCircle
 10
0.0000001346027716
 20
-0.0000041242892621
 30
0.0
 40
16.699999999999999
  0
CIRCLE
  5
3B0
100
AcDbEntity
  8
0
  6
CONTINUOUS
 62
               7
100
AcDbCircle
 10
0.0000002313366281
 20
-0.0000040795565326
 30
0.0
 40
5.0
  0
LINE
  5
3B1
100
AcDbEntity
  8
0
  6
CENTER
 62
               2
100
AcDbLine
 10
0.0
 20
21.999995875710738
 30
0.0
 11
0.0
 21
-22.000004124289248
 31
0.0
  0
CIRCLE
  5
3B2
100
AcDbEntity
  8
0
  6
CONTINUOUS
 62
               4
100
AcDbCircle
 10
16.700000930439842
 20
-0.0000018658197547
 30
0.0
 40
3.0
  0
CIRCLE
  5
3B3
100
AcDbEntity
  8
0
  6
CONTINUOUS
 62
               4
100
AcDbCircle
 10
-8.3499991013387103
 20
14.462622696181754
 30
0.0
 40
3.0
  0
CIRCLE
  5
3B4
100
AcDbEntity
  8
0
  6
CONTINUOUS
 62
               4
100
AcDbCircle
 10
-8.349999054884961
 20
-14.462625780343856
 30
0.0
 40
3.0
  0
LINE
  5
3B5
100
AcDbEntity
  8
0
  6
CONTINUOUS
 62
               7
100
AcDbLine
 10
-19.400000458838377
 20
5.4999957955856758
 30
0.0
 11
-19.400000458838377
 21
7.4999957955856758
 31
0.0
  0
LINE
  5
3B6
100
AcDbEntity
  8
0
  6
CONTINUOUS
 62
               7
100
AcDbLine
 10
-18.800000458838383
 20
7.9999957955856758
 30
0.0
 11
-18.900000458838377
 21
7.9999957955856758
 31
0.0
  0
ARC
  5
3B7
100
AcDbEntity
  8
0
  6
CONTINUOUS
 62
               7
100
AcDbCircle
 10
-18.900000458838377
 20
5.4999957955856758
 30
0.0
 40
0.5
100
AcDbArc
 50
179.99999999999966
 51
215.1392225888184
  0
ARC
  5
3B8
100
AcDbEntity
  8
0
  6
CONTINUOUS
 62
               7
100
AcDbCircle
 10
-18.900000458838377
 20
7.4999957955856758
 30
0.0
 40
0.5
100
AcDbArc
 50
89.999999999999815
 51
179.99999999999963
  0
LINE
  5
3B9
100
AcDbEntity
  8
0
  6
CONTINUOUS
 62
               7
100
AcDbLine
 10
-19.182320742938771
 20
7.912664254745664
 30
0.0
 11
-19.504363726587542
 21
7.9083256061220055
 31
0.0
  0
LINE
  5
3BA
100
AcDbEntity
  8
0
  6
CONTINUOUS
 62
               7
100
AcDbLine
 10
-13.971429030266933
 20
-16.400004015610833
 30
0.0
 11
-13.757143315981182
 21
-14.900004015610833
 31
0.0
  0
LINE
  5
3BB
100
AcDbEntity
  8
0
  6
CONTINUOUS
 62
               7
100
AcDbLine
 10
-14.650000458838349
 20
-14.900004015610833
 30
0.0
 11
-14.650000458838349
 21
-13.900004015610833
 31
0.0
  0
ENDBLK
  5
3BC
100
AcDbEntity
  8
0
100
AcDbBlockEnd
  0
BLOCK
  5
3BD
100
AcDbEntity
  8
0
100
AcDbBlockBegin
  2
NCT40-8
 70
               0
 10
0.0
 20
0.0
 30
0.0
  3
NCT40-8
  1

  0
LINE
  5
3BE
100
AcDbEntity
  8
0
  6
CONTINUOUS
 62
               7
100
AcDbLine
 10
-19.182320284100513
 20
-0.5873315408400686
 30
0.0
 11
-19.504363267749227
 21
-0.5916701894637413
 31
0.0
  0
ARC
  5
3BF
100
AcDbEntity
  8
0
  6
CONTINUOUS
 62
               7
100
AcDbCircle
 10
-18.900000000000034
 20
-1.0
 30
0.0
 40
0.5
100
AcDbArc
 50
89.999999999999815
 51
179.99999999999963
  0
ARC
  5
3C0
100
AcDbEntity
  8
0
  6
CONTINUOUS
 62
               7
100
AcDbCircle
 10
-18.900000000000034
 20
-3.0
 30
0.0
 40
0.5
100
AcDbArc
 50
179.99999999999963
 51
269.99999999999937
  0
LINE
  5
3C1
100
AcDbEntity
  8
0
  6
CONTINUOUS
 62
               7
100
AcDbLine
 10
-18.800000000000011
 20
-3.5
 30
0.0
 11
-18.900000000000034
 21
-3.5
 31
0.0
  0
LINE
  5
3C2
100
AcDbEntity
  8
0
  6
CONTINUOUS
 62
               7
100
AcDbLine
 10
-18.800000000000011
 20
-0.5
 30
0.0
 11
-18.900000000000034
 21
-0.5
 31
0.0
  0
LINE
  5
3C3
100
AcDbEntity
  8
0
  6
CONTINUOUS
 62
               7
100
AcDbLine
 10
-19.400000000000034
 20
-3.0
 30
0.0
 11
-19.400000000000034
 21
-1.0
 31
0.0
  0
CIRCLE
  5
3C4
100
AcDbEntity
  8
0
  6
DASHED
 62
               2
100
AcDbCircle
 10
-16.400000000000006
 20
-4.1000000000000227
 30
0.0
 40
3.0
  0
LINE
  5
3C5
100
AcDbEntity
  8
0
  6
CENTER
 62
               2
100
AcDbLine
 10
10.091107553874735
 20
-6.5
 30
0.0
 11
21.122095889484171
 21
-6.5
 31
0.0
  0
LINE
  5
3C6
100
AcDbEntity
  8
0
  6
CONTINUOUS
 62
               4
100
AcDbLine
 10
-11.350000031778592
 20
-17.0
 30
0.0
 11
-11.350000031778592
 21
-18.0
 31
0.0
  0
LINE
  5
3C7
100
AcDbEntity
  8
0
  6
CONTINUOUS
 62
               4
100
AcDbLine
 10
-5.3500000317785634
 20
-17.0
 30
0.0
 11
-5.3500000317785634
 21
-18.0
 31
0.0
  0
LINE
  5
3C8
100
AcDbEntity
  8
0
  6
CONTINUOUS
 62
               4
100
AcDbLine
 10
13.699999999999989
 20
-17.000000009112881
 30
0.0
 11
13.699999999999989
 21
-18.0
 31
0.0
  0
LINE
  5
3C9
100
AcDbEntity
  8
0
  6
CONTINUOUS
 62
               4
100
AcDbLine
 10
19.699999999999989
 20
-17.0
 30
0.0
 11
19.699999999999989
 21
-18.0
 31
0.0
  0
LINE
  5
3CA
100
AcDbEntity
  8
0
  6
CONTINUOUS
 62
               7
100
AcDbLine
 10
20.0
 20
-16.799999999999983
 30
0.0
 11
-20.0
 21
-16.800000000000011
 31
0.0
  0
LINE
  5
3CB
100
AcDbEntity
  8
0
  6
CONTINUOUS
 62
               7
100
AcDbLine
 10
-20.000000000000028
 20
-16.800000000000011
 30
0.0
 11
-19.800000000000011
 21
-17.0
 31
0.0
  0
LINE
  5
3CC
100
AcDbEntity
  8
0
  6
CONTINUOUS
 62
               7
100
AcDbLine
 10
20.0
 20
-16.799999999999983
 30
0.0
 11
19.799999999999955
 21
-17.0
 31
0.0
  0
LINE
  5
3CD
100
AcDbEntity
  8
0
  6
CENTER
 62
               2
100
AcDbLine
 10
0.0
 20
2.1920420835667187
 30
0.0
 11
0.0
 21
-18.807957916433281
 31
0.0
  0
LINE
  5
3CE
100
AcDbEntity
  8
0
  6
CENTER
 62
             200
100
AcDbLine
 10
16.699999999999989
 20
-14.0800174257636
 30
0.0
 11
16.699999999999989
 21
-19.807957916433281
 31
0.0
  0
LINE
  5
3CF
100
AcDbEntity
  8
0
  6
CENTER
 62
             200
100
AcDbLine
 10
-8.3500000317785918
 20
-14.0800174257636
 30
0.0
 11
-8.3500000317785918
 21
-19.807957916433281
 31
0.0
  0
LINE
  5
3D0
100
AcDbEntity
  8
0
  6
CONTINUOUS
 62
               7
100
AcDbLine
 10
-12.700000000000017
 20
-10.500000001673413
 30
0.0
 11
-12.700000000000017
 21
-0.5
 31
0.0
  0
LINE
  5
3D1
100
AcDbEntity
  8
0
  6
CONTINUOUS
 62
               7
100
AcDbLine
 10
-20.000000000000028
 20
-9.9083488506775552
 30
0.0
 11
-20.000000000000028
 21
-1.0916511509958582
 31
0.0
  0
LINE
  5
3D2
100
AcDbEntity
  8
0
  6
CONTINUOUS
 62
               7
100
AcDbLine
 10
-18.800000000000011
 20
-3.6000000000000227
 30
0.0
 11
-20.000000000000028
 21
-3.6000000000000227
 31
0.0
  0
LINE
  5
3D3
100
AcDbEntity
  8
0
  6
CONTINUOUS
 62
               7
100
AcDbLine
 10
-18.800000000000011
 20
-3.6000000000000227
 30
0.0
 11
-18.800000000000011
 21
-0.5
 31
0.0
  0
LINE
  5
3D4
100
AcDbEntity
  8
0
  6
CENTER
 62
               2
100
AcDbLine
 10
-18.195856986851112
 20
-2.0
 30
0.0
 11
-20.400000000000034
 21
-2.0
 31
0.0
  0
LINE
  5
3D5
100
AcDbEntity
  8
0
  6
CENTER
 62
               2
100
AcDbLine
 10
-20.430359701872334
 20
-4.1000000000000227
 30
0.0
 11
-12.546982881739353
 21
-4.1000000000000227
 31
0.0
  0
LINE
  5
3D6
100
AcDbEntity
  8
0
  6
CENTER
 62
               2
100
AcDbLine
 10
-7.8555882192472382
 20
-5.5
 30
0.0
 11
-22.000000000000028
 21
-5.5
 31
0.0
  0
LINE
  5
3D7
100
AcDbEntity
  8
0
  6
CENTER
 62
               2
100
AcDbLine
 10
-16.400000000000006
 20
-0.2797323457621701
 30
0.0
 11
-16.400000000000006
 21
-8.1311926605504823
 31
0.0
  0
LINE
  5
3D8
100
AcDbEntity
  8
0
  6
CONTINUOUS
 62
               7
100
AcDbLine
 10
-12.700000000000017
 20
-0.5
 30
0.0
 11
-18.800000000000011
 21
-0.5821808204125887
 31
0.0
  0
LINE
  5
3D9
100
AcDbEntity
  8
0
  6
CONTINUOUS
 62
               7
100
AcDbLine
 10
-12.700000000000017
 20
-10.500000001673413
 30
0.0
 11
-19.504363267749227
 21
-10.408329812209672
 31
0.0
  0
ARC
  5
3DA
100
AcDbEntity
  8
0
  6
CONTINUOUS
 62
               7
100
AcDbCircle
 10
-19.500000000000028
 20
-1.0916511509958582
 30
0.0
 40
0.5
100
AcDbArc
 50
90.500000000000171
 51
179.99999999999963
  0
ARC
  5
3DB
100
AcDbEntity
  8
0
  6
CONTINUOUS
 62
               7
100
AcDbCircle
 10
-19.500000000000028
 20
-9.9083488506775552
 30
0.0
 40
0.5
100
AcDbArc
 50
179.99999999999963
 51
269.49999999999909
  0
LINE
  5
3DC
100
AcDbEntity
  8
0
  6
CONTINUOUS
 62
               7
100
AcDbLine
 10
-12.700000000000017
 20
-0.5
 30
0.0
 11
-9.0000000000000284
 21
-0.532289410825797
 31
0.0
  0
LINE
  5
3DD
100
AcDbEntity
  8
0
  6
CONTINUOUS
 62
               7
100
AcDbLine
 10
-12.700000000000017
 20
-10.500000001673413
 30
0.0
 11
-9.0
 21
-10.467710590847616
 31
0.0
  0
LINE
  5
3DE
100
AcDbEntity
  8
0
  6
CONTINUOUS
 62
               7
100
AcDbLine
 10
-20.000000000000028
 20
-10.807957916329826
 30
0.0
 11
-9.0000000000000284
 21
-10.807957916329826
 31
0.0
  0
LINE
  5
3DF
100
AcDbEntity
  8
0
  6
CONTINUOUS
 62
               7
100
AcDbLine
 10
-9.0000000000000284
 20
0.0
 30
0.0
 11
-9.0000000000000284
 21
-10.807957925442707
 31
0.0
  0
LINE
  5
3E0
100
AcDbEntity
  8
0
  6
CONTINUOUS
 62
               7
100
AcDbLine
 10
-20.000000000000028
 20
-10.807957916329826
 30
0.0
 11
-20.000000000000028
 21
-16.800000000000011
 31
0.0
  0
LINE
  5
3E1
100
AcDbEntity
  8
0
  6
CONTINUOUS
 62
               7
100
AcDbLine
 10
16.106601717798185
 20
-3.0
 30
0.0
 11
16.106601717798185
 21
-10.0
 31
0.0
  0
LINE
  5
3E2
100
AcDbEntity
  8
0
  6
CONTINUOUS
 62
               7
100
AcDbLine
 10
15.106601717798185
 20
-3.0
 30
0.0
 11
15.106601717798185
 21
-10.0
 31
0.0
  0
LINE
  5
3E3
100
AcDbEntity
  8
0
  6
CONTINUOUS
 62
               7
100
AcDbLine
 10
17.627327659961907
 20
-3.0
 30
0.0
 11
13.58587577563452
 21
-3.0
 31
0.0
  0
LINE
  5
3E4
100
AcDbEntity
  8
0
  6
CONTINUOUS
 62
               7
100
AcDbLine
 10
13.58587577563452
 20
-3.0
 30
0.0
 11
11.565149833470798
 21
-6.5
 31
0.0
  0
LINE
  5
3E5
100
AcDbEntity
  8
0
  6
CONTINUOUS
 62
               7
100
AcDbLine
 10
11.565149833470798
 20
-6.5
 30
0.0
 11
13.58587577563452
 21
-10.0
 31
0.0
  0
LINE
  5
3E6
100
AcDbEntity
  8
0
  6
CONTINUOUS
 62
               7
100
AcDbLine
 10
13.58587577563452
 20
-10.0
 30
0.0
 11
17.627327659961907
 21
-10.0
 31
0.0
  0
ARC
  5
3E7
100
AcDbEntity
  8
0
  6
CONTINUOUS
 62
               7
100
AcDbCircle
 10
15.606601717798185
 20
-6.5
 30
0.0
 40
4.0
100
AcDbArc
 50
61.044975628139994
 51
118.95502437185961
  0
ARC
  5
3E8
100
AcDbEntity
  8
0
  6
CONTINUOUS
 62
               7
100
AcDbCircle
 10
15.606601717798185
 20
-6.5
 30
0.0
 40
4.0
100
AcDbArc
 50
121.04497562813988
 51
178.95502437185934
  0
ARC
  5
3E9
100
AcDbEntity
  8
0
  6
CONTINUOUS
 62
               7
100
AcDbCircle
 10
15.606601717798185
 20
-6.5
 30
0.0
 40
4.0
100
AcDbArc
 50
181.04497562813958
 51
238.95502437185922
  0
ARC
  5
3EA
100
AcDbEntity
  8
0
  6
CONTINUOUS
 62
               7
100
AcDbCircle
 10
15.606601717798185
 20
-6.5
 30
0.0
 40
4.0
100
AcDbArc
 50
241.04497562813958
 51
298.95502437185922
  0
ARC
  5
3EB
100
AcDbEntity
  8
0
  6
CONTINUOUS
 62
               7
100
AcDbCircle
 10
15.606601717798185
 20
-6.5
 30
0.0
 40
3.5
100
AcDbArc
 50
98.213210701737992
 51
261.78678929826128
  0
ARC
  5
3EC
100
AcDbEntity
  8
0
  6
CONTINUOUS
 62
               7
100
AcDbCircle
 10
15.606601717798185
 20
-6.5
 30
0.0
 40
3.5
100
AcDbArc
 50
278.21321070173758
 51
81.786789298261581
  0
ARC
  5
3ED
100
AcDbEntity
  8
0
  6
CONTINUOUS
 62
               7
100
AcDbCircle
 10
15.606601717798185
 20
-6.5
 30
0.0
 40
4.0
100
AcDbArc
 50
301.04497562813941
 51
358.95502437185911
  0
ARC
  5
3EE
100
AcDbEntity
  8
0
  6
CONTINUOUS
 62
               7
100
AcDbCircle
 10
15.606601717798185
 20
-6.5
 30
0.0
 40
4.0
100
AcDbArc
 50
1.0449756281401477
 51
58.955024371859722
  0
ARC
  5
3EF
100
AcDbEntity
  8
0
  6
CONTINUOUS
 62
               7
100
AcDbCircle
 10
15.606601717798185
 20
-6.5
 30
0.0
 40
4.75
100
AcDbArc
 50
22.342807841340186
 51
337.65719215865909
  0
LINE
  5
3F0
100
AcDbEntity
  8
0
  6
CONTINUOUS
 62
               7
100
AcDbLine
 10
17.627327659961907
 20
-10.0
 30
0.0
 11
19.648053602125572
 21
-6.5
 31
0.0
  0
LINE
  5
3F1
100
AcDbEntity
  8
0
  6
CONTINUOUS
 62
               7
100
AcDbLine
 10
19.648053602125572
 20
-6.5
 30
0.0
 11
17.627327659961907
 21
-3.0
 31
0.0
  0
LINE
  5
3F2
100
AcDbEntity
  8
0
  6
CENTER
 62
               2
100
AcDbLine
 10
15.606601717798185
 20
-0.9845058082447906
 30
0.0
 11
15.606601717798185
 21
-12.015494191755238
 31
0.0
  0
LINE
  5
3F3
100
AcDbEntity
  8
0
  6
CONTINUOUS
 62
               4
100
AcDbLine
 10
-5.3500000317785634
 20
-18.0
 30
0.0
 11
-11.350000031778592
 21
-18.0
 31
0.0
  0
LINE
  5
3F4
100
AcDbEntity
  8
0
  6
CONTINUOUS
 62
               4
100
AcDbLine
 10
19.699999999999989
 20
-18.0
 30
0.0
 11
13.699999999999989
 21
-18.0
 31
0.0
  0
LINE
  5
3F5
100
AcDbEntity
  8
0
  6
CONTINUOUS
 62
               7
100
AcDbLine
 10
20.0
 20
-1.0
 30
0.0
 11
-9.0000000000000284
 21
-1.0
 31
0.0
  0
LINE
  5
3F6
100
AcDbEntity
  8
0
  6
CONTINUOUS
 62
               7
100
AcDbLine
 10
19.0
 20
0.0
 30
0.0
 11
20.0
 21
-1.0
 31
0.0
  0
LINE
  5
3F7
100
AcDbEntity
  8
0
  6
CONTINUOUS
 62
               7
100
AcDbLine
 10
19.799999999999955
 20
-17.0
 30
0.0
 11
-19.800000000000011
 21
-17.0
 31
0.0
  0
LINE
  5
3F8
100
AcDbEntity
  8
0
  6
CONTINUOUS
 62
               7
100
AcDbLine
 10
20.0
 20
-1.0
 30
0.0
 11
20.0
 21
-16.799999999999983
 31
0.0
  0
LINE
  5
3F9
100
AcDbEntity
  8
0
  6
CONTINUOUS
 62
               7
100
AcDbLine
 10
19.0
 20
0.0
 30
0.0
 11
-9.0000000000000284
 21
0.0
 31
0.0
  0
ENDBLK
  5
3FA
100
AcDbEntity
  8
0
100
AcDbBlockEnd
  0
BLOCK
  5
3FB
100
AcDbEntity
  8
0
100
AcDbBlockBegin
  2
NCT40-9
 70
               0
 10
0.0
 20
0.0
 30
0.0
  3
NCT40-9
  1

  0
LINE
  5
3FC
100
AcDbEntity
  8
0
  6
CENTER
 62
               2
100
AcDbLine
 10
-16.400000000000034
 20
31.522492218972957
 30
0.0
 11
-16.400000000000006
 21
10.75015261712683
 31
0.0
  0
LINE
  5
3FD
100
AcDbEntity
  8
0
  6
CONTINUOUS
 62
               7
100
AcDbLine
 10
-19.400000000000006
 20
12.350152617126824
 30
0.0
 11
-13.400000000000006
 21
12.350152617126824
 31
0.0
  0
LINE
  5
3FE
100
AcDbEntity
  8
0
  6
CONTINUOUS
 62
               7
100
AcDbLine
 10
-19.400000000000006
 20
12.350152617126824
 30
0.0
 11
-19.400000000000006
 21
11.950152617126818
 31
0.0
  0
LINE
  5
3FF
100
AcDbEntity
  8
0
  6
CONTINUOUS
 62
               7
100
AcDbLine
 10
-13.400000000000006
 20
12.350152617126824
 30
0.0
 11
-13.400000000000006
 21
11.950152617126818
 31
0.0
  0
LINE
  5
400
100
AcDbEntity
  8
0
  6
CONTINUOUS
 62
               7
100
AcDbLine
 10
-14.0
 20
46.448116408349577
 30
0.0
 11
-13.400000000000006
 21
46.448116408349577
 31
0.0
  0
LINE
  5
401
100
AcDbEntity
  8
0
  6
CONTINUOUS
 62
               7
100
AcDbLine
 10
-13.200000000000017
 20
49.379786464893087
 30
0.0
 11
-13.400000000000006
 21
46.448116408349577
 31
0.0
  0
LINE
  5
402
100
AcDbEntity
  8
0
  6
CONTINUOUS
 62
               7
100
AcDbLine
 10
-14.0
 20
49.379786464893087
 30
0.0
 11
-14.0
 21
46.448116408349577
 31
0.0
  0
LINE
  5
403
100
AcDbEntity
  8
0
  6
CONTINUOUS
 62
               7
100
AcDbLine
 10
-14.199999989288926
 20
45.940936790467802
 30
0.0
 11
-12.599999995249391
 21
45.940936790467802
 31
0.0
  0
LINE
  5
404
100
AcDbEntity
  8
0
  6
CONTINUOUS
 62
               7
100
AcDbLine
 10
-14.199999989288926
 20
45.248116431474514
 30
0.0
 11
-12.599999995249391
 21
45.248116431474514
 31
0.0
  0
LINE
  5
405
100
AcDbEntity
  8
0
  6
CONTINUOUS
 62
               7
100
AcDbLine
 10
-17.0
 20
46.448116408349577
 30
0.0
 11
-16.400000000000006
 21
46.448116408349577
 31
0.0
  0
LINE
  5
406
100
AcDbEntity
  8
0
  6
CONTINUOUS
 62
               7
100
AcDbLine
 10
-16.200000000000017
 20
49.379786464893087
 30
0.0
 11
-16.400000000000006
 21
46.448116408349577
 31
0.0
  0
LINE
  5
407
100
AcDbEntity
  8
0
  6
CONTINUOUS
 62
               7
100
AcDbLine
 10
-17.0
 20
49.379786464893087
 30
0.0
 11
-17.0
 21
46.448116408349577
 31
0.0
  0
LINE
  5
408
100
AcDbEntity
  8
0
  6
CONTINUOUS
 62
               7
100
AcDbLine
 10
-17.199999989288926
 20
45.940936790467802
 30
0.0
 11
-15.599999995249391
 21
45.940936790467802
 31
0.0
  0
LINE
  5
409
100
AcDbEntity
  8
0
  6
CONTINUOUS
 62
               7
100
AcDbLine
 10
-17.199999989288926
 20
45.248116431474514
 30
0.0
 11
-15.599999995249391
 21
45.248116431474514
 31
0.0
  0
LINE
  5
40A
100
AcDbEntity
  8
0
  6
CONTINUOUS
 62
               7
100
AcDbLine
 10
-19.200000000000017
 20
49.379786464893087
 30
0.0
 11
-19.400000000000006
 21
46.448116408349577
 31
0.0
  0
LINE
  5
40B
100
AcDbEntity
  8
0
  6
CONTINUOUS
 62
               7
100
AcDbLine
 10
-20.0
 20
49.379786464893087
 30
0.0
 11
-20.0
 21
46.448116408349577
 31
0.0
  0
LINE
  5
40C
100
AcDbEntity
  8
0
  6
CONTINUOUS
 62
               7
100
AcDbLine
 10
-20.0
 20
46.448116408349577
 30
0.0
 11
-19.400000000000006
 21
46.448116408349577
 31
0.0
  0
LINE
  5
40D
100
AcDbEntity
  8
0
  6
CONTINUOUS
 62
               7
100
AcDbLine
 10
-20.199999989288926
 20
45.940936790467802
 30
0.0
 11
-18.599999995249391
 21
45.940936790467802
 31
0.0
  0
LINE
  5
40E
100
AcDbEntity
  8
0
  6
CONTINUOUS
 62
               7
100
AcDbLine
 10
-20.199999989288926
 20
45.248116431474514
 30
0.0
 11
-18.599999995249391
 21
45.248116431474514
 31
0.0
  0
LINE
  5
40F
100
AcDbEntity
  8
0
  6
CONTINUOUS
 62
               7
100
AcDbLine
 10
-12.600000000000023
 20
37.072802312061938
 30
0.0
 11
-14.200000000000017
 21
37.072802312061938
 31
0.0
  0
LINE
  5
410
100
AcDbEntity
  8
0
  6
CONTINUOUS
 62
               7
100
AcDbLine
 10
-15.600000000000023
 20
37.072802312061938
 30
0.0
 11
-17.200000000000017
 21
37.072802312061938
 31
0.0
  0
LINE
  5
411
100
AcDbEntity
  8
0
  6
CONTINUOUS
 62
               7
100
AcDbLine
 10
-18.600000000000023
 20
37.072802312061938
 30
0.0
 11
-20.200000000000017
 21
37.072802312061938
 31
0.0
  0
LINE
  5
412
100
AcDbEntity
  8
0
  6
CONTINUOUS
 62
               7
100
AcDbLine
 10
-14.200000000743842
 20
49.379786464893087
 30
0.0
 11
-12.600000000000023
 21
49.379786464893087
 31
0.0
  0
LINE
  5
413
100
AcDbEntity
  8
0
  6
CONTINUOUS
 62
               7
100
AcDbLine
 10
-13.700000000743842
 20
49.579786464893076
 30
0.0
 11
-13.100000000371921
 21
49.579786464893076
 31
0.0
  0
LINE
  5
414
100
AcDbEntity
  8
0
  6
CONTINUOUS
 62
               7
100
AcDbLine
 10
-13.700000000371915
 20
49.379786475611681
 30
0.0
 11
-13.700000000371915
 21
49.579786464893076
 31
0.0
  0
LINE
  5
415
100
AcDbEntity
  8
0
  6
CONTINUOUS
 62
               7
100
AcDbLine
 10
-13.100000000371921
 20
49.379786475611681
 30
0.0
 11
-13.100000000371921
 21
49.579786464893076
 31
0.0
  0
LINE
  5
416
100
AcDbEntity
  8
0
  6
CONTINUOUS
 62
               7
100
AcDbLine
 10
-17.200000000743842
 20
49.379786464893087
 30
0.0
 11
-15.600000000000023
 21
49.379786464893087
 31
0.0
  0
LINE
  5
417
100
AcDbEntity
  8
0
  6
CONTINUOUS
 62
               7
100
AcDbLine
 10
-16.700000000743842
 20
49.579786464893076
 30
0.0
 11
-16.100000000371921
 21
49.579786464893076
 31
0.0
  0
LINE
  5
418
100
AcDbEntity
  8
0
  6
CONTINUOUS
 62
               7
100
AcDbLine
 10
-16.700000000371915
 20
49.379786475611681
 30
0.0
 11
-16.700000000371915
 21
49.579786464893076
 31
0.0
  0
LINE
  5
419
100
AcDbEntity
  8
0
  6
CONTINUOUS
 62
               7
100
AcDbLine
 10
-16.100000000371921
 20
49.379786475611681
 30
0.0
 11
-16.100000000371921
 21
49.579786464893076
 31
0.0
  0
LINE
  5
41A
100
AcDbEntity
  8
0
  6
CONTINUOUS
 62
               7
100
AcDbLine
 10
-19.100000000371921
 20
49.379786475611681
 30
0.0
 11
-19.100000000371921
 21
49.579786464893076
 31
0.0
  0
LINE
  5
41B
100
AcDbEntity
  8
0
  6
CONTINUOUS
 62
               7
100
AcDbLine
 10
-19.700000000371915
 20
49.379786475611681
 30
0.0
 11
-19.700000000371915
 21
49.579786464893076
 31
0.0
  0
LINE
  5
41C
100
AcDbEntity
  8
0
  6
CONTINUOUS
 62
               7
100
AcDbLine
 10
-19.700000000743842
 20
49.579786464893076
 30
0.0
 11
-19.100000000371921
 21
49.579786464893076
 31
0.0
  0
LINE
  5
41D
100
AcDbEntity
  8
0
  6
CONTINUOUS
 62
               7
100
AcDbLine
 10
-20.200000000743842
 20
49.379786464893087
 30
0.0
 11
-18.600000000000023
 21
49.379786464893087
 31
0.0
  0
LINE
  5
41E
100
AcDbEntity
  8
0
  6
CONTINUOUS
 62
               7
100
AcDbLine
 10
-12.600000000000023
 20
49.379786464893087
 30
0.0
 11
-12.600000000000023
 21
37.072802312061938
 31
0.0
  0
LINE
  5
41F
100
AcDbEntity
  8
0
  6
CONTINUOUS
 62
               7
100
AcDbLine
 10
-14.200000000000017
 20
49.379786464893087
 30
0.0
 11
-14.200000000000017
 21
37.072802312061938
 31
0.0
  0
LINE
  5
420
100
AcDbEntity
  8
0
  6
CONTINUOUS
 62
               7
100
AcDbLine
 10
-15.600000000000023
 20
49.379786464893087
 30
0.0
 11
-15.600000000000023
 21
37.072802312061938
 31
0.0
  0
LINE
  5
421
100
AcDbEntity
  8
0
  6
CONTINUOUS
 62
               7
100
AcDbLine
 10
-17.200000000000017
 20
49.379786464893087
 30
0.0
 11
-17.200000000000017
 21
37.072802312061938
 31
0.0
  0
LINE
  5
422
100
AcDbEntity
  8
0
  6
CONTINUOUS
 62
               7
100
AcDbLine
 10
-18.600000000000023
 20
49.379786464893087
 30
0.0
 11
-18.600000000000023
 21
37.072802312061938
 31
0.0
  0
LINE
  5
423
100
AcDbEntity
  8
0
  6
CONTINUOUS
 62
               7
100
AcDbLine
 10
-20.200000000000017
 20
49.379786464893087
 30
0.0
 11
-20.200000000000017
 21
37.072802312061938
 31
0.0
  0
LINE
  5
424
100
AcDbEntity
  8
0
  6
PHANTOM
 62
               2
100
AcDbLine
 10
-17.899999999465223
 20
25.522247009834317
 30
0.0
 11
-14.8999999696629
 21
27.254297831019429
 31
0.0
  0
LINE
  5
425
100
AcDbEntity
  8
0
  6
PHANTOM
 62
               2
100
AcDbLine
 10
-17.899999999465223
 20
26.446007394155529
 30
0.0
 11
-14.899999999465223
 21
28.17805820043948
 31
0.0
  0
ARC
  5
426
100
AcDbEntity
  8
0
  6
CONTINUOUS
 62
               7
100
AcDbCircle
 10
-13.550000000000011
 20
27.209147113633222
 30
0.0
 40
2.0
100
AcDbArc
 50
149.9999999999996
 51
160.79511110182807
  0
ARC
  5
427
100
AcDbEntity
  8
0
  6
CONTINUOUS
 62
               7
100
AcDbCircle
 10
-14.350000000000023
 20
27.423506467578122
 30
0.0
 40
2.0
100
AcDbArc
 50
149.99999999999966
 51
179.99999999999963
  0
ARC
  5
428
100
AcDbEntity
  8
0
  6
CONTINUOUS
 62
               7
100
AcDbCircle
 10
-18.450000000000017
 20
27.423506467578122
 30
0.0
 40
2.0
100
AcDbArc
 50
0.0
 51
29.999999999999954
  0
ARC
  5
429
100
AcDbEntity
  8
0
  6
CONTINUOUS
 62
               7
100
AcDbCircle
 10
-19.250000000000028
 20
27.209147113633222
 30
0.0
 40
2.0
100
AcDbArc
 50
0.0
 51
29.999999999999954
  0
LINE
  5
42A
100
AcDbEntity
  8
0
  6
CONTINUOUS
 62
               7
100
AcDbLine
 10
-16.0
 20
37.072802312061938
 30
0.0
 11
-16.0
 21
28.565622635089497
 31
0.0
  0
LINE
  5
42B
100
AcDbEntity
  8
0
  6
CONTINUOUS
 62
               7
100
AcDbLine
 10
-16.800000000000011
 20
37.072802312061938
 30
0.0
 11
-16.800000000000011
 21
28.565622635089497
 31
0.0
  0
LINE
  5
42C
100
AcDbEntity
  8
0
  6
CONTINUOUS
 62
               7
100
AcDbLine
 10
-16.350000000000023
 20
27.34090031042679
 30
0.0
 11
-16.350000000000023
 21
27.423506467578122
 31
0.0
  0
LINE
  5
42D
100
AcDbEntity
  8
0
  6
CONTINUOUS
 62
               7
100
AcDbLine
 10
-16.450000000000017
 20
27.283165283550673
 30
0.0
 11
-16.450000000000017
 21
27.423506467578122
 31
0.0
  0
LINE
  5
42E
100
AcDbEntity
  8
0
  6
CONTINUOUS
 62
               7
100
AcDbLine
 10
-17.250000000000028
 20
26.821285068541627
 30
0.0
 11
-17.250000000000028
 21
27.209147113633222
 31
0.0
  0
LINE
  5
42F
100
AcDbEntity
  8
0
  6
CONTINUOUS
 62
               7
100
AcDbLine
 10
-13.800000000000011
 20
37.072802312061938
 30
0.0
 11
-13.800000000000011
 21
33.71588037389661
 31
0.0
  0
LINE
  5
430
100
AcDbEntity
  8
0
  6
CONTINUOUS
 62
               7
100
AcDbLine
 10
-13.0
 20
37.072802312061938
 30
0.0
 11
-13.0
 21
33.501521019951738
 31
0.0
  0
LINE
  5
431
100
AcDbEntity
  8
0
  6
CONTINUOUS
 62
               7
100
AcDbLine
 10
-19.800000000000011
 20
37.072802312061938
 30
0.0
 11
-19.800000000000011
 21
33.501521019951738
 31
0.0
  0
LINE
  5
432
100
AcDbEntity
  8
0
  6
CONTINUOUS
 62
               7
100
AcDbLine
 10
-19.0
 20
37.072802312061938
 30
0.0
 11
-19.0
 21
33.71588037389661
 31
0.0
  0
LINE
  5
433
100
AcDbEntity
  8
0
  6
CONTINUOUS
 62
               7
100
AcDbLine
 10
-15.282050807568879
 20
28.209147113633222
 30
0.0
 11
-13.669872981077816
 21
31.001521019951738
 31
0.0
  0
LINE
  5
434
100
AcDbEntity
  8
0
  6
CONTINUOUS
 62
               7
100
AcDbLine
 10
-16.082050807568891
 20
28.42350646757815
 30
0.0
 11
-14.469872981077827
 21
31.21588037389661
 31
0.0
  0
LINE
  5
435
100
AcDbEntity
  8
0
  6
CONTINUOUS
 62
               7
100
AcDbLine
 10
-17.517949192431132
 20
28.209147113633222
 30
0.0
 11
-19.130127018922224
 21
31.001521019951738
 31
0.0
  0
LINE
  5
436
100
AcDbEntity
  8
0
  6
CONTINUOUS
 62
               7
100
AcDbLine
 10
-16.717949192431149
 20
28.42350646757815
 30
0.0
 11
-18.330127018922212
 21
31.21588037389661
 31
0.0
  0
ARC
  5
437
100
AcDbEntity
  8
0
  6
CONTINUOUS
 62
               7
100
AcDbCircle
 10
-18.800000000000011
 20
33.71588037389661
 30
0.0
 40
5.0
100
AcDbArc
 50
329.99999999999926
 51
0.0
  0
ARC
  5
438
100
AcDbEntity
  8
0
  6
CONTINUOUS
 62
               7
100
AcDbCircle
 10
-18.0
 20
33.501521019951738
 30
0.0
 40
5.0
100
AcDbArc
 50
329.99999999999926
 51
0.0
  0
ARC
  5
439
100
AcDbEntity
  8
0
  6
CONTINUOUS
 62
               7
100
AcDbCircle
 10
-14.0
 20
33.71588037389661
 30
0.0
 40
5.0
100
AcDbArc
 50
179.99999999999963
 51
209.99999999999955
  0
ARC
  5
43A
100
AcDbEntity
  8
0
  6
CONTINUOUS
 62
               7
100
AcDbCircle
 10
-14.800000000000011
 20
33.501521019951738
 30
0.0
 40
5.0
100
AcDbArc
 50
179.99999999999963
 51
209.99999999999955
  0
LINE
  5
43B
100
AcDbEntity
  8
0
  6
CONTINUOUS
 62
               7
100
AcDbLine
 10
-17.250000000000028
 20
24.850152617126824
 30
0.0
 11
-17.250000000000028
 21
25.897524683720931
 31
0.0
  0
LINE
  5
43C
100
AcDbEntity
  8
0
  6
CONTINUOUS
 62
               7
100
AcDbLine
 10
-16.450000000000017
 20
24.850152617126824
 30
0.0
 11
-16.450000000000017
 21
26.359404898115272
 31
0.0
  0
LINE
  5
43D
100
AcDbEntity
  8
0
  6
CONTINUOUS
 62
               7
100
AcDbLine
 10
-16.350000000000023
 20
24.850152617126824
 30
0.0
 11
-16.350000000000023
 21
26.417139924914565
 31
0.0
  0
LINE
  5
43E
100
AcDbEntity
  8
0
  6
CONTINUOUS
 62
               7
100
AcDbLine
 10
-15.550000000000011
 20
24.850152617126824
 30
0.0
 11
-15.550000000000011
 21
26.879020139308878
 31
0.0
  0
LINE
  5
43F
100
AcDbEntity
  8
0
  6
CONTINUOUS
 62
               7
100
AcDbLine
 10
-18.400000000000006
 20
19.350152617126824
 30
0.0
 11
-14.400000000000006
 21
19.350152617126824
 31
0.0
  0
LINE
  5
440
100
AcDbEntity
  8
0
  6
CONTINUOUS
 62
               7
100
AcDbLine
 10
-14.400000000000006
 20
19.350152617126824
 30
0.0
 11
-14.114285714285728
 21
17.350152617126824
 31
0.0
  0
LINE
  5
441
100
AcDbEntity
  8
0
  6
CONTINUOUS
 62
               7
100
AcDbLine
 10
-18.400000000000006
 20
19.350152617126824
 30
0.0
 11
-18.685714285714283
 21
17.350152617126824
 31
0.0
  0
LINE
  5
442
100
AcDbEntity
  8
0
  6
CONTINUOUS
 62
               7
100
AcDbLine
 10
-18.685714285714283
 20
17.350152617126824
 30
0.0
 11
-14.114285714285728
 21
17.350152617126824
 31
0.0
  0
LINE
  5
443
100
AcDbEntity
  8
0
  6
CONTINUOUS
 62
               7
100
AcDbLine
 10
-18.82857142857145
 20
16.350152617126824
 30
0.0
 11
-13.971428571428589
 21
16.350152617126824
 31
0.0
  0
LINE
  5
444
100
AcDbEntity
  8
0
  6
CONTINUOUS
 62
               7
100
AcDbLine
 10
-19.042857142857144
 20
14.850152617126824
 30
0.0
 11
-13.757142857142867
 21
14.850152617126824
 31
0.0
  0
LINE
  5
445
100
AcDbEntity
  8
0
  6
CONTINUOUS
 62
               7
100
AcDbLine
 10
-19.185714285714283
 20
13.850152617126824
 30
0.0
 11
-13.614285714285728
 21
13.850152617126824
 31
0.0
  0
LINE
  5
446
100
AcDbEntity
  8
0
  6
CONTINUOUS
 62
               7
100
AcDbLine
 10
-13.971428571428589
 20
16.350152617126824
 30
0.0
 11
-13.757142857142867
 21
14.850152617126824
 31
0.0
  0
LINE
  5
447
100
AcDbEntity
  8
0
  6
CONTINUOUS
 62
               7
100
AcDbLine
 10
-18.82857142857145
 20
16.350152617126824
 30
0.0
 11
-19.042857142857144
 21
14.850152617126824
 31
0.0
  0
LINE
  5
448
100
AcDbEntity
  8
0
  6
CONTINUOUS
 62
               7
100
AcDbLine
 10
-14.650000000000006
 20
17.350152617126824
 30
0.0
 11
-14.650000000000006
 21
16.350152617126824
 31
0.0
  0
LINE
  5
449
100
AcDbEntity
  8
0
  6
CONTINUOUS
 62
               7
100
AcDbLine
 10
-18.150000000000006
 20
17.350152617126824
 30
0.0
 11
-18.150000000000006
 21
16.350152617126824
 31
0.0
  0
LINE
  5
44A
100
AcDbEntity
  8
0
  6
CONTINUOUS
 62
               7
100
AcDbLine
 10
-14.650000000000006
 20
14.850152617126824
 30
0.0
 11
-14.650000000000006
 21
13.850152617126824
 31
0.0
  0
LINE
  5
44B
100
AcDbEntity
  8
0
  6
CONTINUOUS
 62
               7
100
AcDbLine
 10
-18.150000000000006
 20
14.850152617126824
 30
0.0
 11
-18.150000000000006
 21
13.850152617126824
 31
0.0
  0
LINE
  5
44C
100
AcDbEntity
  8
0
  6
CONTINUOUS
 62
               7
100
AcDbLine
 10
-17.700000000000017
 20
24.850152617126824
 30
0.0
 11
-15.099999999999994
 21
24.850152617126824
 31
0.0
  0
LINE
  5
44D
100
AcDbEntity
  8
0
  6
CONTINUOUS
 62
               7
100
AcDbLine
 10
-17.700000000000017
 20
19.350152617126824
 30
0.0
 11
-17.700000000000017
 21
20.887717068219118
 31
0.0
  0
LINE
  5
44E
100
AcDbEntity
  8
0
  6
CONTINUOUS
 62
               7
100
AcDbLine
 10
-15.099999999999994
 20
19.350152617126824
 30
0.0
 11
-15.099999999999994
 21
22.388827768112137
 31
0.0
  0
LINE
  5
44F
100
AcDbEntity
  8
0
  6
CONTINUOUS
 62
               7
100
AcDbLine
 10
-17.700000000000017
 20
21.811477467441492
 30
0.0
 11
-17.700000000000017
 21
24.850152617126824
 31
0.0
  0
LINE
  5
450
100
AcDbEntity
  8
0
  6
CONTINUOUS
 62
               7
100
AcDbLine
 10
-15.099999999999994
 20
23.312588167334511
 30
0.0
 11
-15.099999999999994
 21
24.850152617126824
 31
0.0
  0
LINE
  5
451
100
AcDbEntity
  8
0
  6
PHANTOM
 62
               2
100
AcDbLine
 10
-18.300000005425687
 20
21.465067305525807
 30
0.0
 11
-14.499999963702436
 21
23.658998348673848
 31
0.0
  0
LINE
  5
452
100
AcDbEntity
  8
0
  6
PHANTOM
 62
               2
100
AcDbLine
 10
-18.299999975623365
 20
20.541306906303433
 30
0.0
 11
-14.499999963702436
 21
22.735237934550312
 31
0.0
  0
LINE
  5
453
100
AcDbEntity
  8
0
  6
CONTINUOUS
 62
               7
100
AcDbLine
 10
-19.185714285714283
 20
13.850152617126824
 30
0.0
 11
-19.400000000000006
 21
12.350152617126824
 31
0.0
  0
LINE
  5
454
100
AcDbEntity
  8
0
  6
CONTINUOUS
 62
               7
100
AcDbLine
 10
-13.614285714285728
 20
13.850152617126824
 30
0.0
 11
-13.400000000000006
 21
12.350152617126824
 31
0.0
  0
LINE
  5
455
100
AcDbEntity
  8
0
  6
CONTINUOUS
 62
               7
100
AcDbLine
 10
-19.182320284100427
 20
-7.9126684591599883
 30
0.0
 11
-19.504363267749198
 21
-7.9083298105363156
 31
0.0
  0
ARC
  5
456
100
AcDbEntity
  8
0
  6
CONTINUOUS
 62
               7
100
AcDbCircle
 10
-18.900000000000034
 20
-5.5
 30
0.0
 40
0.5
100
AcDbArc
 50
89.999999999999815
 51
179.99999999999963
  0
ARC
  5
457
100
AcDbEntity
  8
0
  6
CONTINUOUS
 62
               7
100
AcDbCircle
 10
-18.900000000000034
 20
-7.5
 30
0.0
 40
0.5
100
AcDbArc
 50
179.99999999999963
 51
269.99999999999937
  0
LINE
  5
458
100
AcDbEntity
  8
0
  6
CONTINUOUS
 62
               7
100
AcDbLine
 10
-18.80000000000004
 20
-8.0
 30
0.0
 11
-18.900000000000034
 21
-8.0
 31
0.0
  0
LINE
  5
459
100
AcDbEntity
  8
0
  6
CONTINUOUS
 62
               7
100
AcDbLine
 10
-18.80000000000004
 20
-5.0
 30
0.0
 11
-18.900000000000034
 21
-5.0
 31
0.0
  0
LINE
  5
45A
100
AcDbEntity
  8
0
  6
CONTINUOUS
 62
               7
100
AcDbLine
 10
-19.400000000000034
 20
-7.5
 30
0.0
 11
-19.400000000000034
 21
-5.5
 31
0.0
  0
LINE
  5
45B
100
AcDbEntity
  8
0
  6
DASHED
 62
               2
100
AcDbLine
 10
10.359114344382874
 20
-17.07662876565513
 30
0.0
 11
7.9549512883486386
 21
-14.672465709620866
 31
0.0
  0
LINE
  5
45C
100
AcDbEntity
  8
0
  6
DASHED
 62
               2
100
AcDbLine
 10
17.07662876565513
 20
-10.359114344382931
 30
0.0
 11
14.672465709620838
 21
-7.954951288348667
 31
0.0
  0
LINE
  5
45D
100
AcDbEntity
  8
0
  6
DASHED
 62
               2
100
AcDbLine
 10
10.359114344382874
 20
17.076628765655187
 30
0.0
 11
7.9549512883486386
 21
14.672465709620923
 31
0.0
  0
LINE
  5
45E
100
AcDbEntity
  8
0
  6
DASHED
 62
               2
100
AcDbLine
 10
17.076628765655073
 20
10.359114344382988
 30
0.0
 11
14.672465709620838
 21
7.9549512883487239
 31
0.0
  0
LINE
  5
45F
100
AcDbEntity
  8
0
  6
CENTER
 62
               2
100
AcDbLine
 10
0.0
 20
0.0
 30
0.0
 11
15.556349186104057
 21
15.556349186104029
 31
0.0
  0
ARC
  5
460
100
AcDbEntity
  8
0
  6
CONTINUOUS
 62
               7
100
AcDbCircle
 10
0.0
 20
0.0
 30
0.0
 40
20.0
100
AcDbArc
 50
203.33990306811953
 51
135.97278279027674
  0
CIRCLE
  5
461
100
AcDbEntity
  8
0
  6
CONTINUOUS
 62
               7
100
AcDbCircle
 10
16.0
 20
0.0
 30
0.0
 40
1.6499999999999999
  0
CIRCLE
  5
462
100
AcDbEntity
  8
0
  6
CONTINUOUS
 62
               7
100
AcDbCircle
 10
0.0
 20
-16.0
 30
0.0
 40
1.6499999999999999
  0
CIRCLE
  5
463
100
AcDbEntity
  8
0
  6
CONTINUOUS
 62
               7
100
AcDbCircle
 10
0.0
 20
16.0
 30
0.0
 40
1.6499999999999999
  0
CIRCLE
  5
464
100
AcDbEntity
  8
0
  6
CONTINUOUS
 62
               2
100
AcDbCircle
 10
0.0
 20
16.0
 30
0.0
 40
2.0
  0
CIRCLE
  5
465
100
AcDbEntity
  8
0
  6
CONTINUOUS
 62
               2
100
AcDbCircle
 10
16.0
 20
0.0
 30
0.0
 40
2.0
  0
CIRCLE
  5
466
100
AcDbEntity
  8
0
  6
CONTINUOUS
 62
               2
100
AcDbCircle
 10
0.0
 20
-16.0
 30
0.0
 40
2.0
  0
CIRCLE
  5
467
100
AcDbEntity
  8
0
  6
CENTER
 62
               2
100
AcDbCircle
 10
0.0
 20
0.0
 30
0.0
 40
16.0
  0
LINE
  5
468
100
AcDbEntity
  8
0
  6
CENTER
 62
               2
100
AcDbLine
 10
-22.000000000000028
 20
0.0
 30
0.0
 11
22.0
 21
0.0
 31
0.0
  0
LINE
  5
469
100
AcDbEntity
  8
0
  6
CENTER
 62
               2
100
AcDbLine
 10
0.0
 20
-22.0
 30
0.0
 11
0.0
 21
22.0
 31
0.0
  0
ARC
  5
46A
100
AcDbEntity
  8
0
  6
CONTINUOUS
 62
               7
100
AcDbCircle
 10
0.0
 20
0.0
 30
0.0
 40
19.0
100
AcDbArc
 50
241.72628636863439
 51
118.27371363136476
  0
LINE
  5
46B
100
AcDbEntity
  8
0
  6
CENTER
 62
               2
100
AcDbLine
 10
0.0
 20
0.0
 30
0.0
 11
15.556349186104001
 21
-15.556349186104057
 31
0.0
  0
CIRCLE
  5
46C
100
AcDbEntity
  8
0
  6
CONTINUOUS
 62
               7
100
AcDbCircle
 10
0.0
 20
0.0
 30
0.0
 40
2.1000000000000001
  0
CIRCLE
  5
46D
100
AcDbEntity
  8
0
  6
CONTINUOUS
 62
               2
100
AcDbCircle
 10
0.0
 20
0.0
 30
0.0
 40
2.5
  0
LINE
  5
46E
100
AcDbEntity
  8
0
  6
CONTINUOUS
 62
               7
100
AcDbLine
 10
-9.0
 20
-17.86057109949175
 30
0.0
 11
-9.0000000000000284
 21
17.86057109949175
 31
0.0
  0
LINE
  5
46F
100
AcDbEntity
  8
0
  6
CONTINUOUS
 62
               7
100
AcDbLine
 10
-12.699999999999989
 20
-8.0
 30
0.0
 11
-9.0000000000000284
 21
-7.9677105891742031
 31
0.0
  0
LINE
  5
470
100
AcDbEntity
  8
0
  6
CONTINUOUS
 62
               7
100
AcDbLine
 10
-12.699999999999989
 20
12.0
 30
0.0
 11
-9.0
 21
11.967710589174175
 31
0.0
  0
ARC
  5
471
100
AcDbEntity
  8
0
  6
CONTINUOUS
 62
               7
100
AcDbCircle
 10
-19.500000000000028
 20
-7.4083488490042271
 30
0.0
 40
0.5
100
AcDbArc
 50
179.99999999999963
 51
269.49999999999943
  0
ARC
  5
472
100
AcDbEntity
  8
0
  6
CONTINUOUS
 62
               7
100
AcDbCircle
 10
-19.500000000000028
 20
11.408348849004199
 30
0.0
 40
0.5
100
AcDbArc
 50
90.499999999999773
 51
179.99999999999963
  0
LINE
  5
473
100
AcDbEntity
  8
0
  6
CONTINUOUS
 62
               7
100
AcDbLine
 10
-12.699999999999989
 20
12.0
 30
0.0
 11
-19.504363267749198
 21
11.908329810536287
 31
0.0
  0
LINE
  5
474
100
AcDbEntity
  8
0
  6
CONTINUOUS
 62
               7
100
AcDbLine
 10
-12.699999999999989
 20
-8.0
 30
0.0
 11
-18.80000000000004
 21
-7.9178191795874682
 31
0.0
  0
LINE
  5
475
100
AcDbEntity
  8
0
  6
CONTINUOUS
 62
               7
100
AcDbLine
 10
-13.700000000000017
 20
7.0
 30
0.0
 11
-13.700000000000017
 21
8.1999999999999602
 31
0.0
  0
LINE
  5
476
100
AcDbEntity
  8
0
  6
CONTINUOUS
 62
               7
100
AcDbLine
 10
-14.600000000000051
 20
7.0
 30
0.0
 11
-14.600000000000023
 21
8.1999999999999886
 31
0.0
  0
LINE
  5
477
100
AcDbEntity
  8
0
  6
CONTINUOUS
 62
               7
100
AcDbLine
 10
-13.699999999999989
 20
7.1000000000000227
 30
0.0
 11
-14.550000000000011
 21
7.1000000000000227
 31
0.0
  0
LINE
  5
478
100
AcDbEntity
  8
0
  6
CONTINUOUS
 62
               7
100
AcDbLine
 10
-13.699999999999989
 20
8.1000000000000227
 30
0.0
 11
-14.550000000000011
 21
8.1000000000000227
 31
0.0
  0
LINE
  5
479
100
AcDbEntity
  8
0
  6
CONTINUOUS
 62
               7
100
AcDbLine
 10
-14.550000000000011
 20
7.1000000000000227
 30
0.0
 11
-14.550000000000011
 21
8.1000000000000227
 31
0.0
  0
LINE
  5
47A
100
AcDbEntity
  8
0
  6
CONTINUOUS
 62
               7
100
AcDbLine
 10
-13.850000000000023
 20
7.0999999999999943
 30
0.0
 11
-13.850000000000051
 21
8.1000000000000227
 31
0.0
  0
LINE
  5
47B
100
AcDbEntity
  8
0
  6
CONTINUOUS
 62
               7
100
AcDbLine
 10
-13.700000000000017
 20
8.1999999999999602
 30
0.0
 11
-14.600000000000023
 21
8.1999999999999886
 31
0.0
  0
LINE
  5
47C
100
AcDbEntity
  8
0
  6
CONTINUOUS
 62
               7
100
AcDbLine
 10
-13.700000000000017
 20
7.0
 30
0.0
 11
-14.600000000000051
 21
7.0
 31
0.0
  0
LINE
  5
47D
100
AcDbEntity
  8
0
  6
CONTINUOUS
 62
               7
100
AcDbLine
 10
-13.700000000000017
 20
-4.1999999999999886
 30
0.0
 11
-14.600000000000023
 21
-4.1999999999999886
 31
0.0
  0
LINE
  5
47E
100
AcDbEntity
  8
0
  6
CONTINUOUS
 62
               7
100
AcDbLine
 10
-13.700000000000017
 20
-3.0000000000000284
 30
0.0
 11
-14.600000000000023
 21
-3.0000000000000284
 31
0.0
  0
LINE
  5
47F
100
AcDbEntity
  8
0
  6
CONTINUOUS
 62
               7
100
AcDbLine
 10
-13.850000000000051
 20
-4.1000000000000512
 30
0.0
 11
-13.850000000000051
 21
-3.1000000000000512
 31
0.0
  0
LINE
  5
480
100
AcDbEntity
  8
0
  6
CONTINUOUS
 62
               7
100
AcDbLine
 10
-14.55000000000004
 20
-4.1000000000000227
 30
0.0
 11
-14.550000000000011
 21
-3.1000000000000227
 31
0.0
  0
LINE
  5
481
100
AcDbEntity
  8
0
  6
CONTINUOUS
 62
               7
100
AcDbLine
 10
-13.699999999999989
 20
-3.1000000000000227
 30
0.0
 11
-14.550000000000011
 21
-3.1000000000000227
 31
0.0
  0
LINE
  5
482
100
AcDbEntity
  8
0
  6
CONTINUOUS
 62
               7
100
AcDbLine
 10
-13.700000000000017
 20
-4.1000000000000227
 30
0.0
 11
-14.55000000000004
 21
-4.1000000000000227
 31
0.0
  0
LINE
  5
483
100
AcDbEntity
  8
0
  6
CONTINUOUS
 62
               7
100
AcDbLine
 10
-14.600000000000023
 20
-4.1999999999999886
 30
0.0
 11
-14.600000000000023
 21
-3.0000000000000284
 31
0.0
  0
LINE
  5
484
100
AcDbEntity
  8
0
  6
CONTINUOUS
 62
               7
100
AcDbLine
 10
-13.700000000000017
 20
-4.1999999999999886
 30
0.0
 11
-13.700000000000017
 21
-3.0000000000000284
 31
0.0
  0
LINE
  5
485
100
AcDbEntity
  8
0
  6
CENTER
 62
               2
100
AcDbLine
 10
-18.195856986851112
 20
-6.5
 30
0.0
 11
-20.435449291060365
 21
-6.5
 31
0.0
  0
LINE
  5
486
100
AcDbEntity
  8
0
  6
CONTINUOUS
 62
               7
100
AcDbLine
 10
-18.80000000000004
 20
-8.0
 30
0.0
 11
-18.800000000000011
 21
-4.8999999999999773
 31
0.0
  0
LINE
  5
487
100
AcDbEntity
  8
0
  6
CONTINUOUS
 62
               7
100
AcDbLine
 10
-18.800000000000011
 20
-4.8999999999999773
 30
0.0
 11
-20.0
 21
-4.8999999999999773
 31
0.0
  0
LINE
  5
488
100
AcDbEntity
  8
0
  6
CONTINUOUS
 62
               7
100
AcDbLine
 10
-20.000000000000028
 20
-7.4083488490042271
 30
0.0
 11
-20.000000000000028
 21
11.408348849004199
 31
0.0
  0
LINE
  5
489
100
AcDbEntity
  8
0
  6
CONTINUOUS
 62
               7
100
AcDbLine
 10
-12.699999999999989
 20
-8.0
 30
0.0
 11
-12.699999999999989
 21
12.0
 31
0.0
  0
LINE
  5
48A
100
AcDbEntity
  8
0
  6
DASHED
 62
               2
100
AcDbLine
 10
13.081475451951121
 20
-9.5459415460184118
 30
0.0
 11
10.71623030258263
 21
-7.1806963966499211
 31
0.0
  0
LINE
  5
48B
100
AcDbEntity
  8
0
  6
DASHED
 62
               2
100
AcDbLine
 10
12.798632739476488
 20
-9.8287842584930161
 30
0.0
 11
10.114663759757946
 21
-7.1448152787744448
 31
0.0
  0
LINE
  5
48C
100
AcDbEntity
  8
0
  6
DASHED
 62
               2
100
AcDbLine
 10
8.4852813742385251
 20
-14.142135623730951
 30
0.0
 11
8.9095454429505025
 21
-14.566399692442872
 31
0.0
  0
LINE
  5
48D
100
AcDbEntity
  8
0
  6
DASHED
 62
               2
100
AcDbLine
 10
10.288403666264287
 20
-16.0159685938753
 30
0.0
 11
8.8741901038911806
 21
-14.601755031502222
 31
0.0
  0
ARC
  5
48E
100
AcDbEntity
  8
0
  6
DASHED
 62
               2
100
AcDbCircle
 10
10.44121847766786
 20
-10.414259706814278
 30
0.0
 40
4.363929581700825
100
AcDbArc
 50
286.99521341413669
 51
308.16884500145608
  0
LINE
  5
48F
100
AcDbEntity
  8
0
  6
DASHED
 62
               2
100
AcDbLine
 10
13.152186130069765
 20
-13.859292911256318
 30
0.0
 11
12.091525958289935
 21
-12.798632739476517
 31
0.0
  0
LINE
  5
490
100
AcDbEntity
  8
0
  6
DASHED
 62
               2
100
AcDbLine
 10
13.152186130069765
 20
-13.859292911256318
 30
0.0
 11
10.995510447450783
 21
-16.0159685938753
 31
0.0
  0
LINE
  5
491
100
AcDbEntity
  8
0
  6
DASHED
 62
               2
100
AcDbLine
 10
11.716759364261065
 20
-14.587612895878465
 30
0.0
 11
10.302545801888016
 21
-13.173399333505387
 31
0.0
  0
ARC
  5
492
100
AcDbEntity
  8
0
  6
DASHED
 62
               2
100
AcDbCircle
 10
5.1221656684584786
 20
-12.153944892329662
 30
0.0
 40
7.0293247160888015
100
AcDbArc
 50
326.67304037350175
 51
339.74392856765854
  0
LINE
  5
493
100
AcDbEntity
  8
0
  6
DASHED
 62
               2
100
AcDbLine
 10
9.8287842584929876
 20
-12.798632739476517
 30
0.0
 11
7.4635391091244969
 21
-10.433387590108026
 31
0.0
  0
LINE
  5
494
100
AcDbEntity
  8
0
  6
DASHED
 62
               2
100
AcDbLine
 10
9.545941546018355
 20
-13.081475451951121
 30
0.0
 11
7.3599785512218432
 21
-10.895512457154581
 31
0.0
  0
LINE
  5
495
100
AcDbEntity
  8
0
  6
DASHED
 62
               2
100
AcDbLine
 10
10.995510447450783
 20
-16.0159685938753
 30
0.0
 11
10.288403666264287
 21
-16.0159685938753
 31
0.0
  0
LINE
  5
496
100
AcDbEntity
  8
0
  6
DASHED
 62
               2
100
AcDbLine
 10
16.0159685938753
 20
-10.288403666264287
 30
0.0
 11
14.601755031502194
 21
-8.8741901038911806
 31
0.0
  0
LINE
  5
497
100
AcDbEntity
  8
0
  6
DASHED
 62
               2
100
AcDbLine
 10
14.142135623730951
 20
-8.485281374238582
 30
0.0
 11
14.566399692442872
 21
-8.9095454429505025
 31
0.0
  0
ARC
  5
498
100
AcDbEntity
  8
0
  6
DASHED
 62
               2
100
AcDbCircle
 10
10.412952354406968
 20
-10.440535532380466
 30
0.0
 40
4.3653794686807261
100
AcDbArc
 50
321.83471178066645
 51
343.001229803738
  0
LINE
  5
499
100
AcDbEntity
  8
0
  6
DASHED
 62
               2
100
AcDbLine
 10
16.0159685938753
 20
-10.995510447450812
 30
0.0
 11
13.859292911256318
 21
-13.152186130069794
 31
0.0
  0
LINE
  5
49A
100
AcDbEntity
  8
0
  6
DASHED
 62
               2
100
AcDbLine
 10
14.587612895878465
 20
-11.716759364261094
 30
0.0
 11
13.173399333505358
 21
-10.302545801888016
 31
0.0
  0
ARC
  5
49B
100
AcDbEntity
  8
0
  6
DASHED
 62
               2
100
AcDbCircle
 10
12.154649514246103
 20
-5.1235610961754219
 30
0.0
 40
7.0277716396203269
100
AcDbArc
 50
290.25462085736189
 51
303.32841020147521
  0
LINE
  5
49C
100
AcDbEntity
  8
0
  6
DASHED
 62
               2
100
AcDbLine
 10
16.0159685938753
 20
-10.288403666264287
 30
0.0
 11
16.0159685938753
 21
-10.995510447450812
 31
0.0
  0
LINE
  5
49D
100
AcDbEntity
  8
0
  6
DASHED
 62
               2
100
AcDbLine
 10
13.859292911256318
 20
-13.152186130069794
 30
0.0
 11
12.798632739476488
 21
-12.091525958289964
 31
0.0
  0
LINE
  5
49E
100
AcDbEntity
  8
0
  6
DASHED
 62
               2
100
AcDbLine
 10
12.798632739476488
 20
-12.091525958289964
 30
0.0
 11
12.091525958289935
 21
-12.798632739476517
 31
0.0
  0
LINE
  5
49F
100
AcDbEntity
  8
0
  6
DASHED
 62
               2
100
AcDbLine
 10
14.601755031502194
 20
-8.8741901038911806
 30
0.0
 11
8.8741901038911806
 21
-14.601755031502222
 31
0.0
  0
LINE
  5
4A0
100
AcDbEntity
  8
0
  6
DASHED
 62
               2
100
AcDbLine
 10
14.672465709620838
 20
-7.954951288348667
 30
0.0
 11
7.9549512883486386
 21
-14.672465709620866
 31
0.0
  0
LINE
  5
4A1
100
AcDbEntity
  8
0
  6
DASHED
 62
               2
100
AcDbLine
 10
9.545941546018355
 20
13.081475451951178
 30
0.0
 11
7.1806963966498643
 21
10.716230302582716
 31
0.0
  0
LINE
  5
4A2
100
AcDbEntity
  8
0
  6
DASHED
 62
               2
100
AcDbLine
 10
9.8287842584929876
 20
12.798632739476574
 30
0.0
 11
7.1448152787743879
 21
10.114663759758002
 31
0.0
  0
LINE
  5
4A3
100
AcDbEntity
  8
0
  6
DASHED
 62
               2
100
AcDbLine
 10
16.0159685938753
 20
10.288403666264344
 30
0.0
 11
14.601755031502194
 21
8.8741901038912374
 31
0.0
  0
LINE
  5
4A4
100
AcDbEntity
  8
0
  6
DASHED
 62
               2
100
AcDbLine
 10
14.142135623730951
 20
8.4852813742386104
 30
0.0
 11
14.566399692442872
 21
8.9095454429505594
 31
0.0
  0
LINE
  5
4A5
100
AcDbEntity
  8
0
  6
DASHED
 62
               2
100
AcDbLine
 10
12.091525958289935
 20
12.798632739476574
 30
0.0
 11
12.798632739476488
 21
12.091525958290021
 31
0.0
  0
LINE
  5
4A6
100
AcDbEntity
  8
0
  6
DASHED
 62
               2
100
AcDbLine
 10
13.152186130069765
 20
13.859292911256404
 30
0.0
 11
12.091525958289935
 21
12.798632739476574
 31
0.0
  0
LINE
  5
4A7
100
AcDbEntity
  8
0
  6
DASHED
 62
               2
100
AcDbLine
 10
10.28840366626423
 20
16.015968593875357
 30
0.0
 11
10.995510447450783
 21
16.015968593875357
 31
0.0
  0
ARC
  5
4A8
100
AcDbEntity
  8
0
  6
DASHED
 62
               2
100
AcDbCircle
 10
5.1235610961754219
 20
12.154649514246188
 30
0.0
 40
7.0277716396203269
100
AcDbArc
 50
20.2546208573625
 51
33.328410201475762
  0
LINE
  5
4A9
100
AcDbEntity
  8
0
  6
DASHED
 62
               2
100
AcDbLine
 10
11.716759364261065
 20
14.58761289587855
 30
0.0
 11
10.302545801887959
 21
13.173399333505444
 31
0.0
  0
LINE
  5
4AA
100
AcDbEntity
  8
0
  6
DASHED
 62
               2
100
AcDbLine
 10
10.995510447450783
 20
16.015968593875357
 30
0.0
 11
13.152186130069765
 21
13.859292911256404
 31
0.0
  0
ARC
  5
4AB
100
AcDbEntity
  8
0
  6
DASHED
 62
               2
100
AcDbCircle
 10
10.440535532380409
 20
10.412952354407054
 30
0.0
 40
4.3653794686807261
100
AcDbArc
 50
51.834711780667043
 51
73.001229803738639
  0
LINE
  5
4AC
100
AcDbEntity
  8
0
  6
DASHED
 62
               2
100
AcDbLine
 10
8.4852813742385251
 20
14.142135623731008
 30
0.0
 11
8.9095454429505025
 21
14.566399692442957
 31
0.0
  0
LINE
  5
4AD
100
AcDbEntity
  8
0
  6
DASHED
 62
               2
100
AcDbLine
 10
10.28840366626423
 20
16.015968593875357
 30
0.0
 11
8.8741901038911237
 21
14.60175503150225
 31
0.0
  0
LINE
  5
4AE
100
AcDbEntity
  8
0
  6
DASHED
 62
               2
100
AcDbLine
 10
13.081475451951121
 20
9.5459415460184402
 30
0.0
 11
10.895512457154553
 21
7.3599785512219
 31
0.0
  0
ARC
  5
4AF
100
AcDbEntity
  8
0
  6
DASHED
 62
               2
100
AcDbCircle
 10
12.153944892329605
 20
5.1221656684585355
 30
0.0
 40
7.0293247160888015
100
AcDbArc
 50
56.673040373502339
 51
69.743928567659154
  0
LINE
  5
4B0
100
AcDbEntity
  8
0
  6
DASHED
 62
               2
100
AcDbLine
 10
14.587612895878465
 20
11.716759364261151
 30
0.0
 11
13.173399333505358
 21
10.302545801888073
 31
0.0
  0
LINE
  5
4B1
100
AcDbEntity
  8
0
  6
DASHED
 62
               2
100
AcDbLine
 10
13.859292911256318
 20
13.15218613006985
 30
0.0
 11
16.015968593875243
 21
10.995510447450869
 31
0.0
  0
LINE
  5
4B2
100
AcDbEntity
  8
0
  6
DASHED
 62
               2
100
AcDbLine
 10
13.859292911256318
 20
13.15218613006985
 30
0.0
 11
12.798632739476488
 21
12.091525958290021
 31
0.0
  0
ARC
  5
4B3
100
AcDbEntity
  8
0
  6
DASHED
 62
               2
100
AcDbCircle
 10
10.414259706814221
 20
10.441218477667917
 30
0.0
 40
4.363929581700825
100
AcDbArc
 50
16.995213414137279
 51
38.168845001456681
  0
LINE
  5
4B4
100
AcDbEntity
  8
0
  6
DASHED
 62
               2
100
AcDbLine
 10
16.015968593875243
 20
10.995510447450869
 30
0.0
 11
16.0159685938753
 21
10.288403666264344
 31
0.0
  0
LINE
  5
4B5
100
AcDbEntity
  8
0
  6
DASHED
 62
               2
100
AcDbLine
 10
12.798632739476488
 20
9.8287842584930729
 30
0.0
 11
10.433387590107998
 21
7.4635391091245822
 31
0.0
  0
LINE
  5
4B6
100
AcDbEntity
  8
0
  6
DASHED
 62
               2
100
AcDbLine
 10
8.8741901038911237
 20
14.60175503150225
 30
0.0
 11
14.601755031502194
 21
8.8741901038912374
 31
0.0
  0
LINE
  5
4B7
100
AcDbEntity
  8
0
  6
DASHED
 62
               2
100
AcDbLine
 10
7.9549512883486386
 20
14.672465709620923
 30
0.0
 11
14.672465709620838
 21
7.9549512883487239
 31
0.0
  0
ENDBLK
  5
4B8
100
AcDbEntity
  8
0
100
AcDbBlockEnd
  0
BLOCK
  5
4B9
100
AcDbEntity
  8
0
100
AcDbBlockBegin
  2
NCT40-10
 70
               0
 10
0.0
 20
0.0
 30
0.0
  3
NCT40-10
  1

  0
LINE
  5
4BA
100
AcDbEntity
  8
0
  6
CENTER
 62
               2
100
AcDbLine
 10
-16.400000458838377
 20
-31.522496234583798
 30
0.0
 11
-16.400000458838349
 21
-10.75015682154114
 31
0.0
  0
LINE
  5
4BB
100
AcDbEntity
  8
0
  6
CONTINUOUS
 62
               7
100
AcDbLine
 10
-19.400000458838349
 20
-12.350156821541134
 30
0.0
 11
-19.400000458838349
 21
-11.950156821541128
 31
0.0
  0
LINE
  5
4BC
100
AcDbEntity
  8
0
  6
CONTINUOUS
 62
               7
100
AcDbLine
 10
-15.73129759808802
 20
-12.350156821541134
 30
0.0
 11
-19.400000458838349
 21
-12.350156821541134
 31
0.0
  0
LINE
  5
4BD
100
AcDbEntity
  8
0
  6
CONTINUOUS
 62
               7
100
AcDbLine
 10
-14.650000458838349
 20
-14.850156821541134
 30
0.0
 11
-14.650000458838349
 21
-13.850156821541134
 31
0.0
  0
LINE
  5
4BE
100
AcDbEntity
  8
0
  6
CONTINUOUS
 62
               7
100
AcDbLine
 10
-18.150000458838349
 20
-14.850156821541134
 30
0.0
 11
-18.150000458838349
 21
-13.850156821541134
 31
0.0
  0
LINE
  5
4BF
100
AcDbEntity
  8
0
  6
CONTINUOUS
 62
               7
100
AcDbLine
 10
-13.971429030266933
 20
-16.350156821541134
 30
0.0
 11
-13.75714331598121
 21
-14.850156821541134
 31
0.0
  0
LINE
  5
4C0
100
AcDbEntity
  8
0
  6
CONTINUOUS
 62
               7
100
AcDbLine
 10
-18.828571887409794
 20
-16.350156821541134
 30
0.0
 11
-19.042857601695516
 21
-14.850156821541134
 31
0.0
  0
LINE
  5
4C1
100
AcDbEntity
  8
0
  6
CONTINUOUS
 62
               7
100
AcDbLine
 10
-14.428210782306053
 20
-13.850156821541134
 30
0.0
 11
-19.185714744552655
 21
-13.850156821541134
 31
0.0
  0
LINE
  5
4C2
100
AcDbEntity
  8
0
  6
CONTINUOUS
 62
               7
100
AcDbLine
 10
-13.75714331598121
 20
-14.850156821541134
 30
0.0
 11
-19.042857601695516
 21
-14.850156821541134
 31
0.0
  0
LINE
  5
4C3
100
AcDbEntity
  8
0
  6
CONTINUOUS
 62
               7
100
AcDbLine
 10
-13.971429030266933
 20
-16.350156821541134
 30
0.0
 11
-18.828571887409794
 21
-16.350156821541134
 31
0.0
  0
LINE
  5
4C4
100
AcDbEntity
  8
0
  6
CONTINUOUS
 62
               7
100
AcDbLine
 10
-19.185714744552655
 20
-13.850156821541134
 30
0.0
 11
-19.400000458838349
 21
-12.350156821541134
 31
0.0
  0
LINE
  5
4C5
100
AcDbEntity
  8
0
  6
CONTINUOUS
 62
               7
100
AcDbLine
 10
-14.20000045883836
 20
-37.072806516476248
 30
0.0
 11
-12.600000458838366
 21
-37.072806516476248
 31
0.0
  0
LINE
  5
4C6
100
AcDbEntity
  8
0
  6
CONTINUOUS
 62
               7
100
AcDbLine
 10
-17.20000045883836
 20
-37.072806516476248
 30
0.0
 11
-15.600000458838366
 21
-37.072806516476248
 31
0.0
  0
LINE
  5
4C7
100
AcDbEntity
  8
0
  6
CONTINUOUS
 62
               7
100
AcDbLine
 10
-20.20000045883836
 20
-37.072806516476248
 30
0.0
 11
-18.600000458838366
 21
-37.072806516476248
 31
0.0
  0
LINE
  5
4C8
100
AcDbEntity
  8
0
  6
CONTINUOUS
 62
               7
100
AcDbLine
 10
-12.600000458094542
 20
-49.37979066930734
 30
0.0
 11
-14.20000045883836
 21
-49.37979066930734
 31
0.0
  0
LINE
  5
4C9
100
AcDbEntity
  8
0
  6
CONTINUOUS
 62
               7
100
AcDbLine
 10
-13.100000458094542
 20
-49.579790669307386
 30
0.0
 11
-13.700000458466462
 21
-49.579790669307386
 31
0.0
  0
LINE
  5
4CA
100
AcDbEntity
  8
0
  6
CONTINUOUS
 62
               7
100
AcDbLine
 10
-13.100000458466468
 20
-49.379790680025963
 30
0.0
 11
-13.100000458466468
 21
-49.579790669307386
 31
0.0
  0
LINE
  5
4CB
100
AcDbEntity
  8
0
  6
CONTINUOUS
 62
               7
100
AcDbLine
 10
-13.700000458466462
 20
-49.379790680025963
 30
0.0
 11
-13.700000458466462
 21
-49.579790669307386
 31
0.0
  0
LINE
  5
4CC
100
AcDbEntity
  8
0
  6
CONTINUOUS
 62
               7
100
AcDbLine
 10
-12.600000458094542
 20
-38.526100373048166
 30
0.0
 11
-14.20000045883836
 21
-38.526100373048166
 31
0.0
  0
LINE
  5
4CD
100
AcDbEntity
  8
0
  6
CONTINUOUS
 62
               7
100
AcDbLine
 10
-12.600000458094542
 20
-39.579790669307386
 30
0.0
 11
-14.20000045883836
 21
-39.579790669307386
 31
0.0
  0
LINE
  5
4CE
100
AcDbEntity
  8
0
  6
CONTINUOUS
 62
               7
100
AcDbLine
 10
-12.600000458094542
 20
-42.37979066930734
 30
0.0
 11
-14.20000045883836
 21
-42.37979066930734
 31
0.0
  0
LINE
  5
4CF
100
AcDbEntity
  8
0
  6
CONTINUOUS
 62
               7
100
AcDbLine
 10
-12.600000458094542
 20
-43.12979066930734
 30
0.0
 11
-14.20000045883836
 21
-43.12979066930734
 31
0.0
  0
LINE
  5
4D0
100
AcDbEntity
  8
0
  6
CONTINUOUS
 62
               7
100
AcDbLine
 10
-12.600000458094542
 20
-45.37979066930734
 30
0.0
 11
-14.20000045883836
 21
-45.37979066930734
 31
0.0
  0
LINE
  5
4D1
100
AcDbEntity
  8
0
  6
CONTINUOUS
 62
               7
100
AcDbLine
 10
-12.600000458094542
 20
-48.87979066930734
 30
0.0
 11
-14.20000045883836
 21
-48.87979066930734
 31
0.0
  0
LINE
  5
4D2
100
AcDbEntity
  8
0
  6
CONTINUOUS
 62
               7
100
AcDbLine
 10
-15.600000458094542
 20
-48.87979066930734
 30
0.0
 11
-17.20000045883836
 21
-48.87979066930734
 31
0.0
  0
LINE
  5
4D3
100
AcDbEntity
  8
0
  6
CONTINUOUS
 62
               7
100
AcDbLine
 10
-15.600000458094542
 20
-45.37979066930734
 30
0.0
 11
-17.20000045883836
 21
-45.37979066930734
 31
0.0
  0
LINE
  5
4D4
100
AcDbEntity
  8
0
  6
CONTINUOUS
 62
               7
100
AcDbLine
 10
-15.600000458094542
 20
-43.12979066930734
 30
0.0
 11
-17.20000045883836
 21
-43.12979066930734
 31
0.0
  0
LINE
  5
4D5
100
AcDbEntity
  8
0
  6
CONTINUOUS
 62
               7
100
AcDbLine
 10
-15.600000458094542
 20
-42.37979066930734
 30
0.0
 11
-17.20000045883836
 21
-42.37979066930734
 31
0.0
  0
LINE
  5
4D6
100
AcDbEntity
  8
0
  6
CONTINUOUS
 62
               7
100
AcDbLine
 10
-15.600000458094542
 20
-39.579790669307386
 30
0.0
 11
-17.20000045883836
 21
-39.579790669307386
 31
0.0
  0
LINE
  5
4D7
100
AcDbEntity
  8
0
  6
CONTINUOUS
 62
               7
100
AcDbLine
 10
-15.600000458094542
 20
-38.526100373048166
 30
0.0
 11
-17.20000045883836
 21
-38.526100373048166
 31
0.0
  0
LINE
  5
4D8
100
AcDbEntity
  8
0
  6
CONTINUOUS
 62
               7
100
AcDbLine
 10
-16.700000458466462
 20
-49.379790680025963
 30
0.0
 11
-16.700000458466462
 21
-49.579790669307386
 31
0.0
  0
LINE
  5
4D9
100
AcDbEntity
  8
0
  6
CONTINUOUS
 62
               7
100
AcDbLine
 10
-16.100000458466468
 20
-49.379790680025963
 30
0.0
 11
-16.100000458466468
 21
-49.579790669307386
 31
0.0
  0
LINE
  5
4DA
100
AcDbEntity
  8
0
  6
CONTINUOUS
 62
               7
100
AcDbLine
 10
-16.100000458094542
 20
-49.579790669307386
 30
0.0
 11
-16.700000458466462
 21
-49.579790669307386
 31
0.0
  0
LINE
  5
4DB
100
AcDbEntity
  8
0
  6
CONTINUOUS
 62
               7
100
AcDbLine
 10
-15.600000458094542
 20
-49.37979066930734
 30
0.0
 11
-17.20000045883836
 21
-49.37979066930734
 31
0.0
  0
LINE
  5
4DC
100
AcDbEntity
  8
0
  6
CONTINUOUS
 62
               7
100
AcDbLine
 10
-18.600000458094542
 20
-48.87979066930734
 30
0.0
 11
-20.20000045883836
 21
-48.87979066930734
 31
0.0
  0
LINE
  5
4DD
100
AcDbEntity
  8
0
  6
CONTINUOUS
 62
               7
100
AcDbLine
 10
-18.600000458094542
 20
-45.37979066930734
 30
0.0
 11
-20.20000045883836
 21
-45.37979066930734
 31
0.0
  0
LINE
  5
4DE
100
AcDbEntity
  8
0
  6
CONTINUOUS
 62
               7
100
AcDbLine
 10
-18.600000458094542
 20
-43.12979066930734
 30
0.0
 11
-20.20000045883836
 21
-43.12979066930734
 31
0.0
  0
LINE
  5
4DF
100
AcDbEntity
  8
0
  6
CONTINUOUS
 62
               7
100
AcDbLine
 10
-18.600000458094542
 20
-42.37979066930734
 30
0.0
 11
-20.20000045883836
 21
-42.37979066930734
 31
0.0
  0
LINE
  5
4E0
100
AcDbEntity
  8
0
  6
CONTINUOUS
 62
               7
100
AcDbLine
 10
-18.600000458094542
 20
-39.579790669307386
 30
0.0
 11
-20.20000045883836
 21
-39.579790669307386
 31
0.0
  0
LINE
  5
4E1
100
AcDbEntity
  8
0
  6
CONTINUOUS
 62
               7
100
AcDbLine
 10
-18.600000458094542
 20
-38.526100373048166
 30
0.0
 11
-20.20000045883836
 21
-38.526100373048166
 31
0.0
  0
LINE
  5
4E2
100
AcDbEntity
  8
0
  6
CONTINUOUS
 62
               7
100
AcDbLine
 10
-19.700000458466462
 20
-49.379790680025963
 30
0.0
 11
-19.700000458466462
 21
-49.579790669307386
 31
0.0
  0
LINE
  5
4E3
100
AcDbEntity
  8
0
  6
CONTINUOUS
 62
               7
100
AcDbLine
 10
-19.100000458466468
 20
-49.379790680025963
 30
0.0
 11
-19.100000458466468
 21
-49.579790669307386
 31
0.0
  0
LINE
  5
4E4
100
AcDbEntity
  8
0
  6
CONTINUOUS
 62
               7
100
AcDbLine
 10
-19.100000458094542
 20
-49.579790669307386
 30
0.0
 11
-19.700000458466462
 21
-49.579790669307386
 31
0.0
  0
LINE
  5
4E5
100
AcDbEntity
  8
0
  6
CONTINUOUS
 62
               7
100
AcDbLine
 10
-18.600000458094542
 20
-49.37979066930734
 30
0.0
 11
-20.20000045883836
 21
-49.37979066930734
 31
0.0
  0
LINE
  5
4E6
100
AcDbEntity
  8
0
  6
CONTINUOUS
 62
               7
100
AcDbLine
 10
-20.20000045883836
 20
-49.37979066930734
 30
0.0
 11
-20.20000045883836
 21
-37.072806516476248
 31
0.0
  0
LINE
  5
4E7
100
AcDbEntity
  8
0
  6
CONTINUOUS
 62
               7
100
AcDbLine
 10
-18.600000458838366
 20
-49.37979066930734
 30
0.0
 11
-18.600000458838366
 21
-37.072806516476248
 31
0.0
  0
LINE
  5
4E8
100
AcDbEntity
  8
0
  6
CONTINUOUS
 62
               7
100
AcDbLine
 10
-17.20000045883836
 20
-49.37979066930734
 30
0.0
 11
-17.20000045883836
 21
-37.072806516476248
 31
0.0
  0
LINE
  5
4E9
100
AcDbEntity
  8
0
  6
CONTINUOUS
 62
               7
100
AcDbLine
 10
-15.600000458838366
 20
-49.37979066930734
 30
0.0
 11
-15.600000458838366
 21
-37.072806516476248
 31
0.0
  0
LINE
  5
4EA
100
AcDbEntity
  8
0
  6
CONTINUOUS
 62
               7
100
AcDbLine
 10
-14.20000045883836
 20
-49.37979066930734
 30
0.0
 11
-14.20000045883836
 21
-37.072806516476248
 31
0.0
  0
LINE
  5
4EB
100
AcDbEntity
  8
0
  6
CONTINUOUS
 62
               7
100
AcDbLine
 10
-12.600000458838366
 20
-49.37979066930734
 30
0.0
 11
-12.600000458838366
 21
-37.072806516476248
 31
0.0
  0
LINE
  5
4EC
100
AcDbEntity
  8
0
  6
CONTINUOUS
 62
               7
100
AcDbLine
 10
-15.550000458838355
 20
-24.850156821541134
 30
0.0
 11
-15.550000458838355
 21
-25.897528888135241
 31
0.0
  0
ARC
  5
4ED
100
AcDbEntity
  8
0
  6
CONTINUOUS
 62
               7
100
AcDbCircle
 10
-18.000000458838372
 20
-33.501525224365992
 30
0.0
 40
5.0
100
AcDbArc
 50
0.0
 51
29.999999999999904
  0
ARC
  5
4EE
100
AcDbEntity
  8
0
  6
CONTINUOUS
 62
               7
100
AcDbCircle
 10
-18.800000458838355
 20
-33.71588457831092
 30
0.0
 40
5.0
100
AcDbArc
 50
0.0
 51
29.999999999999904
  0
ARC
  5
4EF
100
AcDbEntity
  8
0
  6
CONTINUOUS
 62
               7
100
AcDbCircle
 10
-14.800000458838355
 20
-33.501525224365992
 30
0.0
 40
5.0
100
AcDbArc
 50
149.99999999999966
 51
179.99999999999963
  0
ARC
  5
4F0
100
AcDbEntity
  8
0
  6
CONTINUOUS
 62
               7
100
AcDbCircle
 10
-14.000000458838372
 20
-33.71588457831092
 30
0.0
 40
5.0
100
AcDbArc
 50
149.99999999999966
 51
179.99999999999963
  0
LINE
  5
4F1
100
AcDbEntity
  8
0
  6
CONTINUOUS
 62
               7
100
AcDbLine
 10
-16.082051266407234
 20
-28.423510671992403
 30
0.0
 11
-14.469873439916171
 21
-31.21588457831092
 31
0.0
  0
LINE
  5
4F2
100
AcDbEntity
  8
0
  6
CONTINUOUS
 62
               7
100
AcDbLine
 10
-15.282051266407251
 20
-28.209151318047532
 30
0.0
 11
-13.669873439916159
 21
-31.001525224365992
 31
0.0
  0
LINE
  5
4F3
100
AcDbEntity
  8
0
  6
CONTINUOUS
 62
               7
100
AcDbLine
 10
-16.717949651269493
 20
-28.423510671992403
 30
0.0
 11
-18.330127477760556
 21
-31.21588457831092
 31
0.0
  0
LINE
  5
4F4
100
AcDbEntity
  8
0
  6
CONTINUOUS
 62
               7
100
AcDbLine
 10
-17.517949651269475
 20
-28.209151318047532
 30
0.0
 11
-19.130127477760567
 21
-31.001525224365992
 31
0.0
  0
LINE
  5
4F5
100
AcDbEntity
  8
0
  6
CONTINUOUS
 62
               7
100
AcDbLine
 10
-13.800000458838355
 20
-37.072806516476248
 30
0.0
 11
-13.800000458838355
 21
-33.71588457831092
 31
0.0
  0
LINE
  5
4F6
100
AcDbEntity
  8
0
  6
CONTINUOUS
 62
               7
100
AcDbLine
 10
-13.000000458838372
 20
-37.072806516476248
 30
0.0
 11
-13.000000458838372
 21
-33.501525224365992
 31
0.0
  0
LINE
  5
4F7
100
AcDbEntity
  8
0
  6
CONTINUOUS
 62
               7
100
AcDbLine
 10
-19.800000458838355
 20
-37.072806516476248
 30
0.0
 11
-19.800000458838355
 21
-33.501525224365992
 31
0.0
  0
LINE
  5
4F8
100
AcDbEntity
  8
0
  6
CONTINUOUS
 62
               7
100
AcDbLine
 10
-19.000000458838372
 20
-37.072806516476248
 30
0.0
 11
-19.000000458838372
 21
-33.71588457831092
 31
0.0
  0
LINE
  5
4F9
100
AcDbEntity
  8
0
  6
CONTINUOUS
 62
               7
100
AcDbLine
 10
-15.550000458838355
 20
-26.821289272955909
 30
0.0
 11
-15.550000458838355
 21
-27.209151318047532
 31
0.0
  0
LINE
  5
4FA
100
AcDbEntity
  8
0
  6
CONTINUOUS
 62
               7
100
AcDbLine
 10
-16.350000458838366
 20
-27.283169487964983
 30
0.0
 11
-16.350000458838366
 21
-27.423510671992432
 31
0.0
  0
LINE
  5
4FB
100
AcDbEntity
  8
0
  6
CONTINUOUS
 62
               7
100
AcDbLine
 10
-16.45000045883836
 20
-27.3409045148411
 30
0.0
 11
-16.45000045883836
 21
-27.423510671992432
 31
0.0
  0
LINE
  5
4FC
100
AcDbEntity
  8
0
  6
CONTINUOUS
 62
               7
100
AcDbLine
 10
-16.000000458838372
 20
-37.072806516476248
 30
0.0
 11
-16.000000458838372
 21
-28.565626839503807
 31
0.0
  0
LINE
  5
4FD
100
AcDbEntity
  8
0
  6
CONTINUOUS
 62
               7
100
AcDbLine
 10
-16.800000458838355
 20
-37.072806516476248
 30
0.0
 11
-16.800000458838355
 21
-28.565626839503807
 31
0.0
  0
ARC
  5
4FE
100
AcDbEntity
  8
0
  6
CONTINUOUS
 62
               7
100
AcDbCircle
 10
-13.550000458838355
 20
-27.209151318047532
 30
0.0
 40
2.0
100
AcDbArc
 50
179.99999999999963
 51
209.99999999999955
  0
ARC
  5
4FF
100
AcDbEntity
  8
0
  6
CONTINUOUS
 62
               7
100
AcDbCircle
 10
-14.350000458838366
 20
-27.423510671992432
 30
0.0
 40
2.0
100
AcDbArc
 50
179.99999999999963
 51
209.99999999999955
  0
ARC
  5
500
100
AcDbEntity
  8
0
  6
CONTINUOUS
 62
               7
100
AcDbCircle
 10
-18.45000045883836
 20
-27.423510671992432
 30
0.0
 40
2.0
100
AcDbArc
 50
329.99999999999926
 51
0.0
  0
ARC
  5
501
100
AcDbEntity
  8
0
  6
CONTINUOUS
 62
               7
100
AcDbCircle
 10
-19.250000458838372
 20
-27.209151318047532
 30
0.0
 40
2.0
100
AcDbArc
 50
329.9999999999992
 51
340.79511110182767
  0
LINE
  5
502
100
AcDbEntity
  8
0
  6
PHANTOM
 62
               2
100
AcDbLine
 10
-14.90000045937316
 20
-26.446011598569839
 30
0.0
 11
-17.90000045937316
 21
-28.17806240485379
 31
0.0
  0
LINE
  5
503
100
AcDbEntity
  8
0
  6
CONTINUOUS
 62
               7
100
AcDbLine
 10
-16.350000458838366
 20
-24.850156821541134
 30
0.0
 11
-16.350000458838366
 21
-26.359409102529582
 31
0.0
  0
LINE
  5
504
100
AcDbEntity
  8
0
  6
CONTINUOUS
 62
               7
100
AcDbLine
 10
-16.45000045883836
 20
-24.850156821541134
 30
0.0
 11
-16.45000045883836
 21
-26.417144129328875
 31
0.0
  0
LINE
  5
505
100
AcDbEntity
  8
0
  6
CONTINUOUS
 62
               7
100
AcDbLine
 10
-17.250000458838372
 20
-24.850156821541134
 30
0.0
 11
-17.250000458838372
 21
-26.879024343723188
 31
0.0
  0
LINE
  5
506
100
AcDbEntity
  8
0
  6
PHANTOM
 62
               2
100
AcDbLine
 10
-14.90000045937316
 20
-25.522251214248627
 30
0.0
 11
-17.900000489175483
 21
-27.254302035433739
 31
0.0
  0
LINE
  5
507
100
AcDbEntity
  8
0
  6
CONTINUOUS
 62
               7
100
AcDbLine
 10
-15.100000458838366
 20
-24.850156821541134
 30
0.0
 11
-17.70000045883836
 21
-24.850156821541134
 31
0.0
  0
LINE
  5
508
100
AcDbEntity
  8
0
  6
CONTINUOUS
 62
               7
100
AcDbLine
 10
-17.70000045883836
 20
-23.312592371748821
 30
0.0
 11
-17.70000045883836
 21
-24.850156821541134
 31
0.0
  0
LINE
  5
509
100
AcDbEntity
  8
0
  6
PHANTOM
 62
               2
100
AcDbLine
 10
-14.500000453412696
 20
-21.465071509940088
 30
0.0
 11
-18.300000495135947
 21
-23.659002553088129
 31
0.0
  0
LINE
  5
50A
100
AcDbEntity
  8
0
  6
CONTINUOUS
 62
               7
100
AcDbLine
 10
-15.100000458838366
 20
-21.811481671855773
 30
0.0
 11
-15.100000458838366
 21
-24.850156821541134
 31
0.0
  0
LINE
  5
50B
100
AcDbEntity
  8
0
  6
CONTINUOUS
 62
               7
100
AcDbLine
 10
-14.114286173124071
 20
-17.350156821541134
 30
0.0
 11
-18.685714744552655
 21
-17.350156821541134
 31
0.0
  0
LINE
  5
50C
100
AcDbEntity
  8
0
  6
CONTINUOUS
 62
               7
100
AcDbLine
 10
-14.400000458838349
 20
-19.350156821541134
 30
0.0
 11
-14.114286173124071
 21
-17.350156821541134
 31
0.0
  0
LINE
  5
50D
100
AcDbEntity
  8
0
  6
CONTINUOUS
 62
               7
100
AcDbLine
 10
-18.400000458838349
 20
-19.350156821541134
 30
0.0
 11
-18.685714744552655
 21
-17.350156821541134
 31
0.0
  0
LINE
  5
50E
100
AcDbEntity
  8
0
  6
CONTINUOUS
 62
               7
100
AcDbLine
 10
-14.400000458838349
 20
-19.350156821541134
 30
0.0
 11
-18.400000458838349
 21
-19.350156821541134
 31
0.0
  0
LINE
  5
50F
100
AcDbEntity
  8
0
  6
CONTINUOUS
 62
               7
100
AcDbLine
 10
-15.100000458838366
 20
-19.350156821541134
 30
0.0
 11
-15.100000458838366
 21
-20.887721272633399
 31
0.0
  0
LINE
  5
510
100
AcDbEntity
  8
0
  6
CONTINUOUS
 62
               7
100
AcDbLine
 10
-17.70000045883836
 20
-19.350156821541134
 30
0.0
 11
-17.70000045883836
 21
-22.388831972526447
 31
0.0
  0
LINE
  5
511
100
AcDbEntity
  8
0
  6
PHANTOM
 62
               2
100
AcDbLine
 10
-14.500000483215018
 20
-20.541311110717714
 30
0.0
 11
-18.300000495135947
 21
-22.735242138964594
 31
0.0
  0
LINE
  5
512
100
AcDbEntity
  8
0
  6
CONTINUOUS
 62
               7
100
AcDbLine
 10
-18.150000458838349
 20
-17.350156821541134
 30
0.0
 11
-18.150000458838349
 21
-16.350156821541134
 31
0.0
  0
LINE
  5
513
100
AcDbEntity
  8
0
  6
CONTINUOUS
 62
               7
100
AcDbLine
 10
-14.650000458838349
 20
-17.350156821541134
 30
0.0
 11
-14.650000458838349
 21
-16.350156821541134
 31
0.0
  0
LINE
  5
514
100
AcDbEntity
  8
0
  6
CONTINUOUS
 62
               7
100
AcDbLine
 10
-19.182320742938771
 20
7.912664254745664
 30
0.0
 11
-19.504363726587542
 21
7.9083256061220197
 31
0.0
  0
ARC
  5
515
100
AcDbEntity
  8
0
  6
CONTINUOUS
 62
               7
100
AcDbCircle
 10
-18.900000458838377
 20
7.4999957955856758
 30
0.0
 40
0.5
100
AcDbArc
 50
89.999999999999815
 51
179.99999999999963
  0
ARC
  5
516
100
AcDbEntity
  8
0
  6
CONTINUOUS
 62
               7
100
AcDbCircle
 10
-18.900000458838377
 20
5.4999957955856758
 30
0.0
 40
0.5
100
AcDbArc
 50
179.99999999999966
 51
215.1392225888184
  0
LINE
  5
517
100
AcDbEntity
  8
0
  6
CONTINUOUS
 62
               7
100
AcDbLine
 10
-18.800000458838383
 20
7.9999957955856758
 30
0.0
 11
-18.900000458838377
 21
7.9999957955856758
 31
0.0
  0
LINE
  5
518
100
AcDbEntity
  8
0
  6
CONTINUOUS
 62
               7
100
AcDbLine
 10
-19.400000458838377
 20
5.4999957955856758
 30
0.0
 11
-19.400000458838377
 21
7.4999957955856758
 31
0.0
  0
CIRCLE
  5
519
100
AcDbEntity
  8
0
  6
CONTINUOUS
 62
               4
100
AcDbCircle
 10
-8.349999054884961
 20
-14.462625780343842
 30
0.0
 40
3.0
  0
CIRCLE
  5
51A
100
AcDbEntity
  8
0
  6
CONTINUOUS
 62
               4
100
AcDbCircle
 10
-8.3499991013387103
 20
14.462622696181768
 30
0.0
 40
3.0
  0
CIRCLE
  5
51B
100
AcDbEntity
  8
0
  6
CONTINUOUS
 62
               4
100
AcDbCircle
 10
16.700000930439842
 20
-0.0000018658197405
 30
0.0
 40
3.0
  0
LINE
  5
51C
100
AcDbEntity
  8
0
  6
CENTER
 62
               2
100
AcDbLine
 10
0.0
 20
21.999995875710738
 30
0.0
 11
0.0
 21
-22.000004124289234
 31
0.0
  0
CIRCLE
  5
51D
100
AcDbEntity
  8
0
  6
CONTINUOUS
 62
               7
100
AcDbCircle
 10
0.0000002313366281
 20
-0.0000040795565042
 30
0.0
 40
5.0
  0
CIRCLE
  5
51E
100
AcDbEntity
  8
0
  6
CENTER
 62
               2
100
AcDbCircle
 10
0.0000001346027716
 20
-0.0000041242892621
 30
0.0
 40
16.699999999999999
  0
LINE
  5
51F
100
AcDbEntity
  8
0
  6
CENTER
 62
               2
100
AcDbLine
 10
-11.527660515978027
 20
19.966493719206852
 30
0.0
 11
0.0000009805077639
 21
-0.0000016982892532
 31
0.0
  0
ARC
  5
520
100
AcDbEntity
  8
0
  6
CONTINUOUS
 62
               7
100
AcDbCircle
 10
0.0000008280757697
 20
-0.0000014342692793
 30
0.0
 40
14.66
100
AcDbArc
 50
8.0613257021781948
 51
111.93867194294634
  0
CIRCLE
  5
521
100
AcDbEntity
  8
0
  6
CONTINUOUS
 62
               7
100
AcDbCircle
 10
0.0000002814044819
 20
-0.0000042491747649
 30
0.0
 40
6.0
  0
ARC
  5
522
100
AcDbEntity
  8
0
  6
CONTINUOUS
 62
               7
100
AcDbCircle
 10
0.0000008280757697
 20
-0.0000014342692793
 30
0.0
 40
14.66
100
AcDbArc
 50
128.06132802442997
 51
231.93867307967659
  0
ARC
  5
523
100
AcDbEntity
  8
0
  6
CONTINUOUS
 62
               7
100
AcDbCircle
 10
0.0000008280757697
 20
-0.0000014342692793
 30
0.0
 40
14.66
100
AcDbArc
 50
248.06132796877475
 51
351.93867133662104
  0
LINE
  5
524
100
AcDbEntity
  8
0
  6
CENTER
 62
               2
100
AcDbLine
 10
0.0000009209031191
 20
-0.0000015790799353
 30
0.0
 11
-11.694826051975639
 21
-20.256036081832917
 31
0.0
  0
CIRCLE
  5
525
100
AcDbEntity
  8
0
  6
CONTINUOUS
 62
               7
100
AcDbCircle
 10
0.0000001346027716
 20
-0.0000041242892621
 30
0.0
 40
20.0
  0
LINE
  5
526
100
AcDbEntity
  8
0
  6
CENTER
 62
               2
100
AcDbLine
 10
-21.448512384891529
 20
-0.0000041100125827
 30
0.0
 11
23.300140334993159
 21
-0.0000041100125827
 31
0.0
  0
LINE
  5
527
100
AcDbEntity
  8
0
  6
CONTINUOUS
 62
               7
100
AcDbLine
 10
-16.033584725905712
 20
-11.955093271630375
 30
0.0
 11
-19.504363726587542
 21
-11.908334014950583
 31
0.0
  0
ARC
  5
528
100
AcDbEntity
  8
0
  6
CONTINUOUS
 62
               7
100
AcDbCircle
 10
-19.500000458838343
 20
-11.408353053418494
 30
0.0
 40
0.5
100
AcDbArc
 50
179.99999999999963
 51
269.49999999999943
  0
LINE
  5
529
100
AcDbEntity
  8
0
  6
CONTINUOUS
 62
               7
100
AcDbLine
 10
-19.39046145828425
 20
4.8999957955856814
 30
0.0
 11
-20.000000458838343
 21
4.8999957955856814
 31
0.0
  0
LINE
  5
52A
100
AcDbEntity
  8
0
  6
CONTINUOUS
 62
               7
100
AcDbLine
 10
-18.800000458838383
 20
7.9999957955856758
 30
0.0
 11
-18.800000458838383
 21
6.823483084360987
 31
0.0
  0
LINE
  5
52B
100
AcDbEntity
  8
0
  6
CONTINUOUS
 62
               7
100
AcDbLine
 10
-18.36341359571702
 20
7.9236967893687051
 30
0.0
 11
-18.800000458838383
 21
7.9178149751731723
 31
0.0
  0
ARC
  5
52C
100
AcDbEntity
  8
0
  6
CONTINUOUS
 62
               7
100
AcDbCircle
 10
-19.500000458838372
 20
7.4083446445899312
 30
0.0
 40
0.5
100
AcDbArc
 50
90.499999999999744
 51
179.99999999999963
  0
LINE
  5
52D
100
AcDbEntity
  8
0
  6
CENTER
 62
               2
100
AcDbLine
 10
-18.195857445689455
 20
6.4999957955856758
 30
0.0
 11
-20.435449749898709
 21
6.4999957955856758
 31
0.0
  0
LINE
  5
52E
100
AcDbEntity
  8
0
  6
CONTINUOUS
 62
               7
100
AcDbLine
 10
-20.000000458838372
 20
7.4083446445899312
 30
0.0
 11
-20.000000458838372
 21
-11.408353053418494
 31
0.0
  0
ENDBLK
  5
52F
100
AcDbEntity
  8
0
100
AcDbBlockEnd
  0
BLOCK
  5
530
100
AcDbEntity
  8
0
100
AcDbBlockBegin
  2
NCT40-11
 70
               0
 10
0.0
 20
0.0
 30
0.0
  3
NCT40-11
  1

  0
LINE
  5
531
100
AcDbEntity
  8
0
  6
CENTER
 62
               2
100
AcDbLine
 10
0.0
 20
22.0
 30
0.0
 11
0.0
 21
-22.0
 31
0.0
  0
CIRCLE
  5
532
100
AcDbEntity
  8
0
  6
CONTINUOUS
 62
               7
100
AcDbCircle
 10
0.0
 20
0.0
 30
0.0
 40
20.0
  0
CIRCLE
  5
533
100
AcDbEntity
  8
0
  6
CONTINUOUS
 62
               7
100
AcDbCircle
 10
-11.313708498984738
 20
-11.313708498984738
 30
0.0
 40
1.6499999999999999
  0
CIRCLE
  5
534
100
AcDbEntity
  8
0
  6
CONTINUOUS
 62
               7
100
AcDbCircle
 10
-11.313708498984738
 20
11.313708498984795
 30
0.0
 40
1.6499999999999999
  0
CIRCLE
  5
535
100
AcDbEntity
  8
0
  6
CONTINUOUS
 62
               7
100
AcDbCircle
 10
11.313708498984795
 20
11.313708498984795
 30
0.0
 40
1.6499999999999999
  0
CIRCLE
  5
536
100
AcDbEntity
  8
0
  6
CONTINUOUS
 62
               7
100
AcDbCircle
 10
11.313708498984738
 20
-11.313708498984738
 30
0.0
 40
1.6499999999999999
  0
CIRCLE
  5
537
100
AcDbEntity
  8
0
  6
CONTINUOUS
 62
               2
100
AcDbCircle
 10
11.313708498984738
 20
-11.313708498984738
 30
0.0
 40
2.0
  0
CIRCLE
  5
538
100
AcDbEntity
  8
0
  6
CONTINUOUS
 62
               2
100
AcDbCircle
 10
-11.313708498984738
 20
-11.313708498984738
 30
0.0
 40
2.0
  0
CIRCLE
  5
539
100
AcDbEntity
  8
0
  6
CONTINUOUS
 62
               2
100
AcDbCircle
 10
-11.313708498984738
 20
11.313708498984795
 30
0.0
 40
2.0
  0
CIRCLE
  5
53A
100
AcDbEntity
  8
0
  6
CONTINUOUS
 62
               2
100
AcDbCircle
 10
11.313708498984795
 20
11.313708498984795
 30
0.0
 40
2.0
  0
CIRCLE
  5
53B
100
AcDbEntity
  8
0
  6
CENTER
 62
               2
100
AcDbCircle
 10
0.0
 20
0.0000000000000284
 30
0.0
 40
16.0
  0
LINE
  5
53C
100
AcDbEntity
  8
0
  6
CENTER
 62
               2
100
AcDbLine
 10
15.556349186104057
 20
15.556349186104057
 30
0.0
 11
-15.556349186104057
 21
-15.556349186104001
 31
0.0
  0
LINE
  5
53D
100
AcDbEntity
  8
0
  6
CENTER
 62
               2
100
AcDbLine
 10
-15.556349186104057
 20
15.556349186104057
 30
0.0
 11
15.556349186104057
 21
-15.556349186104029
 31
0.0
  0
CIRCLE
  5
53E
100
AcDbEntity
  8
0
  6
CONTINUOUS
 62
               7
100
AcDbCircle
 10
0.0
 20
0.0
 30
0.0
 40
19.0
  0
LINE
  5
53F
100
AcDbEntity
  8
0
  6
CENTER
 62
               2
100
AcDbLine
 10
22.0
 20
0.0
 30
0.0
 11
-22.0
 21
0.0
 31
0.0
  0
CIRCLE
  5
540
100
AcDbEntity
  8
0
  6
CONTINUOUS
 62
               7
100
AcDbCircle
 10
0.0
 20
0.0
 30
0.0
 40
2.1000000000000001
  0
CIRCLE
  5
541
100
AcDbEntity
  8
0
  6
CONTINUOUS
 62
               2
100
AcDbCircle
 10
0.0
 20
0.0
 30
0.0
 40
2.5
  0
LINE
  5
542
100
AcDbEntity
  8
0
  6
DASHED
 62
               2
100
AcDbLine
 10
4.7500000000000568
 20
-16.000000000000057
 30
0.0
 11
-4.7499999999999432
 21
-16.000000000000057
 31
0.0
  0
LINE
  5
543
100
AcDbEntity
  8
0
  6
DASHED
 62
               2
100
AcDbLine
 10
4.0500000000000682
 20
-16.600000000000023
 30
0.0
 11
-4.0499999999999545
 21
-16.600000000000023
 31
0.0
  0
LINE
  5
544
100
AcDbEntity
  8
0
  6
DASHED
 62
               2
100
AcDbLine
 10
2.5000000000000568
 20
-16.000000000000057
 30
0.0
 11
2.5000000000000568
 21
-12.655038231425976
 31
0.0
  0
LINE
  5
545
100
AcDbEntity
  8
0
  6
DASHED
 62
               2
100
AcDbLine
 10
2.1000000000000227
 20
-16.000000000000057
 30
0.0
 11
2.1000000000000227
 21
-12.20429466789335
 31
0.0
  0
ARC
  5
546
100
AcDbEntity
  8
0
  6
DASHED
 62
               2
100
AcDbCircle
 10
-0.0195042521916662
 20
-14.745642696138987
 30
0.0
 40
4.3653794686807261
100
AcDbArc
 50
276.83471178066651
 51
298.00122980373817
  0
LINE
  5
547
100
AcDbEntity
  8
0
  6
DASHED
 62
               2
100
AcDbLine
 10
3.5500000000000682
 20
-19.100000000000023
 30
0.0
 11
0.5000000000000568
 21
-19.100000000000023
 31
0.0
  0
LINE
  5
548
100
AcDbEntity
  8
0
  6
DASHED
 62
               2
100
AcDbLine
 10
4.0500000000000682
 20
-18.600000000000023
 30
0.0
 11
3.5500000000000682
 21
-19.100000000000023
 31
0.0
  0
ARC
  5
549
100
AcDbEntity
  8
0
  6
DASHED
 62
               2
100
AcDbCircle
 10
4.9717302995400132
 20
-12.217539889398466
 30
0.0
 40
7.0277716396203269
100
AcDbArc
 50
245.25462085736197
 51
258.32841020147521
  0
LINE
  5
54A
100
AcDbEntity
  8
0
  6
DASHED
 62
               2
100
AcDbLine
 10
2.0300000000000296
 20
-18.600000000000023
 30
0.0
 11
2.0300000000000296
 21
-16.600000000000051
 31
0.0
  0
LINE
  5
54B
100
AcDbEntity
  8
0
  6
DASHED
 62
               2
100
AcDbLine
 10
4.0000000000000568
 20
-16.000000000000057
 30
0.0
 11
4.0000000000000568
 21
-16.600000000000051
 31
0.0
  0
LINE
  5
54C
100
AcDbEntity
  8
0
  6
DASHED
 62
               2
100
AcDbLine
 10
4.0500000000000682
 20
-18.600000000000023
 30
0.0
 11
4.0500000000000682
 21
-16.600000000000023
 31
0.0
  0
LINE
  5
54D
100
AcDbEntity
  8
0
  6
DASHED
 62
               2
100
AcDbLine
 10
0.5000000000000568
 20
-17.600000000000023
 30
0.0
 11
-0.4999999999999432
 21
-17.600000000000023
 31
0.0
  0
LINE
  5
54E
100
AcDbEntity
  8
0
  6
DASHED
 62
               2
100
AcDbLine
 10
0.5000000000000568
 20
-19.100000000000023
 30
0.0
 11
0.5000000000000568
 21
-17.600000000000023
 31
0.0
  0
LINE
  5
54F
100
AcDbEntity
  8
0
  6
DASHED
 62
               2
100
AcDbLine
 10
-2.0999999999999659
 20
-16.000000000000057
 30
0.0
 11
-2.0999999999999659
 21
-12.655038231425976
 31
0.0
  0
LINE
  5
550
100
AcDbEntity
  8
0
  6
DASHED
 62
               2
100
AcDbLine
 10
-2.4999999999999432
 20
-16.000000000000057
 30
0.0
 11
-2.4999999999999432
 21
-12.908581485913032
 31
0.0
  0
LINE
  5
551
100
AcDbEntity
  8
0
  6
DASHED
 62
               2
100
AcDbLine
 10
-4.0499999999999545
 20
-18.600000000000051
 30
0.0
 11
-4.0499999999999545
 21
-16.600000000000023
 31
0.0
  0
LINE
  5
552
100
AcDbEntity
  8
0
  6
DASHED
 62
               2
100
AcDbLine
 10
-3.5499999999999545
 20
-19.100000000000023
 30
0.0
 11
-4.0499999999999545
 21
-18.600000000000051
 31
0.0
  0
ARC
  5
553
100
AcDbEntity
  8
0
  6
DASHED
 62
               2
100
AcDbCircle
 10
-4.9722187730059204
 20
-12.216054930061858
 30
0.0
 40
7.0293247160888015
100
AcDbArc
 50
281.67304037350181
 51
294.74392856765866
  0
LINE
  5
554
100
AcDbEntity
  8
0
  6
DASHED
 62
               2
100
AcDbLine
 10
-2.0299999999999727
 20
-18.600000000000023
 30
0.0
 11
-2.0299999999999727
 21
-16.600000000000023
 31
0.0
  0
LINE
  5
555
100
AcDbEntity
  8
0
  6
DASHED
 62
               2
100
AcDbLine
 10
-0.4999999999999432
 20
-19.100000000000023
 30
0.0
 11
-3.5499999999999545
 21
-19.100000000000023
 31
0.0
  0
LINE
  5
556
100
AcDbEntity
  8
0
  6
DASHED
 62
               2
100
AcDbLine
 10
-3.9999999999999432
 20
-16.000000000000057
 30
0.0
 11
-3.9999999999999432
 21
-16.600000000000023
 31
0.0
  0
LINE
  5
557
100
AcDbEntity
  8
0
  6
DASHED
 62
               2
100
AcDbLine
 10
-0.4999999999999432
 20
-19.100000000000023
 30
0.0
 11
-0.4999999999999432
 21
-17.600000000000023
 31
0.0
  0
ARC
  5
558
100
AcDbEntity
  8
0
  6
DASHED
 62
               2
100
AcDbCircle
 10
0.0190627296830712
 20
-14.747050049135453
 30
0.0
 40
4.363929581700825
100
AcDbArc
 50
241.99521341413674
 51
263.16884500145613
  0
LINE
  5
559
100
AcDbEntity
  8
0
  6
DASHED
 62
               2
100
AcDbLine
 10
16.000000000000057
 20
4.75
 30
0.0
 11
16.000000000000057
 21
-4.75
 31
0.0
  0
LINE
  5
55A
100
AcDbEntity
  8
0
  6
DASHED
 62
               2
100
AcDbLine
 10
16.60000000000008
 20
4.0500000000000114
 30
0.0
 11
16.60000000000008
 21
-4.0500000000000114
 31
0.0
  0
LINE
  5
55B
100
AcDbEntity
  8
0
  6
DASHED
 62
               2
100
AcDbLine
 10
16.000000000000057
 20
2.1000000000000227
 30
0.0
 11
12.204294667893407
 21
2.1000000000000227
 31
0.0
  0
LINE
  5
55C
100
AcDbEntity
  8
0
  6
DASHED
 62
               2
100
AcDbLine
 10
17.60000000000008
 20
0.5
 30
0.0
 11
17.60000000000008
 21
-0.5
 31
0.0
  0
LINE
  5
55D
100
AcDbEntity
  8
0
  6
DASHED
 62
               2
100
AcDbLine
 10
18.60000000000008
 20
4.0500000000000114
 30
0.0
 11
16.60000000000008
 21
4.0500000000000114
 31
0.0
  0
LINE
  5
55E
100
AcDbEntity
  8
0
  6
DASHED
 62
               2
100
AcDbLine
 10
16.000000000000057
 20
4.0
 30
0.0
 11
16.60000000000008
 21
4.0
 31
0.0
  0
ARC
  5
55F
100
AcDbEntity
  8
0
  6
DASHED
 62
               2
100
AcDbCircle
 10
14.745642696138987
 20
-0.019504252191723
 30
0.0
 40
4.3653794686807261
100
AcDbArc
 50
6.8347117806671411
 51
28.001229803738738
  0
LINE
  5
560
100
AcDbEntity
  8
0
  6
DASHED
 62
               2
100
AcDbLine
 10
19.10000000000008
 20
3.5500000000000114
 30
0.0
 11
19.10000000000008
 21
0.5
 31
0.0
  0
LINE
  5
561
100
AcDbEntity
  8
0
  6
DASHED
 62
               2
100
AcDbLine
 10
18.60000000000008
 20
2.0300000000000296
 30
0.0
 11
16.60000000000008
 21
2.0300000000000296
 31
0.0
  0
ARC
  5
562
100
AcDbEntity
  8
0
  6
DASHED
 62
               2
100
AcDbCircle
 10
12.217539889398495
 20
4.9717302995400132
 30
0.0
 40
7.0277716396203269
100
AcDbArc
 50
335.25462085736177
 51
348.32841020147504
  0
LINE
  5
563
100
AcDbEntity
  8
0
  6
DASHED
 62
               2
100
AcDbLine
 10
18.60000000000008
 20
4.0500000000000114
 30
0.0
 11
19.10000000000008
 21
3.5500000000000114
 31
0.0
  0
LINE
  5
564
100
AcDbEntity
  8
0
  6
DASHED
 62
               2
100
AcDbLine
 10
19.10000000000008
 20
0.5
 30
0.0
 11
17.60000000000008
 21
0.5
 31
0.0
  0
LINE
  5
565
100
AcDbEntity
  8
0
  6
DASHED
 62
               2
100
AcDbLine
 10
16.000000000000057
 20
2.5
 30
0.0
 11
12.655038231425976
 21
2.5
 31
0.0
  0
LINE
  5
566
100
AcDbEntity
  8
0
  6
DASHED
 62
               2
100
AcDbLine
 10
16.000000000000057
 20
-2.0999999999999659
 30
0.0
 11
12.655038231425976
 21
-2.0999999999999659
 31
0.0
  0
ARC
  5
567
100
AcDbEntity
  8
0
  6
DASHED
 62
               2
100
AcDbCircle
 10
12.216054930061887
 20
-4.9722187730059773
 30
0.0
 40
7.0293247160888015
100
AcDbArc
 50
11.673040373502431
 51
24.74392856765925
  0
LINE
  5
568
100
AcDbEntity
  8
0
  6
DASHED
 62
               2
100
AcDbLine
 10
19.10000000000008
 20
-0.5
 30
0.0
 11
19.10000000000008
 21
-3.5499999999999829
 31
0.0
  0
ARC
  5
569
100
AcDbEntity
  8
0
  6
DASHED
 62
               2
100
AcDbCircle
 10
14.747050049135453
 20
0.0190627296830428
 30
0.0
 40
4.363929581700825
100
AcDbArc
 50
331.99521341413663
 51
353.16884500145596
  0
LINE
  5
56A
100
AcDbEntity
  8
0
  6
DASHED
 62
               2
100
AcDbLine
 10
19.10000000000008
 20
-0.5
 30
0.0
 11
17.60000000000008
 21
-0.5
 31
0.0
  0
LINE
  5
56B
100
AcDbEntity
  8
0
  6
DASHED
 62
               2
100
AcDbLine
 10
18.60000000000008
 20
-2.0299999999999727
 30
0.0
 11
16.60000000000008
 21
-2.0299999999999727
 31
0.0
  0
LINE
  5
56C
100
AcDbEntity
  8
0
  6
DASHED
 62
               2
100
AcDbLine
 10
16.000000000000057
 20
-2.5
 30
0.0
 11
12.908581485913089
 21
-2.5
 31
0.0
  0
LINE
  5
56D
100
AcDbEntity
  8
0
  6
DASHED
 62
               2
100
AcDbLine
 10
16.000000000000057
 20
-4.0
 30
0.0
 11
16.60000000000008
 21
-4.0
 31
0.0
  0
LINE
  5
56E
100
AcDbEntity
  8
0
  6
DASHED
 62
               2
100
AcDbLine
 10
19.10000000000008
 20
-3.5499999999999829
 30
0.0
 11
18.60000000000008
 21
-4.0499999999999829
 31
0.0
  0
LINE
  5
56F
100
AcDbEntity
  8
0
  6
DASHED
 62
               2
100
AcDbLine
 10
18.60000000000008
 20
-4.0499999999999829
 30
0.0
 11
16.60000000000008
 21
-4.0500000000000114
 31
0.0
  0
LINE
  5
570
100
AcDbEntity
  8
0
  6
DASHED
 62
               2
100
AcDbLine
 10
19.42775077048293
 20
4.75
 30
0.0
 11
16.000000000000057
 21
4.75
 31
0.0
  0
LINE
  5
571
100
AcDbEntity
  8
0
  6
DASHED
 62
               2
100
AcDbLine
 10
19.42775077048293
 20
-4.75
 30
0.0
 11
16.000000000000057
 21
-4.75
 31
0.0
  0
LINE
  5
572
100
AcDbEntity
  8
0
  6
DASHED
 62
               2
100
AcDbLine
 10
4.7500000000000568
 20
-19.427750770482902
 30
0.0
 11
4.7500000000000568
 21
-16.000000000000057
 31
0.0
  0
LINE
  5
573
100
AcDbEntity
  8
0
  6
DASHED
 62
               2
100
AcDbLine
 10
-4.7499999999999432
 20
-19.42775077048293
 30
0.0
 11
-4.7499999999999432
 21
-16.000000000000057
 31
0.0
  0
ENDBLK
  5
574
100
AcDbEntity
  8
0
100
AcDbBlockEnd
  0
BLOCK
  5
575
100
AcDbEntity
  8
0
100
AcDbBlockBegin
  2
NCT40-12
 70
               0
 10
0.0
 20
0.0
 30
0.0
  3
NCT40-12
  1

  0
LINE
  5
576
100
AcDbEntity
  8
0
  6
CENTER
 62
               2
100
AcDbLine
 10
-0.0000000500679107
 20
22.000000169618247
 30
0.0
 11
-0.0000000500679107
 21
-21.999999830381753
 31
0.0
  0
LINE
  5
577
100
AcDbEntity
  8
0
  6
CENTER
 62
               2
100
AcDbLine
 10
-22.000000050067911
 20
0.0000001696182466
 30
0.0
 11
23.300140284925305
 21
0.0000001696182466
 31
0.0
  0
CIRCLE
  5
578
100
AcDbEntity
  8
0
  6
CONTINUOUS
 62
               7
100
AcDbCircle
 10
-0.0000000500679107
 20
0.0000001696182466
 30
0.0
 40
20.0
  0
CIRCLE
  5
579
100
AcDbEntity
  8
0
  6
CONTINUOUS
 62
               7
100
AcDbCircle
 10
-0.0000000500679107
 20
0.0000001696182466
 30
0.0
 40
5.0
  0
CIRCLE
  5
57A
100
AcDbEntity
  8
0
  6
CENTER
 62
               2
100
AcDbCircle
 10
-0.0000000500679107
 20
0.0000001696182466
 30
0.0
 40
16.699999999999999
  0
LINE
  5
57B
100
AcDbEntity
  8
0
  6
CENTER
 62
               2
100
AcDbLine
 10
-11.527661496485791
 20
19.966495417496105
 30
0.0
 11
0.0
 21
0.0
 31
0.0
  0
LINE
  5
57C
100
AcDbEntity
  8
0
  6
CENTER
 62
               2
100
AcDbLine
 10
-0.0000000596046448
 20
0.0000001192092896
 30
0.0
 11
-11.694827032483374
 21
-20.256034383543664
 31
0.0
  0
ARC
  5
57D
100
AcDbEntity
  8
0
  6
CONTINUOUS
 62
               7
100
AcDbCircle
 10
-0.0000001524319941
 20
0.0000002640199739
 30
0.0
 40
14.66
100
AcDbArc
 50
8.0613268174730255
 51
111.93867194294639
  0
CIRCLE
  5
57E
100
AcDbEntity
  8
0
  6
CONTINUOUS
 62
               7
100
AcDbCircle
 10
0.0
 20
0.0
 30
0.0
 40
6.0
  0
ARC
  5
57F
100
AcDbEntity
  8
0
  6
CONTINUOUS
 62
               7
100
AcDbCircle
 10
-0.0000001524319941
 20
0.0000002640199739
 30
0.0
 40
14.66
100
AcDbArc
 50
128.06132802442986
 51
231.93867307967651
  0
ARC
  5
580
100
AcDbEntity
  8
0
  6
CONTINUOUS
 62
               7
100
AcDbCircle
 10
-0.0000001524319941
 20
0.0000002640199739
 30
0.0
 40
14.66
100
AcDbArc
 50
249.69960730313738
 51
351.93867245191586
  0
CIRCLE
  5
581
100
AcDbEntity
  8
0
  6
CONTINUOUS
 62
               4
100
AcDbCircle
 10
16.699999949932078
 20
0.0000001696182466
 30
0.0
 40
3.0
  0
CIRCLE
  5
582
100
AcDbEntity
  8
0
  6
CONTINUOUS
 62
               4
100
AcDbCircle
 10
-8.3500000818464741
 20
14.462624394471021
 30
0.0
 40
3.0
  0
CIRCLE
  5
583
100
AcDbEntity
  8
0
  6
CONTINUOUS
 62
               4
100
AcDbCircle
 10
-8.3500000353927248
 20
-14.462624082054589
 30
0.0
 40
3.0
  0
ENDBLK
  5
584
100
AcDbEntity
  8
0
100
AcDbBlockEnd
  0
BLOCK
  5
585
100
AcDbEntity
  8
0
100
AcDbBlockBegin
  2
NCT40-13
 70
               0
 10
0.0
 20
0.0
 30
0.0
  3
NCT40-13
  1

  0
LINE
  5
586
100
AcDbEntity
  8
0
  6
CONTINUOUS
 62
               7
100
AcDbLine
 10
18.999999999999943
 20
0.0
 30
0.0
 11
-10.000000000000057
 21
0.0
 31
0.0
  0
LINE
  5
587
100
AcDbEntity
  8
0
  6
CONTINUOUS
 62
               7
100
AcDbLine
 10
19.999999999999943
 20
-1.0
 30
0.0
 11
19.999999999999943
 21
-16.799999999999983
 31
0.0
  0
LINE
  5
588
100
AcDbEntity
  8
0
  6
CENTER
 62
               2
100
AcDbLine
 10
20.342135623730883
 20
-6.5
 30
0.0
 11
7.9421356237309055
 21
-6.5
 31
0.0
  0
LINE
  5
589
100
AcDbEntity
  8
0
  6
CONTINUOUS
 62
               7
100
AcDbLine
 10
19.799999999999955
 20
-16.999999999999972
 30
0.0
 11
-19.800000000000068
 21
-17.0
 31
0.0
  0
LINE
  5
58A
100
AcDbEntity
  8
0
  6
CONTINUOUS
 62
               7
100
AcDbLine
 10
18.999999999999943
 20
0.0
 30
0.0
 11
19.999999999999943
 21
-1.0
 31
0.0
  0
LINE
  5
58B
100
AcDbEntity
  8
0
  6
CONTINUOUS
 62
               7
100
AcDbLine
 10
-20.000000000000057
 20
-4.0
 30
0.0
 11
-20.000000000000057
 21
-16.799999999999983
 31
0.0
  0
LINE
  5
58C
100
AcDbEntity
  8
0
  6
CONTINUOUS
 62
               7
100
AcDbLine
 10
19.999999999999943
 20
-1.0
 30
0.0
 11
-10.000000000000057
 21
-1.0
 31
0.0
  0
LINE
  5
58D
100
AcDbEntity
  8
0
  6
CENTER
 62
               2
100
AcDbLine
 10
14.142135623730894
 20
-0.299999999999983
 30
0.0
 11
14.142135623730894
 21
-12.699999999999989
 31
0.0
  0
CIRCLE
  5
58E
100
AcDbEntity
  8
0
  6
CONTINUOUS
 62
               7
100
AcDbCircle
 10
14.142135623730894
 20
-6.5
 30
0.0
 40
4.0
  0
LINE
  5
58F
100
AcDbEntity
  8
0
  6
CONTINUOUS
 62
               7
100
AcDbLine
 10
12.117135623730917
 20
-2.9925971146730035
 30
0.0
 11
10.092135623730883
 21
-6.5
 31
0.0
  0
LINE
  5
590
100
AcDbEntity
  8
0
  6
CONTINUOUS
 62
               7
100
AcDbLine
 10
10.092135623730883
 20
-6.5
 30
0.0
 11
12.117135623730917
 21
-10.007402885326968
 31
0.0
  0
LINE
  5
591
100
AcDbEntity
  8
0
  6
CONTINUOUS
 62
               7
100
AcDbLine
 10
12.117135623730917
 20
-10.007402885326968
 30
0.0
 11
16.167135623730928
 21
-10.007402885326968
 31
0.0
  0
LINE
  5
592
100
AcDbEntity
  8
0
  6
CONTINUOUS
 62
               7
100
AcDbLine
 10
16.167135623730928
 20
-10.007402885326968
 30
0.0
 11
18.192135623730906
 21
-6.5
 31
0.0
  0
LINE
  5
593
100
AcDbEntity
  8
0
  6
CONTINUOUS
 62
               7
100
AcDbLine
 10
18.192135623730906
 20
-6.5
 30
0.0
 11
16.167135623730928
 21
-2.9925971146730035
 31
0.0
  0
LINE
  5
594
100
AcDbEntity
  8
0
  6
CONTINUOUS
 62
               7
100
AcDbLine
 10
16.167135623730928
 20
-2.9925971146730035
 30
0.0
 11
12.117135623730917
 21
-2.9925971146730035
 31
0.0
  0
LINE
  5
595
100
AcDbEntity
  8
0
  6
CONTINUOUS
 62
               7
100
AcDbLine
 10
14.742135623730917
 20
-2.9925971146730035
 30
0.0
 11
14.742135623730917
 21
-10.007402885326968
 31
0.0
  0
LINE
  5
596
100
AcDbEntity
  8
0
  6
CONTINUOUS
 62
               7
100
AcDbLine
 10
13.542135623730928
 20
-2.9925971146730035
 30
0.0
 11
13.542135623730928
 21
-10.007402885326968
 31
0.0
  0
ARC
  5
597
100
AcDbEntity
  8
0
  6
CONTINUOUS
 62
               7
100
AcDbCircle
 10
14.142135623730894
 20
-6.5
 30
0.0
 40
3.5074028853269792
100
AcDbArc
 50
279.84984773017413
 51
80.150152269825071
  0
ARC
  5
598
100
AcDbEntity
  8
0
  6
CONTINUOUS
 62
               7
100
AcDbCircle
 10
14.142135623730894
 20
-6.5
 30
0.0
 40
3.5074028853269792
100
AcDbArc
 50
99.849847730174503
 51
260.15015226982462
  0
LINE
  5
599
100
AcDbEntity
  8
0
  6
CENTER
 62
               2
100
AcDbLine
 10
0.0
 20
1.9999999889237188
 30
0.0
 11
0.0
 21
-19.000000011076281
 31
0.0
  0
LINE
  5
59A
100
AcDbEntity
  8
0
  6
CONTINUOUS
 62
               7
100
AcDbLine
 10
-20.000000000000057
 20
-4.0
 30
0.0
 11
-10.000000000000057
 21
-4.0
 31
0.0
  0
LINE
  5
59B
100
AcDbEntity
  8
0
  6
CONTINUOUS
 62
               7
100
AcDbLine
 10
-10.000000000000057
 20
0.0
 30
0.0
 11
-10.000000000000057
 21
-4.0
 31
0.0
  0
LINE
  5
59C
100
AcDbEntity
  8
0
  6
CENTER
 62
               2
100
AcDbLine
 10
-15.000000000000057
 20
-17.683248141778336
 30
0.0
 11
-15.000000000000057
 21
10.109501817215204
 31
0.0
  0
LINE
  5
59D
100
AcDbEntity
  8
0
  6
CONTINUOUS
 62
               7
100
AcDbLine
 10
-16.50000000818244
 20
1.0
 30
0.0
 11
-13.50000000818244
 21
1.0
 31
0.0
  0
LINE
  5
59E
100
AcDbEntity
  8
0
  6
CONTINUOUS
 62
               7
100
AcDbLine
 10
-16.50000000818244
 20
6.0
 30
0.0
 11
-13.50000000818244
 21
6.0
 31
0.0
  0
LINE
  5
59F
100
AcDbEntity
  8
0
  6
CONTINUOUS
 62
               7
100
AcDbLine
 10
-18.199999996261511
 20
-3.5
 30
0.0
 11
-11.799999990301046
 21
-3.5
 31
0.0
  0
LINE
  5
5A0
100
AcDbEntity
  8
0
  6
CONTINUOUS
 62
               7
100
AcDbLine
 10
-11.800000000000011
 20
-4.0
 30
0.0
 11
-11.800000000000011
 21
-3.5
 31
0.0
  0
LINE
  5
5A1
100
AcDbEntity
  8
0
  6
CONTINUOUS
 62
               7
100
AcDbLine
 10
-18.200000000000045
 20
-4.0
 30
0.0
 11
-18.200000000000045
 21
-3.500000011812233
 31
0.0
  0
LINE
  5
5A2
100
AcDbEntity
  8
0
  6
CONTINUOUS
 62
               7
100
AcDbLine
 10
-11.900000000000034
 20
-3.5
 30
0.0
 11
-11.900000000000034
 21
-2.1999999999999886
 31
0.0
  0
LINE
  5
5A3
100
AcDbEntity
  8
0
  6
CONTINUOUS
 62
               7
100
AcDbLine
 10
-18.100000000000023
 20
-3.5
 30
0.0
 11
-18.100000000000023
 21
-2.1999999999999886
 31
0.0
  0
LINE
  5
5A4
100
AcDbEntity
  8
0
  6
CONTINUOUS
 62
               7
100
AcDbLine
 10
-13.750000000000057
 20
-2.0
 30
0.0
 11
-13.750000000000057
 21
1.0
 31
0.0
  0
LINE
  5
5A5
100
AcDbEntity
  8
0
  6
CONTINUOUS
 62
               7
100
AcDbLine
 10
-13.500000000000057
 20
-2.0
 30
0.0
 11
-13.500000000000057
 21
1.0
 31
0.0
  0
LINE
  5
5A6
100
AcDbEntity
  8
0
  6
CONTINUOUS
 62
               7
100
AcDbLine
 10
-16.250000000000057
 20
-2.0
 30
0.0
 11
-16.250000000000057
 21
1.0
 31
0.0
  0
LINE
  5
5A7
100
AcDbEntity
  8
0
  6
CONTINUOUS
 62
               7
100
AcDbLine
 10
-16.500000000000057
 20
-2.0
 30
0.0
 11
-16.500000000000057
 21
1.0
 31
0.0
  0
LINE
  5
5A8
100
AcDbEntity
  8
0
  6
CONTINUOUS
 62
               7
100
AcDbLine
 10
-13.450000000000045
 20
-3.5
 30
0.0
 11
-13.450000000000045
 21
-2.1999999999999886
 31
0.0
  0
LINE
  5
5A9
100
AcDbEntity
  8
0
  6
CONTINUOUS
 62
               7
100
AcDbLine
 10
-16.550000000000011
 20
-3.5
 30
0.0
 11
-16.550000000000011
 21
-2.1999999999999886
 31
0.0
  0
ARC
  5
5AA
100
AcDbEntity
  8
0
  6
CONTINUOUS
 62
               7
100
AcDbCircle
 10
-15.000000000000057
 20
-8.1062500000000455
 30
0.0
 40
6.1062500000000233
100
AcDbArc
 50
75.295241280215237
 51
104.70475871978446
  0
LINE
  5
5AB
100
AcDbEntity
  8
0
  6
CONTINUOUS
 62
               7
100
AcDbLine
 10
-17.32499999292861
 20
-2.0
 30
0.0
 11
-12.675000007071446
 21
-2.0
 31
0.0
  0
ARC
  5
5AC
100
AcDbEntity
  8
0
  6
CONTINUOUS
 62
               7
100
AcDbCircle
 10
-12.675000007071446
 20
-3.6015624725981752
 30
0.0
 40
1.6015624725981965
100
AcDbArc
 50
61.059410968728308
 51
118.94058845311135
  0
ARC
  5
5AD
100
AcDbEntity
  8
0
  6
CONTINUOUS
 62
               7
100
AcDbCircle
 10
-17.32499999292861
 20
-3.6015624725981752
 30
0.0
 40
1.6015624725981965
100
AcDbArc
 50
61.059411546888256
 51
118.94058903127132
  0
LINE
  5
5AE
100
AcDbEntity
  8
0
  6
CONTINUOUS
 62
               7
100
AcDbLine
 10
-13.700000000000045
 20
6.0
 30
0.0
 11
-13.700000000000045
 21
8.4484139083440084
 31
0.0
  0
LINE
  5
5AF
100
AcDbEntity
  8
0
  6
CONTINUOUS
 62
               7
100
AcDbLine
 10
-16.300000000000011
 20
6.0
 30
0.0
 11
-16.300000000000011
 21
8.4484139083440084
 31
0.0
  0
LINE
  5
5B0
100
AcDbEntity
  8
0
  6
CONTINUOUS
 62
               7
100
AcDbLine
 10
-15.000000000000057
 20
6.0
 30
0.0
 11
-15.000000000000057
 21
8.4556298969452257
 31
0.0
  0
LINE
  5
5B1
100
AcDbEntity
  8
0
  6
CONTINUOUS
 62
               7
100
AcDbLine
 10
-13.500000000000057
 20
1.0
 30
0.0
 11
-13.500000000000057
 21
6.0
 31
0.0
  0
LINE
  5
5B2
100
AcDbEntity
  8
0
  6
CONTINUOUS
 62
               7
100
AcDbLine
 10
-16.500000000000057
 20
1.0
 30
0.0
 11
-16.500000000000057
 21
6.0
 31
0.0
  0
LINE
  5
5B3
100
AcDbEntity
  8
0
  6
CONTINUOUS
 62
               7
100
AcDbLine
 10
19.799999999999955
 20
-16.999999999999972
 30
0.0
 11
19.999999999999943
 21
-16.799999999999983
 31
0.0
  0
LINE
  5
5B4
100
AcDbEntity
  8
0
  6
CONTINUOUS
 62
               7
100
AcDbLine
 10
-19.800000000000068
 20
-17.0
 30
0.0
 11
-20.000000000000057
 21
-16.799999999999983
 31
0.0
  0
LINE
  5
5B5
100
AcDbEntity
  8
0
  6
CONTINUOUS
 62
               7
100
AcDbLine
 10
19.999999999999943
 20
-16.799999999999983
 30
0.0
 11
-20.000000000000057
 21
-16.799999999999983
 31
0.0
  0
LINE
  5
5B6
100
AcDbEntity
  8
0
  6
CENTER
 62
             200
100
AcDbLine
 10
-8.3500000317785634
 20
-14.0800174257636
 30
0.0
 11
-8.3500000317785634
 21
-19.807957916433281
 31
0.0
  0
LINE
  5
5B7
100
AcDbEntity
  8
0
  6
CONTINUOUS
 62
               4
100
AcDbLine
 10
-11.350000031778563
 20
-17.0
 30
0.0
 11
-11.350000031778563
 21
-18.0
 31
0.0
  0
LINE
  5
5B8
100
AcDbEntity
  8
0
  6
CONTINUOUS
 62
               4
100
AcDbLine
 10
-5.3500000317785634
 20
-17.0
 30
0.0
 11
-5.3500000317785634
 21
-18.0
 31
0.0
  0
LINE
  5
5B9
100
AcDbEntity
  8
0
  6
CONTINUOUS
 62
               4
100
AcDbLine
 10
-5.3500000317785634
 20
-18.0
 30
0.0
 11
-11.350000031778563
 21
-18.0
 31
0.0
  0
LINE
  5
5BA
100
AcDbEntity
  8
0
  6
CONTINUOUS
 62
               4
100
AcDbLine
 10
19.699999999999989
 20
-18.0
 30
0.0
 11
13.699999999999989
 21
-18.0
 31
0.0
  0
LINE
  5
5BB
100
AcDbEntity
  8
0
  6
CENTER
 62
             200
100
AcDbLine
 10
16.699999999999989
 20
-14.0800174257636
 30
0.0
 11
16.699999999999989
 21
-19.807957916433281
 31
0.0
  0
LINE
  5
5BC
100
AcDbEntity
  8
0
  6
CONTINUOUS
 62
               4
100
AcDbLine
 10
13.699999999999989
 20
-17.000000009112853
 30
0.0
 11
13.699999999999989
 21
-18.0
 31
0.0
  0
LINE
  5
5BD
100
AcDbEntity
  8
0
  6
CONTINUOUS
 62
               4
100
AcDbLine
 10
19.699999999999989
 20
-16.999999999999972
 30
0.0
 11
19.699999999999989
 21
-18.0
 31
0.0
  0
CIRCLE
  5
5BE
100
AcDbEntity
  8
0
  6
CONTINUOUS
 62
               7
100
AcDbCircle
 10
14.142135623730894
 20
-6.5
 30
0.0
 40
4.75
  0
ARC
  5
5BF
100
AcDbEntity
  8
0
  6
CONTINUOUS
 62
               7
100
AcDbCircle
 10
-14.346544790745497
 20
9.0744968370043182
 30
0.0
 40
0.9
100
AcDbArc
 50
224.0788529040851
 51
315.92114709591368
  0
ARC
  5
5C0
100
AcDbEntity
  8
0
  6
CONTINUOUS
 62
               7
100
AcDbCircle
 10
-14.346544790745497
 20
7.8223309796836702
 30
0.0
 40
0.9
100
AcDbArc
 50
44.078852904085515
 51
135.92114709591411
  0
ARC
  5
5C1
100
AcDbEntity
  8
0
  6
CONTINUOUS
 62
               7
100
AcDbCircle
 10
-15.65345520925456
 20
7.8223309796836702
 30
0.0
 40
0.9
100
AcDbArc
 50
44.078852904085494
 51
135.92114709591408
  0
ENDBLK
  5
5C2
100
AcDbEntity
  8
0
100
AcDbBlockEnd
  0
BLOCK
  5
5C3
100
AcDbEntity
  8
0
100
AcDbBlockBegin
  2
NCT40-14
 70
               0
 10
0.0
 20
0.0
 30
0.0
  3
NCT40-14
  1

  0
LINE
  5
5C4
100
AcDbEntity
  8
0
  6
CENTER
 62
               2
100
AcDbLine
 10
0.0
 20
-25.435126883865692
 30
0.0
 11
0.0
 21
22.0
 31
0.0
  0
LINE
  5
5C5
100
AcDbEntity
  8
0
  6
CENTER
 62
               2
100
AcDbLine
 10
0.0
 20
0.0
 30
0.0
 11
15.086601758583839
 21
15.086601758583825
 31
0.0
  0
CIRCLE
  5
5C6
100
AcDbEntity
  8
0
  6
CONTINUOUS
 62
               7
100
AcDbCircle
 10
0.0
 20
0.0
 30
0.0
 40
20.0
  0
CIRCLE
  5
5C7
100
AcDbEntity
  8
0
  6
CONTINUOUS
 62
               7
100
AcDbCircle
 10
16.0
 20
0.0
 30
0.0
 40
1.6499999999999999
  0
CIRCLE
  5
5C8
100
AcDbEntity
  8
0
  6
CONTINUOUS
 62
               7
100
AcDbCircle
 10
0.0
 20
-16.000000000000014
 30
0.0
 40
1.6499999999999999
  0
CIRCLE
  5
5C9
100
AcDbEntity
  8
0
  6
CONTINUOUS
 62
               7
100
AcDbCircle
 10
0.0
 20
16.0
 30
0.0
 40
1.6499999999999999
  0
CIRCLE
  5
5CA
100
AcDbEntity
  8
0
  6
CONTINUOUS
 62
               2
100
AcDbCircle
 10
0.0
 20
16.0
 30
0.0
 40
2.0
  0
CIRCLE
  5
5CB
100
AcDbEntity
  8
0
  6
CONTINUOUS
 62
               2
100
AcDbCircle
 10
16.0
 20
0.0
 30
0.0
 40
2.0
  0
CIRCLE
  5
5CC
100
AcDbEntity
  8
0
  6
CONTINUOUS
 62
               2
100
AcDbCircle
 10
0.0
 20
-16.000000000000014
 30
0.0
 40
2.0
  0
CIRCLE
  5
5CD
100
AcDbEntity
  8
0
  6
CENTER
 62
               2
100
AcDbCircle
 10
0.0
 20
0.0
 30
0.0
 40
16.0
  0
LINE
  5
5CE
100
AcDbEntity
  8
0
  6
CENTER
 62
               2
100
AcDbLine
 10
-22.174868658010098
 20
0.0
 30
0.0
 11
22.0
 21
0.0
 31
0.0
  0
ARC
  5
5CF
100
AcDbEntity
  8
0
  6
CONTINUOUS
 62
               7
100
AcDbCircle
 10
0.0
 20
0.0
 30
0.0
 40
19.0
100
AcDbArc
 50
238.24313614070238
 51
121.75686385929691
  0
LINE
  5
5D0
100
AcDbEntity
  8
0
  6
CENTER
 62
               2
100
AcDbLine
 10
0.0
 20
0.0
 30
0.0
 11
14.709130317186577
 21
-14.709130317186577
 31
0.0
  0
CIRCLE
  5
5D1
100
AcDbEntity
  8
0
  6
CONTINUOUS
 62
               7
100
AcDbCircle
 10
0.0
 20
0.0
 30
0.0
 40
2.1000000000000001
  0
CIRCLE
  5
5D2
100
AcDbEntity
  8
0
  6
CONTINUOUS
 62
               2
100
AcDbCircle
 10
0.0
 20
0.0
 30
0.0
 40
2.5
  0
LINE
  5
5D3
100
AcDbEntity
  8
0
  6
DASHED
 62
               2
100
AcDbLine
 10
14.672465709620894
 20
-7.9549512883486955
 30
0.0
 11
7.9549512883486955
 21
-14.672465709620894
 31
0.0
  0
LINE
  5
5D4
100
AcDbEntity
  8
0
  6
DASHED
 62
               2
100
AcDbLine
 10
14.60175503150225
 20
-8.874190103891209
 30
0.0
 11
8.8741901038911806
 21
-14.60175503150225
 31
0.0
  0
LINE
  5
5D5
100
AcDbEntity
  8
0
  6
DASHED
 62
               2
100
AcDbLine
 10
13.081475451951121
 20
-9.545941546018426
 30
0.0
 11
10.716230302582687
 21
-7.1806963966499495
 31
0.0
  0
LINE
  5
5D6
100
AcDbEntity
  8
0
  6
DASHED
 62
               2
100
AcDbLine
 10
12.798632739476545
 20
-9.8287842584930445
 30
0.0
 11
10.114663759757946
 21
-7.1448152787744732
 31
0.0
  0
LINE
  5
5D7
100
AcDbEntity
  8
0
  6
DASHED
 62
               2
100
AcDbLine
 10
12.798632739476545
 20
-12.091525958289992
 30
0.0
 11
12.091525958289992
 21
-12.798632739476545
 31
0.0
  0
LINE
  5
5D8
100
AcDbEntity
  8
0
  6
DASHED
 62
               2
100
AcDbLine
 10
13.859292911256375
 20
-13.152186130069822
 30
0.0
 11
12.798632739476545
 21
-12.091525958289992
 31
0.0
  0
LINE
  5
5D9
100
AcDbEntity
  8
0
  6
DASHED
 62
               2
100
AcDbLine
 10
16.0159685938753
 20
-10.288403666264315
 30
0.0
 11
16.015968593875357
 21
-10.99551044745084
 31
0.0
  0
ARC
  5
5DA
100
AcDbEntity
  8
0
  6
DASHED
 62
               2
100
AcDbCircle
 10
12.154649514246159
 20
-5.1235610961754645
 30
0.0
 40
7.0277716396203269
100
AcDbArc
 50
290.25462085736189
 51
303.32841020147521
  0
LINE
  5
5DB
100
AcDbEntity
  8
0
  6
DASHED
 62
               2
100
AcDbLine
 10
14.587612895878522
 20
-11.716759364261122
 30
0.0
 11
13.173399333505415
 21
-10.302545801888044
 31
0.0
  0
LINE
  5
5DC
100
AcDbEntity
  8
0
  6
DASHED
 62
               2
100
AcDbLine
 10
16.015968593875357
 20
-10.99551044745084
 30
0.0
 11
13.859292911256375
 21
-13.152186130069822
 31
0.0
  0
ARC
  5
5DD
100
AcDbEntity
  8
0
  6
DASHED
 62
               2
100
AcDbCircle
 10
10.412952354407025
 20
-10.440535532380494
 30
0.0
 40
4.3653794686807261
100
AcDbArc
 50
321.83471178066645
 51
343.001229803738
  0
LINE
  5
5DE
100
AcDbEntity
  8
0
  6
DASHED
 62
               2
100
AcDbLine
 10
14.142135623731008
 20
-8.4852813742386104
 30
0.0
 11
14.566399692442928
 21
-8.909545442950531
 31
0.0
  0
LINE
  5
5DF
100
AcDbEntity
  8
0
  6
DASHED
 62
               2
100
AcDbLine
 10
16.0159685938753
 20
-10.288403666264315
 30
0.0
 11
14.60175503150225
 21
-8.874190103891209
 31
0.0
  0
LINE
  5
5E0
100
AcDbEntity
  8
0
  6
DASHED
 62
               2
100
AcDbLine
 10
10.99551044745084
 20
-16.015968593875328
 30
0.0
 11
10.288403666264287
 21
-16.015968593875343
 31
0.0
  0
LINE
  5
5E1
100
AcDbEntity
  8
0
  6
DASHED
 62
               2
100
AcDbLine
 10
9.5459415460184118
 20
-13.081475451951164
 30
0.0
 11
7.3599785512218432
 21
-10.895512457154609
 31
0.0
  0
LINE
  5
5E2
100
AcDbEntity
  8
0
  6
DASHED
 62
               2
100
AcDbLine
 10
9.8287842584930445
 20
-12.798632739476545
 30
0.0
 11
7.4635391091245538
 21
-10.433387590108055
 31
0.0
  0
ARC
  5
5E3
100
AcDbEntity
  8
0
  6
DASHED
 62
               2
100
AcDbCircle
 10
5.1221656684584786
 20
-12.15394489232969
 30
0.0
 40
7.0293247160888015
100
AcDbArc
 50
326.67304037350175
 51
339.74392856765854
  0
LINE
  5
5E4
100
AcDbEntity
  8
0
  6
DASHED
 62
               2
100
AcDbLine
 10
11.716759364261122
 20
-14.587612895878507
 30
0.0
 11
10.302545801888016
 21
-13.173399333505415
 31
0.0
  0
LINE
  5
5E5
100
AcDbEntity
  8
0
  6
DASHED
 62
               2
100
AcDbLine
 10
13.152186130069822
 20
-13.859292911256361
 30
0.0
 11
10.99551044745084
 21
-16.015968593875328
 31
0.0
  0
LINE
  5
5E6
100
AcDbEntity
  8
0
  6
DASHED
 62
               2
100
AcDbLine
 10
13.152186130069822
 20
-13.859292911256361
 30
0.0
 11
12.091525958289992
 21
-12.798632739476545
 31
0.0
  0
ARC
  5
5E7
100
AcDbEntity
  8
0
  6
DASHED
 62
               2
100
AcDbCircle
 10
10.44121847766786
 20
-10.414259706814292
 30
0.0
 40
4.363929581700825
100
AcDbArc
 50
286.99521341413669
 51
308.16884500145608
  0
LINE
  5
5E8
100
AcDbEntity
  8
0
  6
DASHED
 62
               2
100
AcDbLine
 10
10.288403666264287
 20
-16.015968593875343
 30
0.0
 11
8.8741901038911806
 21
-14.60175503150225
 31
0.0
  0
LINE
  5
5E9
100
AcDbEntity
  8
0
  6
DASHED
 62
               2
100
AcDbLine
 10
8.485281374238582
 20
-14.142135623730979
 30
0.0
 11
8.9095454429505025
 21
-14.566399692442914
 31
0.0
  0
LINE
  5
5EA
100
AcDbEntity
  8
0
  6
DASHED
 62
               2
100
AcDbLine
 10
7.9549512883486386
 20
14.672465709620894
 30
0.0
 11
14.672465709620894
 21
7.9549512883486813
 31
0.0
  0
LINE
  5
5EB
100
AcDbEntity
  8
0
  6
DASHED
 62
               2
100
AcDbLine
 10
8.8741901038911806
 20
14.601755031502222
 30
0.0
 11
14.601755031502194
 21
8.8741901038911948
 31
0.0
  0
LINE
  5
5EC
100
AcDbEntity
  8
0
  6
DASHED
 62
               2
100
AcDbLine
 10
9.5459415460184118
 20
13.08147545195115
 30
0.0
 11
7.1806963966499211
 21
10.716230302582673
 31
0.0
  0
LINE
  5
5ED
100
AcDbEntity
  8
0
  6
DASHED
 62
               2
100
AcDbLine
 10
9.8287842584929876
 20
12.798632739476545
 30
0.0
 11
7.1448152787744448
 21
10.114663759757974
 31
0.0
  0
LINE
  5
5EE
100
AcDbEntity
  8
0
  6
DASHED
 62
               2
100
AcDbLine
 10
12.798632739476488
 20
9.8287842584930445
 30
0.0
 11
10.433387590107998
 21
7.4635391091245538
 31
0.0
  0
LINE
  5
5EF
100
AcDbEntity
  8
0
  6
DASHED
 62
               2
100
AcDbLine
 10
16.0159685938753
 20
10.99551044745084
 30
0.0
 11
16.0159685938753
 21
10.288403666264301
 31
0.0
  0
ARC
  5
5F0
100
AcDbEntity
  8
0
  6
DASHED
 62
               2
100
AcDbCircle
 10
10.414259706814278
 20
10.441218477667874
 30
0.0
 40
4.363929581700825
100
AcDbArc
 50
16.995213414137279
 51
38.168845001456681
  0
LINE
  5
5F1
100
AcDbEntity
  8
0
  6
DASHED
 62
               2
100
AcDbLine
 10
13.859292911256318
 20
13.152186130069808
 30
0.0
 11
12.798632739476488
 21
12.091525958289992
 31
0.0
  0
LINE
  5
5F2
100
AcDbEntity
  8
0
  6
DASHED
 62
               2
100
AcDbLine
 10
13.859292911256318
 20
13.152186130069808
 30
0.0
 11
16.0159685938753
 21
10.99551044745084
 31
0.0
  0
LINE
  5
5F3
100
AcDbEntity
  8
0
  6
DASHED
 62
               2
100
AcDbLine
 10
14.587612895878465
 20
11.716759364261122
 30
0.0
 11
13.173399333505358
 21
10.30254580188803
 31
0.0
  0
ARC
  5
5F4
100
AcDbEntity
  8
0
  6
DASHED
 62
               2
100
AcDbCircle
 10
12.153944892329662
 20
5.1221656684585071
 30
0.0
 40
7.0293247160888015
100
AcDbArc
 50
56.673040373502339
 51
69.743928567659154
  0
LINE
  5
5F5
100
AcDbEntity
  8
0
  6
DASHED
 62
               2
100
AcDbLine
 10
13.081475451951121
 20
9.5459415460184118
 30
0.0
 11
10.895512457154553
 21
7.3599785512218716
 31
0.0
  0
LINE
  5
5F6
100
AcDbEntity
  8
0
  6
DASHED
 62
               2
100
AcDbLine
 10
10.288403666264287
 20
16.015968593875328
 30
0.0
 11
8.8741901038911806
 21
14.601755031502222
 31
0.0
  0
LINE
  5
5F7
100
AcDbEntity
  8
0
  6
DASHED
 62
               2
100
AcDbLine
 10
8.485281374238582
 20
14.142135623730979
 30
0.0
 11
8.9095454429505025
 21
14.566399692442914
 31
0.0
  0
ARC
  5
5F8
100
AcDbEntity
  8
0
  6
DASHED
 62
               2
100
AcDbCircle
 10
10.440535532380466
 20
10.412952354407011
 30
0.0
 40
4.3653794686807261
100
AcDbArc
 50
51.834711780667043
 51
73.001229803738639
  0
LINE
  5
5F9
100
AcDbEntity
  8
0
  6
DASHED
 62
               2
100
AcDbLine
 10
10.99551044745084
 20
16.015968593875328
 30
0.0
 11
13.152186130069765
 21
13.859292911256361
 31
0.0
  0
LINE
  5
5FA
100
AcDbEntity
  8
0
  6
DASHED
 62
               2
100
AcDbLine
 10
11.716759364261065
 20
14.587612895878507
 30
0.0
 11
10.302545801888016
 21
13.173399333505415
 31
0.0
  0
ARC
  5
5FB
100
AcDbEntity
  8
0
  6
DASHED
 62
               2
100
AcDbCircle
 10
5.1235610961754219
 20
12.154649514246145
 30
0.0
 40
7.0277716396203269
100
AcDbArc
 50
20.2546208573625
 51
33.328410201475762
  0
LINE
  5
5FC
100
AcDbEntity
  8
0
  6
DASHED
 62
               2
100
AcDbLine
 10
10.288403666264287
 20
16.015968593875328
 30
0.0
 11
10.99551044745084
 21
16.015968593875328
 31
0.0
  0
LINE
  5
5FD
100
AcDbEntity
  8
0
  6
DASHED
 62
               2
100
AcDbLine
 10
13.152186130069765
 20
13.859292911256361
 30
0.0
 11
12.091525958289935
 21
12.798632739476545
 31
0.0
  0
LINE
  5
5FE
100
AcDbEntity
  8
0
  6
DASHED
 62
               2
100
AcDbLine
 10
12.091525958289935
 20
12.798632739476545
 30
0.0
 11
12.798632739476488
 21
12.091525958289992
 31
0.0
  0
LINE
  5
5FF
100
AcDbEntity
  8
0
  6
DASHED
 62
               2
100
AcDbLine
 10
14.142135623730951
 20
8.485281374238582
 30
0.0
 11
14.566399692442872
 21
8.909545442950531
 31
0.0
  0
LINE
  5
600
100
AcDbEntity
  8
0
  6
DASHED
 62
               2
100
AcDbLine
 10
16.0159685938753
 20
10.288403666264301
 30
0.0
 11
14.601755031502194
 21
8.8741901038911948
 31
0.0
  0
LINE
  5
601
100
AcDbEntity
  8
0
  6
CONTINUOUS
 62
               7
100
AcDbLine
 10
-10.0
 20
-17.320508075688736
 30
0.0
 11
-10.0
 21
17.320508075688792
 31
0.0
  0
LINE
  5
602
100
AcDbEntity
  8
0
  6
CENTER
 62
               2
100
AcDbLine
 10
-15.0
 20
5.2000000000000028
 30
0.0
 11
-15.0
 21
-3.4999999921213032
 31
0.0
  0
CIRCLE
  5
603
100
AcDbEntity
  8
0
  6
CONTINUOUS
 62
               7
100
AcDbCircle
 10
-15.0
 20
0.0
 30
0.0
 40
3.2000000000000002
  0
LINE
  5
604
100
AcDbEntity
  8
0
  6
CONTINUOUS
 62
               7
100
AcDbLine
 10
-18.100000070961357
 20
0.000000145532681
 30
0.0
 11
-16.54115422311628
 21
-2.7000000809649691
 31
0.0
  0
LINE
  5
605
100
AcDbEntity
  8
0
  6
CONTINUOUS
 62
               7
100
AcDbLine
 10
-16.541154312523247
 20
2.6999999547978177
 30
0.0
 11
-18.100000008759594
 21
0.0000000077563413
 31
0.0
  0
CIRCLE
  5
606
100
AcDbEntity
  8
0
  6
CONTINUOUS
 62
               7
100
AcDbCircle
 10
-15.0
 20
0.0
 30
0.0
 40
0.65
  0
CIRCLE
  5
607
100
AcDbEntity
  8
0
  6
CONTINUOUS
 62
               7
100
AcDbCircle
 10
-15.0
 20
0.0
 30
0.0
 40
1.5
  0
LINE
  5
608
100
AcDbEntity
  8
0
  6
CONTINUOUS
 62
               7
100
AcDbLine
 10
-11.899999929038643
 20
0.000000145532681
 30
0.0
 11
-13.45884577688372
 21
-2.7000000809649691
 31
0.0
  0
LINE
  5
609
100
AcDbEntity
  8
0
  6
CONTINUOUS
 62
               7
100
AcDbLine
 10
-13.458845687476753
 20
2.6999999547978177
 30
0.0
 11
-11.89999999124035
 21
0.0000000077563413
 31
0.0
  0
LINE
  5
60A
100
AcDbEntity
  8
0
  6
CONTINUOUS
 62
               7
100
AcDbLine
 10
-13.458845708380068
 20
2.7000000000000028
 30
0.0
 11
-16.541154286425751
 21
2.7000000000000028
 31
0.0
  0
LINE
  5
60B
100
AcDbEntity
  8
0
  6
CONTINUOUS
 62
               7
100
AcDbLine
 10
-13.458845722530498
 20
-2.7000000000000028
 30
0.0
 11
-16.541154269861408
 21
-2.7000000000000028
 31
0.0
  0
LINE
  5
60C
100
AcDbEntity
  8
0
  6
DASHED
 62
               2
100
AcDbLine
 10
17.07662876565513
 20
10.359114344382945
 30
0.0
 11
14.672465709620894
 21
7.9549512883486813
 31
0.0
  0
LINE
  5
60D
100
AcDbEntity
  8
0
  6
DASHED
 62
               2
100
AcDbLine
 10
10.359114344382931
 20
17.076628765655144
 30
0.0
 11
7.9549512883486386
 21
14.672465709620894
 31
0.0
  0
LINE
  5
60E
100
AcDbEntity
  8
0
  6
DASHED
 62
               2
100
AcDbLine
 10
17.07662876565513
 20
-10.359114344382959
 30
0.0
 11
14.672465709620894
 21
-7.9549512883486955
 31
0.0
  0
LINE
  5
60F
100
AcDbEntity
  8
0
  6
DASHED
 62
               2
100
AcDbLine
 10
10.359114344382931
 20
-17.076628765655144
 30
0.0
 11
7.9549512883486955
 21
-14.672465709620894
 31
0.0
  0
ENDBLK
  5
610
100
AcDbEntity
  8
0
100
AcDbBlockEnd
  0
BLOCK
  5
611
100
AcDbEntity
  8
0
100
AcDbBlockBegin
  2
NCT40-15
 70
               0
 10
0.0
 20
0.0
 30
0.0
  3
NCT40-15
  1

  0
CIRCLE
  5
612
100
AcDbEntity
  8
0
  6
CONTINUOUS
 62
               4
100
AcDbCircle
 10
-8.3499999839173142
 20
-14.46262422485276
 30
0.0
 40
3.0
  0
ARC
  5
613
100
AcDbEntity
  8
0
  6
CONTINUOUS
 62
               7
100
AcDbCircle
 10
-0.0000000545028342
 20
0.0000000944017131
 30
0.0
 40
14.66
100
AcDbArc
 50
248.06132796877475
 51
351.93867245191586
  0
ARC
  5
614
100
AcDbEntity
  8
0
  6
CONTINUOUS
 62
               7
100
AcDbCircle
 10
-0.0000000545028342
 20
0.0000000944017131
 30
0.0
 40
14.66
100
AcDbArc
 50
128.06132802442997
 51
174.35292311429754
  0
CIRCLE
  5
615
100
AcDbEntity
  8
0
  6
CONTINUOUS
 62
               7
100
AcDbCircle
 10
0.0000000979291599
 20
-0.0000001696182608
 30
0.0
 40
6.0
  0
ARC
  5
616
100
AcDbEntity
  8
0
  6
CONTINUOUS
 62
               7
100
AcDbCircle
 10
-0.0000000545028342
 20
0.0000000944017131
 30
0.0
 40
14.66
100
AcDbArc
 50
8.0613268174731783
 51
111.93867194294647
  0
LINE
  5
617
100
AcDbEntity
  8
0
  6
CENTER
 62
               2
100
AcDbLine
 10
0.0000000383245151
 20
-0.0000000504090281
 30
0.0
 11
-11.694826934554214
 21
-20.256034553161896
 31
0.0
  0
LINE
  5
618
100
AcDbEntity
  8
0
  6
CENTER
 62
               2
100
AcDbLine
 10
-11.527661398556631
 20
19.966495247877845
 30
0.0
 11
0.0000000979291599
 21
-0.0000001696182608
 31
0.0
  0
CIRCLE
  5
619
100
AcDbEntity
  8
0
  6
CENTER
 62
               2
100
AcDbCircle
 10
0.0000000478612492
 20
0.0
 30
0.0
 40
16.699999999999999
  0
CIRCLE
  5
61A
100
AcDbEntity
  8
0
  6
CONTINUOUS
 62
               7
100
AcDbCircle
 10
0.0000000478612492
 20
0.0
 30
0.0
 40
5.0
  0
CIRCLE
  5
61B
100
AcDbEntity
  8
0
  6
CONTINUOUS
 62
               7
100
AcDbCircle
 10
0.0000000478612492
 20
0.0
 30
0.0
 40
20.0
  0
LINE
  5
61C
100
AcDbEntity
  8
0
  6
CENTER
 62
               2
100
AcDbLine
 10
-21.999999952138751
 20
0.0
 30
0.0
 11
23.300140382854465
 21
0.0
 31
0.0
  0
LINE
  5
61D
100
AcDbEntity
  8
0
  6
CENTER
 62
               2
100
AcDbLine
 10
0.0000000478612492
 20
22.0
 30
0.0
 11
0.0000000478612492
 21
-22.0
 31
0.0
  0
CIRCLE
  5
61E
100
AcDbEntity
  8
0
  6
CONTINUOUS
 62
               4
100
AcDbCircle
 10
16.700000047861238
 20
0.0
 30
0.0
 40
3.0
  0
CIRCLE
  5
61F
100
AcDbEntity
  8
0
  6
CONTINUOUS
 62
               4
100
AcDbCircle
 10
-8.3499999839173142
 20
14.46262422485276
 30
0.0
 40
3.0
  0
LINE
  5
620
100
AcDbEntity
  8
0
  6
CENTER
 62
               2
100
AcDbLine
 10
-14.999999952138751
 20
2.4808336342814812
 30
0.0
 11
-14.999999952138751
 21
-2.4878117424950403
 31
0.0
  0
CIRCLE
  5
621
100
AcDbEntity
  8
0
  6
CONTINUOUS
 62
               7
100
AcDbCircle
 10
-14.999999952138751
 20
0.0
 30
0.0
 40
1.5
  0
CIRCLE
  5
622
100
AcDbEntity
  8
0
  6
CONTINUOUS
 62
               7
100
AcDbCircle
 10
-14.999999952138751
 20
0.0
 30
0.0
 40
1.25
  0
ARC
  5
623
100
AcDbEntity
  8
0
  6
CONTINUOUS
 62
               7
100
AcDbCircle
 10
-0.0000000545028342
 20
0.0000000944017131
 30
0.0
 40
14.66
100
AcDbArc
 50
185.64707762002234
 51
231.9386730796767
  0
ENDBLK
  5
624
100
AcDbEntity
  8
0
100
AcDbBlockEnd
  0
BLOCK
  5
625
100
AcDbEntity
  8
0
100
AcDbBlockBegin
  2
NCT40-16
 70
               0
 10
0.0
 20
0.0
 30
0.0
  3
NCT40-16
  1

  0
LINE
  5
626
100
AcDbEntity
  8
0
  6
CONTINUOUS
 62
               7
100
AcDbLine
 10
20.0
 20
-1.0
 30
0.0
 11
20.0
 21
-16.799999999999983
 31
0.0
  0
LINE
  5
627
100
AcDbEntity
  8
0
  6
CONTINUOUS
 62
               7
100
AcDbLine
 10
19.79999999999999
 20
-17.0
 30
0.0
 11
-19.79999999999999
 21
-17.0
 31
0.0
  0
LINE
  5
628
100
AcDbEntity
  8
0
  6
CONTINUOUS
 62
               7
100
AcDbLine
 10
19.0
 20
0.0
 30
0.0
 11
20.0
 21
-1.0
 31
0.0
  0
LINE
  5
629
100
AcDbEntity
  8
0
  6
CONTINUOUS
 62
               4
100
AcDbLine
 10
19.700000000000003
 20
-18.0
 30
0.0
 11
13.700000000000003
 21
-18.0
 31
0.0
  0
LINE
  5
62A
100
AcDbEntity
  8
0
  6
CONTINUOUS
 62
               4
100
AcDbLine
 10
-5.3500000317785492
 20
-18.0
 30
0.0
 11
-11.350000031778553
 21
-18.0
 31
0.0
  0
LINE
  5
62B
100
AcDbEntity
  8
0
  6
CENTER
 62
               2
100
AcDbLine
 10
-32.00154372958999
 20
-4.5822894090489683
 30
0.0
 11
-39.522492207121019
 21
-4.5822894090489683
 31
0.0
  0
LINE
  5
62C
100
AcDbEntity
  8
0
  6
CENTER
 62
               2
100
AcDbLine
 10
-32.00154372958999
 20
-3.6822894090489626
 30
0.0
 11
-39.522492207121019
 21
-3.6822894090489626
 31
0.0
  0
LINE
  5
62D
100
AcDbEntity
  8
0
  6
CONTINUOUS
 62
               7
100
AcDbLine
 10
-36.899999988148053
 20
-3.4322894090489626
 30
0.0
 11
-38.899999988148053
 21
-3.4322894090489626
 31
0.0
  0
LINE
  5
62E
100
AcDbEntity
  8
0
  6
CONTINUOUS
 62
               7
100
AcDbLine
 10
-36.899999988148053
 20
-3.9322894090489626
 30
0.0
 11
-38.899999988148053
 21
-3.9322894090489626
 31
0.0
  0
LINE
  5
62F
100
AcDbEntity
  8
0
  6
CONTINUOUS
 62
               7
100
AcDbLine
 10
-36.899999988148053
 20
-4.3322894090489683
 30
0.0
 11
-38.899999988148053
 21
-4.3322894090489683
 31
0.0
  0
LINE
  5
630
100
AcDbEntity
  8
0
  6
CONTINUOUS
 62
               7
100
AcDbLine
 10
-36.899999988148053
 20
-4.8322894090489683
 30
0.0
 11
-38.899999988148053
 21
-4.8322894090489683
 31
0.0
  0
LINE
  5
631
100
AcDbEntity
  8
0
  6
CONTINUOUS
 62
               7
100
AcDbLine
 10
-38.899999988148053
 20
-4.3322894090489683
 30
0.0
 11
-38.899999988148053
 21
-4.8322894090489683
 31
0.0
  0
LINE
  5
632
100
AcDbEntity
  8
0
  6
CONTINUOUS
 62
               7
100
AcDbLine
 10
-38.899999988148053
 20
-3.4322894090489626
 30
0.0
 11
-38.899999988148053
 21
-3.9322894090489626
 31
0.0
  0
LINE
  5
633
100
AcDbEntity
  8
0
  6
CONTINUOUS
 62
               7
100
AcDbLine
 10
19.0
 20
0.0
 30
0.0
 11
-8.9999999999999929
 21
0.0
 31
0.0
  0
LINE
  5
634
100
AcDbEntity
  8
0
  6
CONTINUOUS
 62
               7
100
AcDbLine
 10
-19.999999999999993
 20
-11.0
 30
0.0
 11
-19.999999999999993
 21
-16.799999999999983
 31
0.0
  0
LINE
  5
635
100
AcDbEntity
  8
0
  6
CONTINUOUS
 62
               7
100
AcDbLine
 10
20.0
 20
-1.0
 30
0.0
 11
-8.9999999999999929
 21
-1.0
 31
0.0
  0
LINE
  5
636
100
AcDbEntity
  8
0
  6
CONTINUOUS
 62
               7
100
AcDbLine
 10
-12.699999988148065
 20
-10.53228941072237
 30
0.0
 11
-12.699999988148065
 21
-0.5322894090489569
 31
0.0
  0
LINE
  5
637
100
AcDbEntity
  8
0
  6
CONTINUOUS
 62
               7
100
AcDbLine
 10
-19.999999988148062
 20
-9.9406382597265122
 30
0.0
 11
-19.999999988148062
 21
-1.1239405600447867
 31
0.0
  0
LINE
  5
638
100
AcDbEntity
  8
0
  6
CONTINUOUS
 62
               7
100
AcDbLine
 10
-18.799999988148066
 20
-3.6322894090489513
 30
0.0
 11
-19.999999988148062
 21
-3.6322894090489513
 31
0.0
  0
LINE
  5
639
100
AcDbEntity
  8
0
  6
CONTINUOUS
 62
               7
100
AcDbLine
 10
-18.799999988148066
 20
-3.6322894090489513
 30
0.0
 11
-18.799999988148066
 21
-0.5322894090489569
 31
0.0
  0
LINE
  5
63A
100
AcDbEntity
  8
0
  6
CENTER
 62
               2
100
AcDbLine
 10
-18.195856974999167
 20
-2.0322894090489569
 30
0.0
 11
-20.399999988148068
 21
-2.0322894090489569
 31
0.0
  0
LINE
  5
63B
100
AcDbEntity
  8
0
  6
CENTER
 62
               2
100
AcDbLine
 10
-32.89999998814806
 20
-4.1322894090489513
 30
0.0
 11
-18.799999988148066
 21
-4.1322894090489513
 31
0.0
  0
LINE
  5
63C
100
AcDbEntity
  8
0
  6
CONTINUOUS
 62
               7
100
AcDbLine
 10
-20.399999988148068
 20
-7.1322894090489513
 30
0.0
 11
-19.999999988148062
 21
-7.1322894090489513
 31
0.0
  0
LINE
  5
63D
100
AcDbEntity
  8
0
  6
CONTINUOUS
 62
               7
100
AcDbLine
 10
-20.399999988148068
 20
-1.1322894090489513
 30
0.0
 11
-19.999999988148062
 21
-1.1322894090489513
 31
0.0
  0
LINE
  5
63E
100
AcDbEntity
  8
0
  6
PHANTOM
 62
               2
100
AcDbLine
 10
-28.591154277324662
 20
-2.2322894334256205
 30
0.0
 11
-30.785085305571542
 21
-6.0322894453465494
 31
0.0
  0
LINE
  5
63F
100
AcDbEntity
  8
0
  6
PHANTOM
 62
               2
100
AcDbLine
 10
-29.514914676547036
 20
-2.2322894036232981
 30
0.0
 11
-31.708845719695077
 21
-6.0322894453465494
 31
0.0
  0
LINE
  5
640
100
AcDbEntity
  8
0
  6
PHANTOM
 62
               2
100
AcDbLine
 10
-33.572094380855546
 20
-2.6322894095837626
 30
0.0
 11
-35.304145202040658
 21
-5.632289439386085
 31
0.0
  0
LINE
  5
641
100
AcDbEntity
  8
0
  6
PHANTOM
 62
               2
100
AcDbLine
 10
-34.495854765176759
 20
-2.6322894095837626
 30
0.0
 11
-36.22790557146071
 21
-5.6322894095837626
 31
0.0
  0
LINE
  5
642
100
AcDbEntity
  8
0
  6
CONTINUOUS
 62
               7
100
AcDbLine
 10
-31.362435538355754
 20
-5.4322894090489626
 30
0.0
 11
-32.89999998814806
 21
-5.4322894090489626
 31
0.0
  0
LINE
  5
643
100
AcDbEntity
  8
0
  6
CONTINUOUS
 62
               7
100
AcDbLine
 10
-29.861324838462721
 20
-2.8322894090489683
 30
0.0
 11
-32.89999998814806
 21
-2.8322894090489683
 31
0.0
  0
LINE
  5
644
100
AcDbEntity
  8
0
  6
CONTINUOUS
 62
               7
100
AcDbLine
 10
-27.399999988148068
 20
-5.4322894090489626
 30
0.0
 11
-30.43867513913338
 21
-5.4322894090489626
 31
0.0
  0
LINE
  5
645
100
AcDbEntity
  8
0
  6
CONTINUOUS
 62
               7
100
AcDbLine
 10
-27.399999988148068
 20
-2.8322894090489683
 30
0.0
 11
-28.937564439240347
 21
-2.8322894090489683
 31
0.0
  0
LINE
  5
646
100
AcDbEntity
  8
0
  6
CONTINUOUS
 62
               7
100
AcDbLine
 10
-34.842264926124784
 20
-3.2322894090489456
 30
0.0
 11
-36.899999988148053
 21
-3.2322894090489456
 31
0.0
  0
LINE
  5
647
100
AcDbEntity
  8
0
  6
CONTINUOUS
 62
               7
100
AcDbLine
 10
-32.89999998814806
 20
-3.2322894090489456
 30
0.0
 11
-33.859999988148061
 21
-3.2322894090489456
 31
0.0
  0
LINE
  5
648
100
AcDbEntity
  8
0
  6
CONTINUOUS
 62
               7
100
AcDbLine
 10
-35.881495409895152
 20
-5.0322894090489569
 30
0.0
 11
-36.899999988148053
 21
-5.0322894090489569
 31
0.0
  0
LINE
  5
649
100
AcDbEntity
  8
0
  6
CONTINUOUS
 62
               7
100
AcDbLine
 10
-35.361880168009975
 20
-4.1322894090489513
 30
0.0
 11
-36.899999988148053
 21
-4.1322894090489513
 31
0.0
  0
LINE
  5
64A
100
AcDbEntity
  8
0
  6
CONTINUOUS
 62
               7
100
AcDbLine
 10
-32.89999998814806
 20
-4.1322894090489513
 30
0.0
 11
-34.379999988148057
 21
-4.1322894090489513
 31
0.0
  0
LINE
  5
64B
100
AcDbEntity
  8
0
  6
CONTINUOUS
 62
               7
100
AcDbLine
 10
-32.89999998814806
 20
-5.0322894090489569
 30
0.0
 11
-34.899999988148053
 21
-5.0322894090489569
 31
0.0
  0
LINE
  5
64C
100
AcDbEntity
  8
0
  6
CONTINUOUS
 62
               7
100
AcDbLine
 10
-36.899999988148053
 20
-3.2322894090489456
 30
0.0
 11
-36.899999988148053
 21
-5.0322894090489569
 31
0.0
  0
LINE
  5
64D
100
AcDbEntity
  8
0
  6
CONTINUOUS
 62
               7
100
AcDbLine
 10
-32.89999998814806
 20
-2.8322894090489683
 30
0.0
 11
-32.89999998814806
 21
-5.4322894090489626
 31
0.0
  0
LINE
  5
64E
100
AcDbEntity
  8
0
  6
CONTINUOUS
 62
               7
100
AcDbLine
 10
-22.899999988148068
 20
-2.3822894090489513
 30
0.0
 11
-21.899999988148068
 21
-2.3822894090489513
 31
0.0
  0
LINE
  5
64F
100
AcDbEntity
  8
0
  6
CONTINUOUS
 62
               7
100
AcDbLine
 10
-22.899999988148068
 20
-5.8822894090489513
 30
0.0
 11
-21.899999988148068
 21
-5.8822894090489513
 31
0.0
  0
LINE
  5
650
100
AcDbEntity
  8
0
  6
CONTINUOUS
 62
               7
100
AcDbLine
 10
-25.399999988148068
 20
-2.3822894090489513
 30
0.0
 11
-24.399999988148068
 21
-2.3822894090489513
 31
0.0
  0
LINE
  5
651
100
AcDbEntity
  8
0
  6
CONTINUOUS
 62
               7
100
AcDbLine
 10
-25.399999988148068
 20
-5.8822894090489513
 30
0.0
 11
-24.399999988148068
 21
-5.8822894090489513
 31
0.0
  0
LINE
  5
652
100
AcDbEntity
  8
0
  6
CONTINUOUS
 62
               7
100
AcDbLine
 10
-21.899999988148068
 20
-1.3465751233346737
 30
0.0
 11
-20.399999988148068
 21
-1.1322894090489513
 31
0.0
  0
LINE
  5
653
100
AcDbEntity
  8
0
  6
CONTINUOUS
 62
               7
100
AcDbLine
 10
-24.399999988148068
 20
-1.7037179804775349
 30
0.0
 11
-22.899999988148068
 21
-1.4894322661918125
 31
0.0
  0
LINE
  5
654
100
AcDbEntity
  8
0
  6
CONTINUOUS
 62
               7
100
AcDbLine
 10
-21.899999988148068
 20
-6.9180036947632573
 30
0.0
 11
-20.399999988148068
 21
-7.1322894090489513
 31
0.0
  0
LINE
  5
655
100
AcDbEntity
  8
0
  6
CONTINUOUS
 62
               7
100
AcDbLine
 10
-24.399999988148068
 20
-6.5608608376203961
 30
0.0
 11
-22.899999988148068
 21
-6.7751465519060901
 31
0.0
  0
LINE
  5
656
100
AcDbEntity
  8
0
  6
CONTINUOUS
 62
               7
100
AcDbLine
 10
-21.899999988148068
 20
-1.3465751233346737
 30
0.0
 11
-21.899999988148068
 21
-6.9180036947632573
 31
0.0
  0
LINE
  5
657
100
AcDbEntity
  8
0
  6
CONTINUOUS
 62
               7
100
AcDbLine
 10
-22.899999988148068
 20
-1.4894322661918125
 30
0.0
 11
-22.899999988148068
 21
-6.7751465519060901
 31
0.0
  0
LINE
  5
658
100
AcDbEntity
  8
0
  6
CONTINUOUS
 62
               7
100
AcDbLine
 10
-24.399999988148068
 20
-1.7037179804775349
 30
0.0
 11
-24.399999988148068
 21
-6.5608608376203961
 31
0.0
  0
LINE
  5
659
100
AcDbEntity
  8
0
  6
CONTINUOUS
 62
               7
100
AcDbLine
 10
-25.399999988148068
 20
-1.8465751233346737
 30
0.0
 11
-25.399999988148068
 21
-6.4180036947632573
 31
0.0
  0
LINE
  5
65A
100
AcDbEntity
  8
0
  6
CONTINUOUS
 62
               7
100
AcDbLine
 10
-27.399999988148068
 20
-2.1322894090489513
 30
0.0
 11
-25.399999988148068
 21
-1.8465751233346737
 31
0.0
  0
LINE
  5
65B
100
AcDbEntity
  8
0
  6
CONTINUOUS
 62
               7
100
AcDbLine
 10
-27.399999988148068
 20
-6.1322894090489513
 30
0.0
 11
-25.399999988148068
 21
-6.4180036947632573
 31
0.0
  0
LINE
  5
65C
100
AcDbEntity
  8
0
  6
CONTINUOUS
 62
               7
100
AcDbLine
 10
-27.399999988148068
 20
-2.1322894090489513
 30
0.0
 11
-27.399999988148068
 21
-6.1322894090489513
 31
0.0
  0
LINE
  5
65D
100
AcDbEntity
  8
0
  6
CONTINUOUS
 62
               7
100
AcDbLine
 10
-20.399999988148068
 20
-1.1322894090489513
 30
0.0
 11
-20.399999988148068
 21
-7.1322894090489513
 31
0.0
  0
LINE
  5
65E
100
AcDbEntity
  8
0
  6
CONTINUOUS
 62
               7
100
AcDbLine
 10
-12.699999988148065
 20
-10.53228941072237
 30
0.0
 11
-19.50436325589726
 21
-10.440619221258629
 31
0.0
  0
LINE
  5
65F
100
AcDbEntity
  8
0
  6
CONTINUOUS
 62
               7
100
AcDbLine
 10
-12.699999988148065
 20
-0.5322894090489569
 30
0.0
 11
-18.799999988148066
 21
-0.6144702294615456
 31
0.0
  0
ARC
  5
660
100
AcDbEntity
  8
0
  6
CONTINUOUS
 62
               7
100
AcDbCircle
 10
-19.499999988148062
 20
-1.1239405600447867
 30
0.0
 40
0.5
100
AcDbArc
 50
90.500000000000071
 51
179.99999999999963
  0
ARC
  5
661
100
AcDbEntity
  8
0
  6
CONTINUOUS
 62
               7
100
AcDbCircle
 10
-19.499999988148062
 20
-9.9406382597265122
 30
0.0
 40
0.5
100
AcDbArc
 50
179.99999999999963
 51
269.49999999999915
  0
LINE
  5
662
100
AcDbEntity
  8
0
  6
CONTINUOUS
 62
               7
100
AcDbLine
 10
-12.699999988148065
 20
-0.5322894090489569
 30
0.0
 11
-8.9999999999999929
 21
-0.5645788197713273
 31
0.0
  0
LINE
  5
663
100
AcDbEntity
  8
0
  6
CONTINUOUS
 62
               7
100
AcDbLine
 10
-12.699999988148065
 20
-10.53228941072237
 30
0.0
 11
-8.9999999999999929
 21
-10.5
 31
0.0
  0
LINE
  5
664
100
AcDbEntity
  8
0
  6
CENTER
 62
               2
100
AcDbLine
 10
-7.8555882073952645
 20
-5.5322894090489569
 30
0.0
 11
-21.436533219128897
 21
-5.5322894090489569
 31
0.0
  0
LINE
  5
665
100
AcDbEntity
  8
0
  6
CONTINUOUS
 62
               7
100
AcDbLine
 10
-8.9999999999999929
 20
-11.0
 30
0.0
 11
-19.999999999999993
 21
-11.0
 31
0.0
  0
LINE
  5
666
100
AcDbEntity
  8
0
  6
CONTINUOUS
 62
               7
100
AcDbLine
 10
-8.9999999999999929
 20
-0.0000000110763096
 30
0.0
 11
-8.9999999999999929
 21
-11.00000001107631
 31
0.0
  0
LINE
  5
667
100
AcDbEntity
  8
0
  6
CENTER
 62
               2
100
AcDbLine
 10
20.342135623730954
 20
-6.5
 30
0.0
 11
7.9421356237309553
 21
-6.5
 31
0.0
  0
LINE
  5
668
100
AcDbEntity
  8
0
  6
CENTER
 62
               2
100
AcDbLine
 10
14.142135623730951
 20
-0.299999999999983
 30
0.0
 11
14.142135623730951
 21
-12.700000000000017
 31
0.0
  0
CIRCLE
  5
669
100
AcDbEntity
  8
0
  6
CONTINUOUS
 62
               7
100
AcDbCircle
 10
14.142135623730951
 20
-6.5
 30
0.0
 40
4.0
  0
LINE
  5
66A
100
AcDbEntity
  8
0
  6
CONTINUOUS
 62
               7
100
AcDbLine
 10
16.16713562373095
 20
-10.007402885326968
 30
0.0
 11
18.192135623730955
 21
-6.5
 31
0.0
  0
LINE
  5
66B
100
AcDbEntity
  8
0
  6
CONTINUOUS
 62
               7
100
AcDbLine
 10
18.192135623730955
 20
-6.5
 30
0.0
 11
16.167135623730957
 21
-2.9925971146730319
 31
0.0
  0
ARC
  5
66C
100
AcDbEntity
  8
0
  6
CONTINUOUS
 62
               7
100
AcDbCircle
 10
14.142135623730951
 20
-6.5
 30
0.0
 40
3.5074028853269792
100
AcDbArc
 50
99.849847730174503
 51
260.15015226982462
  0
ARC
  5
66D
100
AcDbEntity
  8
0
  6
CONTINUOUS
 62
               7
100
AcDbCircle
 10
14.142135623730951
 20
-6.5
 30
0.0
 40
3.5074028853269792
100
AcDbArc
 50
279.84984773017413
 51
80.150152269825071
  0
LINE
  5
66E
100
AcDbEntity
  8
0
  6
CONTINUOUS
 62
               7
100
AcDbLine
 10
13.54213562373095
 20
-2.9925971146730319
 30
0.0
 11
13.54213562373095
 21
-10.007402885326968
 31
0.0
  0
LINE
  5
66F
100
AcDbEntity
  8
0
  6
CONTINUOUS
 62
               7
100
AcDbLine
 10
14.742135623730952
 20
-2.9925971146730319
 30
0.0
 11
14.742135623730952
 21
-10.007402885326968
 31
0.0
  0
LINE
  5
670
100
AcDbEntity
  8
0
  6
CONTINUOUS
 62
               7
100
AcDbLine
 10
16.167135623730957
 20
-2.9925971146730319
 30
0.0
 11
12.117135623730945
 21
-2.9925971146730319
 31
0.0
  0
LINE
  5
671
100
AcDbEntity
  8
0
  6
CONTINUOUS
 62
               7
100
AcDbLine
 10
12.11713562373096
 20
-10.007402885326968
 30
0.0
 11
16.16713562373095
 21
-10.007402885326968
 31
0.0
  0
LINE
  5
672
100
AcDbEntity
  8
0
  6
CONTINUOUS
 62
               7
100
AcDbLine
 10
10.092135623730954
 20
-6.5
 30
0.0
 11
12.11713562373096
 21
-10.007402885326968
 31
0.0
  0
LINE
  5
673
100
AcDbEntity
  8
0
  6
CONTINUOUS
 62
               7
100
AcDbLine
 10
12.117135623730945
 20
-2.9925971146730319
 30
0.0
 11
10.092135623730954
 21
-6.5
 31
0.0
  0
LINE
  5
674
100
AcDbEntity
  8
0
  6
CENTER
 62
             200
100
AcDbLine
 10
16.700000000000003
 20
-14.272059509330319
 30
0.0
 11
16.700000000000003
 21
-20.0
 31
0.0
  0
LINE
  5
675
100
AcDbEntity
  8
0
  6
CENTER
 62
             200
100
AcDbLine
 10
-8.3500000317785563
 20
-14.272059509330319
 30
0.0
 11
-8.3500000317785563
 21
-20.0
 31
0.0
  0
LINE
  5
676
100
AcDbEntity
  8
0
  6
CENTER
 62
               2
100
AcDbLine
 10
0.0
 20
2.0000000000000142
 30
0.0
 11
0.0
 21
-19.0
 31
0.0
  0
LINE
  5
677
100
AcDbEntity
  8
0
  6
CONTINUOUS
 62
               7
100
AcDbLine
 10
20.0
 20
-16.799999999999983
 30
0.0
 11
19.79999999999999
 21
-17.0
 31
0.0
  0
LINE
  5
678
100
AcDbEntity
  8
0
  6
CONTINUOUS
 62
               7
100
AcDbLine
 10
-19.79999999999999
 20
-17.0
 30
0.0
 11
-19.999999999999993
 21
-16.799999999999983
 31
0.0
  0
LINE
  5
679
100
AcDbEntity
  8
0
  6
CONTINUOUS
 62
               4
100
AcDbLine
 10
19.700000000000003
 20
-17.0
 30
0.0
 11
19.700000000000003
 21
-18.0
 31
0.0
  0
LINE
  5
67A
100
AcDbEntity
  8
0
  6
CONTINUOUS
 62
               4
100
AcDbLine
 10
13.700000000000003
 20
-17.000000009112881
 30
0.0
 11
13.700000000000003
 21
-18.0
 31
0.0
  0
LINE
  5
67B
100
AcDbEntity
  8
0
  6
CONTINUOUS
 62
               4
100
AcDbLine
 10
-5.3500000317785492
 20
-17.0
 30
0.0
 11
-5.3500000317785492
 21
-18.0
 31
0.0
  0
LINE
  5
67C
100
AcDbEntity
  8
0
  6
CONTINUOUS
 62
               4
100
AcDbLine
 10
-11.350000031778553
 20
-17.0
 30
0.0
 11
-11.350000031778553
 21
-18.0
 31
0.0
  0
LINE
  5
67D
100
AcDbEntity
  8
0
  6
CONTINUOUS
 62
               7
100
AcDbLine
 10
20.0
 20
-16.799999999999983
 30
0.0
 11
-19.999999999999993
 21
-16.799999999999983
 31
0.0
  0
CIRCLE
  5
67E
100
AcDbEntity
  8
0
  6
CONTINUOUS
 62
               7
100
AcDbCircle
 10
14.142135623730951
 20
-6.5
 30
0.0
 40
4.75
  0
LINE
  5
67F
100
AcDbEntity
  8
0
  6
CONTINUOUS
 62
               7
100
AcDbLine
 10
-19.399999988148075
 20
-3.0322894090489569
 30
0.0
 11
-19.399999988148068
 21
-1.0322894090489569
 31
0.0
  0
LINE
  5
680
100
AcDbEntity
  8
0
  6
CONTINUOUS
 62
               7
100
AcDbLine
 10
-18.799999988148073
 20
-0.5322894090489569
 30
0.0
 11
-18.899999988148075
 21
-0.5322894090489569
 31
0.0
  0
LINE
  5
681
100
AcDbEntity
  8
0
  6
CONTINUOUS
 62
               7
100
AcDbLine
 10
-18.799999988148073
 20
-3.5322894090489569
 30
0.0
 11
-18.899999988148075
 21
-3.5322894090489569
 31
0.0
  0
ARC
  5
682
100
AcDbEntity
  8
0
  6
CONTINUOUS
 62
               7
100
AcDbCircle
 10
-18.899999988148075
 20
-3.0322894090489569
 30
0.0
 40
0.5
100
AcDbArc
 50
179.99999999999963
 51
269.99999999999937
  0
ARC
  5
683
100
AcDbEntity
  8
0
  6
CONTINUOUS
 62
               7
100
AcDbCircle
 10
-18.899999988148075
 20
-1.0322894090489569
 30
0.0
 40
0.5
100
AcDbArc
 50
89.999999999999815
 51
179.99999999999963
  0
LINE
  5
684
100
AcDbEntity
  8
0
  6
CONTINUOUS
 62
               7
100
AcDbLine
 10
-19.18232027224856
 20
-0.6196209498890255
 30
0.0
 11
-19.50436325589726
 21
-0.6239595985126982
 31
0.0
  0
ENDBLK
  5
685
100
AcDbEntity
  8
0
100
AcDbBlockEnd
  0
BLOCK
  5
686
100
AcDbEntity
  8
0
100
AcDbBlockBegin
  2
NCT40-17
 70
               0
 10
0.0
 20
0.0
 30
0.0
  3
NCT40-17
  1

  0
LINE
  5
687
100
AcDbEntity
  8
0
  6
DASHED
 62
               2
100
AcDbLine
 10
16.015968593875286
 20
10.288403666264315
 30
0.0
 11
14.601755031502194
 21
8.874190103891209
 31
0.0
  0
LINE
  5
688
100
AcDbEntity
  8
0
  6
DASHED
 62
               2
100
AcDbLine
 10
14.142135623730937
 20
8.4852813742386104
 30
0.0
 11
14.566399692442864
 21
8.909545442950531
 31
0.0
  0
LINE
  5
689
100
AcDbEntity
  8
0
  6
DASHED
 62
               2
100
AcDbLine
 10
12.091525958289942
 20
12.798632739476545
 30
0.0
 11
12.798632739476496
 21
12.091525958289992
 31
0.0
  0
LINE
  5
68A
100
AcDbEntity
  8
0
  6
DASHED
 62
               2
100
AcDbLine
 10
13.152186130069765
 20
13.859292911256375
 30
0.0
 11
12.091525958289942
 21
12.798632739476545
 31
0.0
  0
LINE
  5
68B
100
AcDbEntity
  8
0
  6
DASHED
 62
               2
100
AcDbLine
 10
10.288403666264259
 20
16.015968593875328
 30
0.0
 11
10.995510447450798
 21
16.015968593875357
 31
0.0
  0
ARC
  5
68C
100
AcDbEntity
  8
0
  6
DASHED
 62
               2
100
AcDbCircle
 10
5.1235610961754148
 20
12.154649514246159
 30
0.0
 40
7.0277716396203269
100
AcDbArc
 50
20.2546208573625
 51
33.328410201475762
  0
LINE
  5
68D
100
AcDbEntity
  8
0
  6
DASHED
 62
               2
100
AcDbLine
 10
11.716759364261073
 20
14.587612895878522
 30
0.0
 11
10.30254580188798
 21
13.173399333505415
 31
0.0
  0
LINE
  5
68E
100
AcDbEntity
  8
0
  6
DASHED
 62
               2
100
AcDbLine
 10
10.995510447450798
 20
16.015968593875357
 30
0.0
 11
13.152186130069765
 21
13.859292911256375
 31
0.0
  0
ARC
  5
68F
100
AcDbEntity
  8
0
  6
DASHED
 62
               2
100
AcDbCircle
 10
10.440535532380444
 20
10.412952354407025
 30
0.0
 40
4.3653794686807261
100
AcDbArc
 50
51.834711780667043
 51
73.001229803738639
  0
LINE
  5
690
100
AcDbEntity
  8
0
  6
DASHED
 62
               2
100
AcDbLine
 10
8.4852813742385536
 20
14.142135623731008
 30
0.0
 11
8.9095454429504883
 21
14.566399692442928
 31
0.0
  0
LINE
  5
691
100
AcDbEntity
  8
0
  6
DASHED
 62
               2
100
AcDbLine
 10
10.288403666264259
 20
16.015968593875328
 30
0.0
 11
8.8741901038911593
 21
14.60175503150225
 31
0.0
  0
LINE
  5
692
100
AcDbEntity
  8
0
  6
DASHED
 62
               2
100
AcDbLine
 10
13.081475451951114
 20
9.5459415460184402
 30
0.0
 11
10.895512457154553
 21
7.3599785512218716
 31
0.0
  0
ARC
  5
693
100
AcDbEntity
  8
0
  6
DASHED
 62
               2
100
AcDbCircle
 10
12.153944892329633
 20
5.1221656684585355
 30
0.0
 40
7.0293247160888015
100
AcDbArc
 50
56.673040373502339
 51
69.743928567659154
  0
LINE
  5
694
100
AcDbEntity
  8
0
  6
DASHED
 62
               2
100
AcDbLine
 10
14.587612895878458
 20
11.716759364261122
 30
0.0
 11
13.173399333505358
 21
10.302545801888044
 31
0.0
  0
LINE
  5
695
100
AcDbEntity
  8
0
  6
DASHED
 62
               2
100
AcDbLine
 10
13.859292911256311
 20
13.152186130069822
 30
0.0
 11
16.015968593875286
 21
10.99551044745084
 31
0.0
  0
LINE
  5
696
100
AcDbEntity
  8
0
  6
DASHED
 62
               2
100
AcDbLine
 10
13.859292911256311
 20
13.152186130069822
 30
0.0
 11
12.798632739476496
 21
12.091525958289992
 31
0.0
  0
ARC
  5
697
100
AcDbEntity
  8
0
  6
DASHED
 62
               2
100
AcDbCircle
 10
10.414259706814242
 20
10.441218477667888
 30
0.0
 40
4.363929581700825
100
AcDbArc
 50
16.995213414137279
 51
38.168845001456681
  0
LINE
  5
698
100
AcDbEntity
  8
0
  6
DASHED
 62
               2
100
AcDbLine
 10
16.015968593875286
 20
10.99551044745084
 30
0.0
 11
16.015968593875286
 21
10.288403666264315
 31
0.0
  0
LINE
  5
699
100
AcDbEntity
  8
0
  6
DASHED
 62
               2
100
AcDbLine
 10
12.798632739476496
 20
9.8287842584930445
 30
0.0
 11
10.433387590108012
 21
7.4635391091245538
 31
0.0
  0
LINE
  5
69A
100
AcDbEntity
  8
0
  6
DASHED
 62
               2
100
AcDbLine
 10
9.8287842584929948
 20
12.798632739476545
 30
0.0
 11
7.1448152787744235
 21
10.114663759758002
 31
0.0
  0
LINE
  5
69B
100
AcDbEntity
  8
0
  6
DASHED
 62
               2
100
AcDbLine
 10
9.5459415460183763
 20
13.081475451951178
 30
0.0
 11
7.1806963966498927
 21
10.716230302582687
 31
0.0
  0
LINE
  5
69C
100
AcDbEntity
  8
0
  6
DASHED
 62
               2
100
AcDbLine
 10
8.8741901038911593
 20
14.60175503150225
 30
0.0
 11
14.601755031502194
 21
8.874190103891209
 31
0.0
  0
LINE
  5
69D
100
AcDbEntity
  8
0
  6
DASHED
 62
               2
100
AcDbLine
 10
7.9549512883486457
 20
14.672465709620923
 30
0.0
 11
14.672465709620852
 21
7.9549512883486955
 31
0.0
  0
LINE
  5
69E
100
AcDbEntity
  8
0
  6
DASHED
 62
               2
100
AcDbLine
 10
8.4852813742385678
 20
-14.142135623730979
 30
0.0
 11
8.9095454429505025
 21
-14.5663996924429
 31
0.0
  0
LINE
  5
69F
100
AcDbEntity
  8
0
  6
DASHED
 62
               2
100
AcDbLine
 10
10.288403666264287
 20
-16.015968593875328
 30
0.0
 11
8.8741901038911806
 21
-14.601755031502222
 31
0.0
  0
ARC
  5
6A0
100
AcDbEntity
  8
0
  6
DASHED
 62
               2
100
AcDbCircle
 10
10.44121847766786
 20
-10.414259706814278
 30
0.0
 40
4.363929581700825
100
AcDbArc
 50
286.99521341413669
 51
308.16884500145608
  0
LINE
  5
6A1
100
AcDbEntity
  8
0
  6
DASHED
 62
               2
100
AcDbLine
 10
13.152186130069794
 20
-13.859292911256347
 30
0.0
 11
12.091525958289964
 21
-12.798632739476545
 31
0.0
  0
LINE
  5
6A2
100
AcDbEntity
  8
0
  6
DASHED
 62
               2
100
AcDbLine
 10
13.152186130069794
 20
-13.859292911256347
 30
0.0
 11
10.995510447450826
 21
-16.0159685938753
 31
0.0
  0
LINE
  5
6A3
100
AcDbEntity
  8
0
  6
DASHED
 62
               2
100
AcDbLine
 10
11.716759364261094
 20
-14.587612895878493
 30
0.0
 11
10.302545801888016
 21
-13.173399333505387
 31
0.0
  0
ARC
  5
6A4
100
AcDbEntity
  8
0
  6
DASHED
 62
               2
100
AcDbCircle
 10
5.1221656684584929
 20
-12.153944892329662
 30
0.0
 40
7.0293247160888015
100
AcDbArc
 50
326.67304037350175
 51
339.74392856765854
  0
LINE
  5
6A5
100
AcDbEntity
  8
0
  6
DASHED
 62
               2
100
AcDbLine
 10
9.8287842584930161
 20
-12.798632739476545
 30
0.0
 11
7.4635391091245396
 21
-10.433387590108055
 31
0.0
  0
LINE
  5
6A6
100
AcDbEntity
  8
0
  6
DASHED
 62
               2
100
AcDbLine
 10
9.5459415460183976
 20
-13.08147545195115
 30
0.0
 11
7.3599785512218432
 21
-10.895512457154609
 31
0.0
  0
LINE
  5
6A7
100
AcDbEntity
  8
0
  6
DASHED
 62
               2
100
AcDbLine
 10
10.995510447450826
 20
-16.0159685938753
 30
0.0
 11
10.288403666264287
 21
-16.015968593875328
 31
0.0
  0
LINE
  5
6A8
100
AcDbEntity
  8
0
  6
DASHED
 62
               2
100
AcDbLine
 10
16.0159685938753
 20
-10.288403666264287
 30
0.0
 11
14.601755031502208
 21
-8.8741901038911806
 31
0.0
  0
LINE
  5
6A9
100
AcDbEntity
  8
0
  6
DASHED
 62
               2
100
AcDbLine
 10
14.142135623730965
 20
-8.485281374238582
 30
0.0
 11
14.5663996924429
 21
-8.909545442950531
 31
0.0
  0
ARC
  5
6AA
100
AcDbEntity
  8
0
  6
DASHED
 62
               2
100
AcDbCircle
 10
10.412952354406983
 20
-10.440535532380466
 30
0.0
 40
4.3653794686807261
100
AcDbArc
 50
321.83471178066645
 51
343.001229803738
  0
LINE
  5
6AB
100
AcDbEntity
  8
0
  6
DASHED
 62
               2
100
AcDbLine
 10
16.015968593875314
 20
-10.99551044745084
 30
0.0
 11
13.859292911256347
 21
-13.152186130069794
 31
0.0
  0
LINE
  5
6AC
100
AcDbEntity
  8
0
  6
DASHED
 62
               2
100
AcDbLine
 10
14.587612895878479
 20
-11.716759364261122
 30
0.0
 11
13.173399333505401
 21
-10.302545801888016
 31
0.0
  0
ARC
  5
6AD
100
AcDbEntity
  8
0
  6
DASHED
 62
               2
100
AcDbCircle
 10
12.154649514246117
 20
-5.1235610961754503
 30
0.0
 40
7.0277716396203269
100
AcDbArc
 50
290.25462085736189
 51
303.32841020147521
  0
LINE
  5
6AE
100
AcDbEntity
  8
0
  6
DASHED
 62
               2
100
AcDbLine
 10
16.0159685938753
 20
-10.288403666264287
 30
0.0
 11
16.015968593875314
 21
-10.99551044745084
 31
0.0
  0
LINE
  5
6AF
100
AcDbEntity
  8
0
  6
DASHED
 62
               2
100
AcDbLine
 10
13.859292911256347
 20
-13.152186130069794
 30
0.0
 11
12.798632739476517
 21
-12.091525958289992
 31
0.0
  0
LINE
  5
6B0
100
AcDbEntity
  8
0
  6
DASHED
 62
               2
100
AcDbLine
 10
12.798632739476517
 20
-12.091525958289992
 30
0.0
 11
12.091525958289964
 21
-12.798632739476545
 31
0.0
  0
LINE
  5
6B1
100
AcDbEntity
  8
0
  6
DASHED
 62
               2
100
AcDbLine
 10
12.798632739476517
 20
-9.8287842584930445
 30
0.0
 11
10.11466375975796
 21
-7.1448152787744732
 31
0.0
  0
LINE
  5
6B2
100
AcDbEntity
  8
0
  6
DASHED
 62
               2
100
AcDbLine
 10
13.081475451951135
 20
-9.5459415460184118
 30
0.0
 11
10.716230302582659
 21
-7.1806963966499211
 31
0.0
  0
LINE
  5
6B3
100
AcDbEntity
  8
0
  6
DASHED
 62
               2
100
AcDbLine
 10
14.601755031502208
 20
-8.8741901038911806
 30
0.0
 11
8.8741901038911806
 21
-14.601755031502222
 31
0.0
  0
LINE
  5
6B4
100
AcDbEntity
  8
0
  6
DASHED
 62
               2
100
AcDbLine
 10
14.672465709620866
 20
-7.9549512883486955
 30
0.0
 11
7.954951288348667
 21
-14.672465709620894
 31
0.0
  0
LINE
  5
6B5
100
AcDbEntity
  8
0
  6
CONTINUOUS
 62
               7
100
AcDbLine
 10
-12.699999988148075
 20
-7.9999999999999716
 30
0.0
 11
-9.0
 21
-7.9677105892776012
 31
0.0
  0
ARC
  5
6B6
100
AcDbEntity
  8
0
  6
CONTINUOUS
 62
               7
100
AcDbCircle
 10
-19.499999988148076
 20
11.408348849004227
 30
0.0
 40
0.5
100
AcDbArc
 50
90.499999999999659
 51
179.99999999999963
  0
ARC
  5
6B7
100
AcDbEntity
  8
0
  6
CONTINUOUS
 62
               7
100
AcDbCircle
 10
-19.499999988148076
 20
-7.4083488490041134
 30
0.0
 40
0.5
100
AcDbArc
 50
179.99999999999963
 51
269.49999999999915
  0
LINE
  5
6B8
100
AcDbEntity
  8
0
  6
CONTINUOUS
 62
               7
100
AcDbLine
 10
-12.699999988148075
 20
-7.9999999999999716
 30
0.0
 11
-18.799999988148073
 21
-7.9178191795874113
 31
0.0
  0
LINE
  5
6B9
100
AcDbEntity
  8
0
  6
CONTINUOUS
 62
               7
100
AcDbLine
 10
-12.699999988148079
 20
12.000000000000028
 30
0.0
 11
-19.504363255897253
 21
11.908329810536316
 31
0.0
  0
LINE
  5
6BA
100
AcDbEntity
  8
0
  6
CONTINUOUS
 62
               7
100
AcDbLine
 10
-14.599999988148074
 20
-4.1999999999999886
 30
0.0
 11
-13.699999988148083
 21
-4.1999999999999886
 31
0.0
  0
LINE
  5
6BB
100
AcDbEntity
  8
0
  6
CONTINUOUS
 62
               7
100
AcDbLine
 10
-13.699999988148079
 20
-3.0
 30
0.0
 11
-14.599999988148067
 21
-2.9999999999999716
 31
0.0
  0
LINE
  5
6BC
100
AcDbEntity
  8
0
  6
CONTINUOUS
 62
               7
100
AcDbLine
 10
-13.699999988148079
 20
7.0
 30
0.0
 11
-14.59999998814807
 21
7.0000000000000284
 31
0.0
  0
LINE
  5
6BD
100
AcDbEntity
  8
0
  6
CONTINUOUS
 62
               7
100
AcDbLine
 10
-14.59999998814807
 20
8.1999999999999886
 30
0.0
 11
-13.699999988148072
 21
8.2000000000000171
 31
0.0
  0
LINE
  5
6BE
100
AcDbEntity
  8
0
  6
PHANTOM
 62
               2
100
AcDbLine
 10
-28.591154277324677
 20
10.199999975623371
 30
0.0
 11
-30.785085305571556
 21
6.3999999637024416
 31
0.0
  0
LINE
  5
6BF
100
AcDbEntity
  8
0
  6
PHANTOM
 62
               2
100
AcDbLine
 10
-29.51491467654705
 20
10.200000005425693
 30
0.0
 11
-31.708845719695084
 21
6.3999999637024416
 31
0.0
  0
LINE
  5
6C0
100
AcDbEntity
  8
0
  6
PHANTOM
 62
               2
100
AcDbLine
 10
-33.57209438085556
 20
9.7999999994652285
 30
0.0
 11
-35.304145202040679
 21
6.7999999696629061
 31
0.0
  0
LINE
  5
6C1
100
AcDbEntity
  8
0
  6
PHANTOM
 62
               2
100
AcDbLine
 10
-34.495854765176773
 20
9.7999999994652285
 30
0.0
 11
-36.227905571460731
 21
6.7999999994652285
 31
0.0
  0
LINE
  5
6C2
100
AcDbEntity
  8
0
  6
CONTINUOUS
 62
               7
100
AcDbLine
 10
-31.362435538355768
 20
7.0
 30
0.0
 11
-32.899999988148075
 21
7.0
 31
0.0
  0
LINE
  5
6C3
100
AcDbEntity
  8
0
  6
CONTINUOUS
 62
               7
100
AcDbLine
 10
-29.861324838462735
 20
9.6000000000000227
 30
0.0
 11
-32.89999998814806
 21
9.6000000000000227
 31
0.0
  0
LINE
  5
6C4
100
AcDbEntity
  8
0
  6
CONTINUOUS
 62
               7
100
AcDbLine
 10
-27.399999988148068
 20
7.0
 30
0.0
 11
-30.438675139133387
 21
7.0
 31
0.0
  0
LINE
  5
6C5
100
AcDbEntity
  8
0
  6
CONTINUOUS
 62
               7
100
AcDbLine
 10
-27.399999988148068
 20
9.6000000000000227
 30
0.0
 11
-28.937564439240361
 21
9.6000000000000227
 31
0.0
  0
LINE
  5
6C6
100
AcDbEntity
  8
0
  6
CONTINUOUS
 62
               7
100
AcDbLine
 10
-36.89999998814806
 20
7.6000000000000227
 30
0.0
 11
-38.89999998814806
 21
7.6000000000000227
 31
0.0
  0
LINE
  5
6C7
100
AcDbEntity
  8
0
  6
CONTINUOUS
 62
               7
100
AcDbLine
 10
-36.899999988148075
 20
8.1000000000000227
 30
0.0
 11
-38.89999998814806
 21
8.1000000000000227
 31
0.0
  0
LINE
  5
6C8
100
AcDbEntity
  8
0
  6
CONTINUOUS
 62
               7
100
AcDbLine
 10
-36.899999988148068
 20
8.5
 30
0.0
 11
-38.899999988148075
 21
8.5
 31
0.0
  0
LINE
  5
6C9
100
AcDbEntity
  8
0
  6
CONTINUOUS
 62
               7
100
AcDbLine
 10
-36.899999988148068
 20
9.0
 30
0.0
 11
-38.899999988148075
 21
9.0
 31
0.0
  0
LINE
  5
6CA
100
AcDbEntity
  8
0
  6
CONTINUOUS
 62
               7
100
AcDbLine
 10
-34.842264926124798
 20
9.1999999999999886
 30
0.0
 11
-36.899999988148068
 21
9.1999999999999886
 31
0.0
  0
LINE
  5
6CB
100
AcDbEntity
  8
0
  6
CONTINUOUS
 62
               7
100
AcDbLine
 10
-32.899999988148068
 20
9.1999999999999886
 30
0.0
 11
-33.859999988148068
 21
9.1999999999999886
 31
0.0
  0
LINE
  5
6CC
100
AcDbEntity
  8
0
  6
CONTINUOUS
 62
               7
100
AcDbLine
 10
-35.881495409895159
 20
7.3999999999999773
 30
0.0
 11
-36.899999988148075
 21
7.4000000000000057
 31
0.0
  0
LINE
  5
6CD
100
AcDbEntity
  8
0
  6
CONTINUOUS
 62
               7
100
AcDbLine
 10
-35.361880168009982
 20
8.3000000000000398
 30
0.0
 11
-36.899999988148068
 21
8.3000000000000114
 31
0.0
  0
LINE
  5
6CE
100
AcDbEntity
  8
0
  6
CONTINUOUS
 62
               7
100
AcDbLine
 10
-32.899999988148075
 20
8.3000000000000114
 30
0.0
 11
-34.379999988148072
 21
8.3000000000000114
 31
0.0
  0
LINE
  5
6CF
100
AcDbEntity
  8
0
  6
CONTINUOUS
 62
               7
100
AcDbLine
 10
-32.89999998814806
 20
7.3999999999999773
 30
0.0
 11
-34.89999998814806
 21
7.3999999999999773
 31
0.0
  0
LINE
  5
6D0
100
AcDbEntity
  8
0
  6
CONTINUOUS
 62
               7
100
AcDbLine
 10
-36.899999988148068
 20
9.1999999999999886
 30
0.0
 11
-36.899999988148075
 21
7.4000000000000057
 31
0.0
  0
LINE
  5
6D1
100
AcDbEntity
  8
0
  6
CONTINUOUS
 62
               7
100
AcDbLine
 10
-38.89999998814806
 20
8.1000000000000227
 30
0.0
 11
-38.89999998814806
 21
7.6000000000000227
 31
0.0
  0
LINE
  5
6D2
100
AcDbEntity
  8
0
  6
CONTINUOUS
 62
               7
100
AcDbLine
 10
-38.899999988148075
 20
9.0
 30
0.0
 11
-38.899999988148075
 21
8.5
 31
0.0
  0
LINE
  5
6D3
100
AcDbEntity
  8
0
  6
CENTER
 62
               2
100
AcDbLine
 10
-32.00154372958999
 20
7.8500000000000227
 30
0.0
 11
-39.52249220712104
 21
7.8500000000000227
 31
0.0
  0
LINE
  5
6D4
100
AcDbEntity
  8
0
  6
CENTER
 62
               2
100
AcDbLine
 10
-32.00154372958999
 20
8.75
 30
0.0
 11
-39.522492207121026
 21
8.75
 31
0.0
  0
LINE
  5
6D5
100
AcDbEntity
  8
0
  6
CONTINUOUS
 62
               7
100
AcDbLine
 10
-32.89999998814806
 20
9.6000000000000227
 30
0.0
 11
-32.899999988148075
 21
7.0
 31
0.0
  0
LINE
  5
6D6
100
AcDbEntity
  8
0
  6
CONTINUOUS
 62
               7
100
AcDbLine
 10
-22.899999988148068
 20
10.050000000000011
 30
0.0
 11
-21.899999988148075
 21
10.050000000000011
 31
0.0
  0
LINE
  5
6D7
100
AcDbEntity
  8
0
  6
CONTINUOUS
 62
               7
100
AcDbLine
 10
-22.899999988148068
 20
6.5500000000000114
 30
0.0
 11
-21.899999988148068
 21
6.5500000000000114
 31
0.0
  0
LINE
  5
6D8
100
AcDbEntity
  8
0
  6
CONTINUOUS
 62
               7
100
AcDbLine
 10
-25.399999988148068
 20
10.050000000000011
 30
0.0
 11
-24.399999988148068
 21
10.050000000000011
 31
0.0
  0
LINE
  5
6D9
100
AcDbEntity
  8
0
  6
CONTINUOUS
 62
               7
100
AcDbLine
 10
-25.399999988148075
 20
6.5500000000000114
 30
0.0
 11
-24.399999988148068
 21
6.5500000000000114
 31
0.0
  0
LINE
  5
6DA
100
AcDbEntity
  8
0
  6
CONTINUOUS
 62
               7
100
AcDbLine
 10
-21.899999988148068
 20
11.085714285714289
 30
0.0
 11
-20.399999988148068
 21
11.300000000000011
 31
0.0
  0
LINE
  5
6DB
100
AcDbEntity
  8
0
  6
CONTINUOUS
 62
               7
100
AcDbLine
 10
-24.399999988148068
 20
10.728571428571456
 30
0.0
 11
-22.899999988148068
 21
10.942857142857122
 31
0.0
  0
LINE
  5
6DC
100
AcDbEntity
  8
0
  6
CONTINUOUS
 62
               7
100
AcDbLine
 10
-21.899999988148082
 20
5.5142857142857338
 30
0.0
 11
-20.399999988148068
 21
5.3000000000000114
 31
0.0
  0
LINE
  5
6DD
100
AcDbEntity
  8
0
  6
CONTINUOUS
 62
               7
100
AcDbLine
 10
-24.399999988148075
 20
5.8714285714285666
 30
0.0
 11
-22.899999988148075
 21
5.6571428571428442
 31
0.0
  0
LINE
  5
6DE
100
AcDbEntity
  8
0
  6
CONTINUOUS
 62
               7
100
AcDbLine
 10
-21.899999988148068
 20
11.085714285714289
 30
0.0
 11
-21.899999988148082
 21
5.5142857142857338
 31
0.0
  0
LINE
  5
6DF
100
AcDbEntity
  8
0
  6
CONTINUOUS
 62
               7
100
AcDbLine
 10
-22.899999988148068
 20
10.942857142857122
 30
0.0
 11
-22.899999988148075
 21
5.6571428571428442
 31
0.0
  0
LINE
  5
6E0
100
AcDbEntity
  8
0
  6
CONTINUOUS
 62
               7
100
AcDbLine
 10
-24.399999988148068
 20
10.728571428571456
 30
0.0
 11
-24.399999988148075
 21
5.8714285714285666
 31
0.0
  0
LINE
  5
6E1
100
AcDbEntity
  8
0
  6
CONTINUOUS
 62
               7
100
AcDbLine
 10
-25.399999988148068
 20
10.585714285714289
 30
0.0
 11
-25.399999988148075
 21
6.0142857142857338
 31
0.0
  0
LINE
  5
6E2
100
AcDbEntity
  8
0
  6
CONTINUOUS
 62
               7
100
AcDbLine
 10
-27.399999988148082
 20
10.300000000000011
 30
0.0
 11
-25.399999988148068
 21
10.585714285714289
 31
0.0
  0
LINE
  5
6E3
100
AcDbEntity
  8
0
  6
CONTINUOUS
 62
               7
100
AcDbLine
 10
-27.399999988148068
 20
6.3000000000000114
 30
0.0
 11
-25.399999988148075
 21
6.0142857142857338
 31
0.0
  0
LINE
  5
6E4
100
AcDbEntity
  8
0
  6
CONTINUOUS
 62
               7
100
AcDbLine
 10
-27.399999988148082
 20
10.300000000000011
 30
0.0
 11
-27.399999988148068
 21
6.3000000000000114
 31
0.0
  0
LINE
  5
6E5
100
AcDbEntity
  8
0
  6
CONTINUOUS
 62
               7
100
AcDbLine
 10
-20.399999988148068
 20
5.3000000000000114
 30
0.0
 11
-19.999999988148069
 21
5.3000000000000114
 31
0.0
  0
LINE
  5
6E6
100
AcDbEntity
  8
0
  6
CONTINUOUS
 62
               7
100
AcDbLine
 10
-20.399999988148068
 20
11.300000000000011
 30
0.0
 11
-20.399999988148068
 21
5.3000000000000114
 31
0.0
  0
LINE
  5
6E7
100
AcDbEntity
  8
0
  6
CENTER
 62
               2
100
AcDbLine
 10
-32.899999988148075
 20
8.3000000000000114
 30
0.0
 11
-18.799999988148073
 21
8.3000000000000114
 31
0.0
  0
LINE
  5
6E8
100
AcDbEntity
  8
0
  6
CONTINUOUS
 62
               7
100
AcDbLine
 10
-13.699999988148079
 20
7.0
 30
0.0
 11
-13.699999988148072
 21
8.2000000000000171
 31
0.0
  0
LINE
  5
6E9
100
AcDbEntity
  8
0
  6
CONTINUOUS
 62
               7
100
AcDbLine
 10
-14.59999998814807
 20
7.0000000000000284
 30
0.0
 11
-14.59999998814807
 21
8.1999999999999886
 31
0.0
  0
LINE
  5
6EA
100
AcDbEntity
  8
0
  6
CONTINUOUS
 62
               7
100
AcDbLine
 10
-13.699999988148079
 20
7.1000000000000227
 30
0.0
 11
-14.549999988148073
 21
7.1000000000000227
 31
0.0
  0
LINE
  5
6EB
100
AcDbEntity
  8
0
  6
CONTINUOUS
 62
               7
100
AcDbLine
 10
-13.699999988148072
 20
8.1000000000000512
 30
0.0
 11
-14.549999988148073
 21
8.1000000000000227
 31
0.0
  0
LINE
  5
6EC
100
AcDbEntity
  8
0
  6
CONTINUOUS
 62
               7
100
AcDbLine
 10
-14.549999988148073
 20
7.1000000000000227
 30
0.0
 11
-14.549999988148073
 21
8.1000000000000227
 31
0.0
  0
LINE
  5
6ED
100
AcDbEntity
  8
0
  6
CONTINUOUS
 62
               7
100
AcDbLine
 10
-13.84999998814807
 20
7.1000000000000227
 30
0.0
 11
-13.84999998814807
 21
8.1000000000000227
 31
0.0
  0
LINE
  5
6EE
100
AcDbEntity
  8
0
  6
CONTINUOUS
 62
               7
100
AcDbLine
 10
-13.84999998814807
 20
-4.0999999999999943
 30
0.0
 11
-13.849999988148078
 21
-3.1000000000000227
 31
0.0
  0
LINE
  5
6EF
100
AcDbEntity
  8
0
  6
CONTINUOUS
 62
               7
100
AcDbLine
 10
-14.549999988148073
 20
-4.1000000000000227
 30
0.0
 11
-14.549999988148073
 21
-3.1000000000000227
 31
0.0
  0
LINE
  5
6F0
100
AcDbEntity
  8
0
  6
CONTINUOUS
 62
               7
100
AcDbLine
 10
-13.699999988148079
 20
-3.1000000000000227
 30
0.0
 11
-14.549999988148073
 21
-3.1000000000000227
 31
0.0
  0
LINE
  5
6F1
100
AcDbEntity
  8
0
  6
CONTINUOUS
 62
               7
100
AcDbLine
 10
-13.699999988148075
 20
-4.0999999999999943
 30
0.0
 11
-14.549999988148073
 21
-4.1000000000000227
 31
0.0
  0
LINE
  5
6F2
100
AcDbEntity
  8
0
  6
CONTINUOUS
 62
               7
100
AcDbLine
 10
-14.599999988148074
 20
-4.1999999999999886
 30
0.0
 11
-14.599999988148067
 21
-2.9999999999999716
 31
0.0
  0
LINE
  5
6F3
100
AcDbEntity
  8
0
  6
CONTINUOUS
 62
               7
100
AcDbLine
 10
-13.699999988148083
 20
-4.1999999999999886
 30
0.0
 11
-13.699999988148079
 21
-3.0
 31
0.0
  0
LINE
  5
6F4
100
AcDbEntity
  8
0
  6
CENTER
 62
               2
100
AcDbLine
 10
-18.195856974999174
 20
-6.5
 30
0.0
 11
-20.43544927920842
 21
-6.5
 31
0.0
  0
LINE
  5
6F5
100
AcDbEntity
  8
0
  6
CONTINUOUS
 62
               7
100
AcDbLine
 10
-18.799999988148073
 20
-8.0
 30
0.0
 11
-18.79999998814808
 21
-4.8999999999999773
 31
0.0
  0
LINE
  5
6F6
100
AcDbEntity
  8
0
  6
CONTINUOUS
 62
               7
100
AcDbLine
 10
-18.79999998814808
 20
-4.8999999999999773
 30
0.0
 11
-19.999999988148076
 21
-4.8999999999999773
 31
0.0
  0
LINE
  5
6F7
100
AcDbEntity
  8
0
  6
CONTINUOUS
 62
               7
100
AcDbLine
 10
-19.999999988148076
 20
-7.4083488490041418
 30
0.0
 11
-19.999999988148069
 21
11.408348849004199
 31
0.0
  0
LINE
  5
6F8
100
AcDbEntity
  8
0
  6
CONTINUOUS
 62
               7
100
AcDbLine
 10
-12.699999988148075
 20
-7.9999999999999716
 30
0.0
 11
-12.699999988148079
 21
12.000000000000028
 31
0.0
  0
LINE
  5
6F9
100
AcDbEntity
  8
0
  6
CONTINUOUS
 62
               7
100
AcDbLine
 10
-12.699999988148079
 20
12.000000000000028
 30
0.0
 11
-9.0
 21
11.967710589277658
 31
0.0
  0
LINE
  5
6FA
100
AcDbEntity
  8
0
  6
CONTINUOUS
 62
               7
100
AcDbLine
 10
-9.0
 20
-17.860571099491722
 30
0.0
 11
-9.0
 21
17.860571099491779
 31
0.0
  0
CIRCLE
  5
6FB
100
AcDbEntity
  8
0
  6
CONTINUOUS
 62
               2
100
AcDbCircle
 10
0.0
 20
0.0
 30
0.0
 40
2.5
  0
CIRCLE
  5
6FC
100
AcDbEntity
  8
0
  6
CONTINUOUS
 62
               7
100
AcDbCircle
 10
0.0
 20
0.0
 30
0.0
 40
2.1000000000000001
  0
LINE
  5
6FD
100
AcDbEntity
  8
0
  6
CENTER
 62
               2
100
AcDbLine
 10
0.0
 20
0.0
 30
0.0
 11
14.709130317186563
 21
-14.709130317186549
 31
0.0
  0
ARC
  5
6FE
100
AcDbEntity
  8
0
  6
CONTINUOUS
 62
               7
100
AcDbCircle
 10
0.0000000000000071
 20
0.0
 30
0.0
 40
19.0
100
AcDbArc
 50
241.72628636863439
 51
118.27371363136476
  0
LINE
  5
6FF
100
AcDbEntity
  8
0
  6
CENTER
 62
               2
100
AcDbLine
 10
0.0000000000000071
 20
-22.0
 30
0.0
 11
0.0
 21
22.0
 31
0.0
  0
LINE
  5
700
100
AcDbEntity
  8
0
  6
CENTER
 62
               2
100
AcDbLine
 10
-22.174868658010126
 20
0.0
 30
0.0
 11
26.909532282059175
 21
0.0
 31
0.0
  0
CIRCLE
  5
701
100
AcDbEntity
  8
0
  6
CENTER
 62
               2
100
AcDbCircle
 10
-0.0000000000000071
 20
0.0
 30
0.0
 40
16.0
  0
CIRCLE
  5
702
100
AcDbEntity
  8
0
  6
CONTINUOUS
 62
               2
100
AcDbCircle
 10
0.0000000000000071
 20
-16.0
 30
0.0
 40
2.0
  0
CIRCLE
  5
703
100
AcDbEntity
  8
0
  6
CONTINUOUS
 62
               2
100
AcDbCircle
 10
15.999999999999993
 20
0.0
 30
0.0
 40
2.0
  0
CIRCLE
  5
704
100
AcDbEntity
  8
0
  6
CONTINUOUS
 62
               2
100
AcDbCircle
 10
0.0
 20
16.0
 30
0.0
 40
2.0
  0
CIRCLE
  5
705
100
AcDbEntity
  8
0
  6
CONTINUOUS
 62
               7
100
AcDbCircle
 10
0.0
 20
16.0
 30
0.0
 40
1.6499999999999999
  0
CIRCLE
  5
706
100
AcDbEntity
  8
0
  6
CONTINUOUS
 62
               7
100
AcDbCircle
 10
0.0000000000000071
 20
-16.0
 30
0.0
 40
1.6499999999999999
  0
CIRCLE
  5
707
100
AcDbEntity
  8
0
  6
CONTINUOUS
 62
               7
100
AcDbCircle
 10
15.999999999999993
 20
0.0
 30
0.0
 40
1.6499999999999999
  0
ARC
  5
708
100
AcDbEntity
  8
0
  6
CONTINUOUS
 62
               7
100
AcDbCircle
 10
0.0
 20
0.0
 30
0.0
 40
20.0
100
AcDbArc
 50
203.3399030676182
 51
143.29075909869263
  0
LINE
  5
709
100
AcDbEntity
  8
0
  6
CENTER
 62
               2
100
AcDbLine
 10
0.0000000000000071
 20
0.0
 30
0.0
 11
15.381654943967408
 21
15.381654943967419
 31
0.0
  0
LINE
  5
70A
100
AcDbEntity
  8
0
  6
DASHED
 62
               2
100
AcDbLine
 10
10.35911434438291
 20
17.076628765655158
 30
0.0
 11
7.9549512883486457
 21
14.672465709620923
 31
0.0
  0
LINE
  5
70B
100
AcDbEntity
  8
0
  6
DASHED
 62
               2
100
AcDbLine
 10
17.076628765655101
 20
10.359114344382959
 30
0.0
 11
14.672465709620852
 21
7.9549512883486955
 31
0.0
  0
LINE
  5
70C
100
AcDbEntity
  8
0
  6
DASHED
 62
               2
100
AcDbLine
 10
17.07662876565513
 20
-10.359114344382931
 30
0.0
 11
14.672465709620866
 21
-7.9549512883486955
 31
0.0
  0
LINE
  5
70D
100
AcDbEntity
  8
0
  6
DASHED
 62
               2
100
AcDbLine
 10
10.359114344382917
 20
-17.07662876565513
 30
0.0
 11
7.954951288348667
 21
-14.672465709620894
 31
0.0
  0
LINE
  5
70E
100
AcDbEntity
  8
0
  6
CONTINUOUS
 62
               7
100
AcDbLine
 10
-19.399999988148082
 20
-7.4999999999999716
 30
0.0
 11
-19.399999988148082
 21
-5.5
 31
0.0
  0
LINE
  5
70F
100
AcDbEntity
  8
0
  6
CONTINUOUS
 62
               7
100
AcDbLine
 10
-18.799999988148087
 20
-4.9999999999999716
 30
0.0
 11
-18.899999988148082
 21
-5.0
 31
0.0
  0
LINE
  5
710
100
AcDbEntity
  8
0
  6
CONTINUOUS
 62
               7
100
AcDbLine
 10
-18.799999988148087
 20
-8.0
 30
0.0
 11
-18.899999988148082
 21
-7.9999999999999716
 31
0.0
  0
ARC
  5
711
100
AcDbEntity
  8
0
  6
CONTINUOUS
 62
               7
100
AcDbCircle
 10
-18.899999988148082
 20
-7.5
 30
0.0
 40
0.5
100
AcDbArc
 50
179.99999999999963
 51
269.99999999999937
  0
ARC
  5
712
100
AcDbEntity
  8
0
  6
CONTINUOUS
 62
               7
100
AcDbCircle
 10
-18.899999988148082
 20
-5.4999999999999716
 30
0.0
 40
0.5
100
AcDbArc
 50
89.999999999999815
 51
179.99999999999963
  0
LINE
  5
713
100
AcDbEntity
  8
0
  6
CONTINUOUS
 62
               7
100
AcDbLine
 10
-19.18232027224856
 20
-7.912668459159903
 30
0.0
 11
-19.504363255897275
 21
-7.9083298105362587
 31
0.0
  0
ENDBLK
  5
714
100
AcDbEntity
  8
0
100
AcDbBlockEnd
  0
BLOCK
  5
715
100
AcDbEntity
  8
0
100
AcDbBlockBegin
  2
NCT40-18
 70
               0
 10
0.0
 20
0.0
 30
0.0
  3
NCT40-18
  1

  0
LINE
  5
716
100
AcDbEntity
  8
0
  6
CENTER
 62
               2
100
AcDbLine
 10
0.0
 20
21.999999857712801
 30
0.0
 11
0.0
 21
-22.000000142287213
 31
0.0
  0
LINE
  5
717
100
AcDbEntity
  8
0
  6
CENTER
 62
               2
100
AcDbLine
 10
-21.448512384891508
 20
-0.0000001280105195
 30
0.0
 11
23.300140334993209
 21
-0.0000001280105195
 31
0.0
  0
CIRCLE
  5
718
100
AcDbEntity
  8
0
  6
CONTINUOUS
 62
               7
100
AcDbCircle
 10
0.0000001346027645
 20
-0.0000001422871989
 30
0.0
 40
20.0
  0
CIRCLE
  5
719
100
AcDbEntity
  8
0
  6
CONTINUOUS
 62
               7
100
AcDbCircle
 10
0.000000231336621
 20
-0.0000000975544694
 30
0.0
 40
5.0
  0
CIRCLE
  5
71A
100
AcDbEntity
  8
0
  6
CENTER
 62
               2
100
AcDbCircle
 10
0.0000001346027645
 20
-0.0000001422871989
 30
0.0
 40
16.699999999999999
  0
LINE
  5
71B
100
AcDbEntity
  8
0
  6
CENTER
 62
               2
100
AcDbLine
 10
-11.527661258298686
 20
19.966495004943944
 30
0.0
 11
0.0000002381870985
 21
-0.0000004125521613
 31
0.0
  0
LINE
  5
71C
100
AcDbEntity
  8
0
  6
CENTER
 62
               2
100
AcDbLine
 10
0.0000001785824395
 20
-0.0000002933428718
 30
0.0
 11
-11.694826794296304
 21
-20.25603479609584
 31
0.0
  0
ARC
  5
71D
100
AcDbEntity
  8
0
  6
CONTINUOUS
 62
               7
100
AcDbCircle
 10
0.0000001289725162
 20
-0.0000000031527421
 30
0.0
 40
14.66
100
AcDbArc
 50
8.0613251078213253
 51
111.93867194046535
  0
CIRCLE
  5
71E
100
AcDbEntity
  8
0
  6
CONTINUOUS
 62
               7
100
AcDbCircle
 10
0.0000002814045246
 20
-0.000000267172716
 30
0.0
 40
6.0
  0
ARC
  5
71F
100
AcDbEntity
  8
0
  6
CONTINUOUS
 62
               7
100
AcDbCircle
 10
0.0000001289725162
 20
-0.0000000031527421
 30
0.0
 40
14.66
100
AcDbArc
 50
128.06132878250932
 51
231.93867373851936
  0
LINE
  5
720
100
AcDbEntity
  8
0
  6
CONTINUOUS
 62
               7
100
AcDbLine
 10
-18.363413504061008
 20
7.9237009837862402
 30
0.0
 11
-19.504363126924744
 21
7.9083298073835735
 31
0.0
  0
LINE
  5
721
100
AcDbEntity
  8
0
  6
CONTINUOUS
 62
               7
100
AcDbLine
 10
-16.033584897135597
 20
-11.955089059983116
 30
0.0
 11
-18.799999859175564
 21
-11.917819182740168
 31
0.0
  0
LINE
  5
722
100
AcDbEntity
  8
0
  6
CONTINUOUS
 62
               7
100
AcDbLine
 10
-27.399999859175573
 20
-10.300000003152753
 30
0.0
 11
-25.399999859175566
 21
-10.585714288867031
 31
0.0
  0
LINE
  5
723
100
AcDbEntity
  8
0
  6
CONTINUOUS
 62
               7
100
AcDbLine
 10
-27.399999859175558
 20
-6.3000000031527534
 30
0.0
 11
-25.399999859175566
 21
-6.0142857174384758
 31
0.0
  0
LINE
  5
724
100
AcDbEntity
  8
0
  6
CENTER
 62
               2
100
AcDbLine
 10
-32.899999859175566
 20
-8.3000000031527534
 30
0.0
 11
-18.799999859175564
 21
-8.3000000031527534
 31
0.0
  0
LINE
  5
725
100
AcDbEntity
  8
0
  6
CENTER
 62
               2
100
AcDbLine
 10
-18.195856846026665
 20
-10.500000003152742
 30
0.0
 11
-20.435449150235911
 21
-10.500000003152742
 31
0.0
  0
LINE
  5
726
100
AcDbEntity
  8
0
  6
CONTINUOUS
 62
               7
100
AcDbLine
 10
-18.799999859175571
 20
-8.9000000031527193
 30
0.0
 11
-19.999999859175567
 21
-8.9000000031527193
 31
0.0
  0
LINE
  5
727
100
AcDbEntity
  8
0
  6
CONTINUOUS
 62
               7
100
AcDbLine
 10
-19.999999859175567
 20
-11.408348852156884
 30
0.0
 11
-19.99999985917556
 21
7.4083488458514566
 31
0.0
  0
LINE
  5
728
100
AcDbEntity
  8
0
  6
CONTINUOUS
 62
               7
100
AcDbLine
 10
-20.399999859175566
 20
-11.300000003152753
 30
0.0
 11
-20.399999859175558
 21
-5.3000000031527534
 31
0.0
  0
LINE
  5
729
100
AcDbEntity
  8
0
  6
CONTINUOUS
 62
               7
100
AcDbLine
 10
-20.399999859175558
 20
-5.3000000031527534
 30
0.0
 11
-19.99999985917556
 21
-5.3000000031527534
 31
0.0
  0
LINE
  5
72A
100
AcDbEntity
  8
0
  6
CONTINUOUS
 62
               7
100
AcDbLine
 10
-20.399999859175566
 20
-11.300000003152753
 30
0.0
 11
-19.999999859175567
 21
-11.300000003152753
 31
0.0
  0
LINE
  5
72B
100
AcDbEntity
  8
0
  6
CONTINUOUS
 62
               7
100
AcDbLine
 10
-25.399999859175566
 20
-10.585714288867031
 30
0.0
 11
-25.399999859175566
 21
-6.0142857174384758
 31
0.0
  0
LINE
  5
72C
100
AcDbEntity
  8
0
  6
CONTINUOUS
 62
               7
100
AcDbLine
 10
-24.399999859175566
 20
-10.728571431724198
 30
0.0
 11
-24.399999859175566
 21
-5.8714285745813086
 31
0.0
  0
LINE
  5
72D
100
AcDbEntity
  8
0
  6
CONTINUOUS
 62
               7
100
AcDbLine
 10
-22.899999859175558
 20
-10.942857146009864
 30
0.0
 11
-22.899999859175566
 21
-5.6571428602955862
 31
0.0
  0
LINE
  5
72E
100
AcDbEntity
  8
0
  6
CONTINUOUS
 62
               7
100
AcDbLine
 10
-21.899999859175566
 20
-11.085714288867031
 30
0.0
 11
-21.899999859175573
 21
-5.5142857174384758
 31
0.0
  0
LINE
  5
72F
100
AcDbEntity
  8
0
  6
CONTINUOUS
 62
               7
100
AcDbLine
 10
-24.399999859175566
 20
-5.8714285745813086
 30
0.0
 11
-22.899999859175566
 21
-5.6571428602955862
 31
0.0
  0
LINE
  5
730
100
AcDbEntity
  8
0
  6
CONTINUOUS
 62
               7
100
AcDbLine
 10
-21.899999859175573
 20
-5.5142857174384758
 30
0.0
 11
-20.399999859175558
 21
-5.3000000031527534
 31
0.0
  0
LINE
  5
731
100
AcDbEntity
  8
0
  6
CONTINUOUS
 62
               7
100
AcDbLine
 10
-24.399999859175566
 20
-10.728571431724198
 30
0.0
 11
-22.899999859175558
 21
-10.942857146009864
 31
0.0
  0
LINE
  5
732
100
AcDbEntity
  8
0
  6
CONTINUOUS
 62
               7
100
AcDbLine
 10
-21.899999859175566
 20
-11.085714288867031
 30
0.0
 11
-20.399999859175566
 21
-11.300000003152753
 31
0.0
  0
LINE
  5
733
100
AcDbEntity
  8
0
  6
CONTINUOUS
 62
               7
100
AcDbLine
 10
-25.399999859175566
 20
-6.5500000031527534
 30
0.0
 11
-24.399999859175558
 21
-6.5500000031527534
 31
0.0
  0
LINE
  5
734
100
AcDbEntity
  8
0
  6
CONTINUOUS
 62
               7
100
AcDbLine
 10
-25.399999859175558
 20
-10.050000003152753
 30
0.0
 11
-24.399999859175566
 21
-10.050000003152753
 31
0.0
  0
LINE
  5
735
100
AcDbEntity
  8
0
  6
CONTINUOUS
 62
               7
100
AcDbLine
 10
-22.899999859175566
 20
-6.5500000031527534
 30
0.0
 11
-21.899999859175558
 21
-6.5500000031527534
 31
0.0
  0
LINE
  5
736
100
AcDbEntity
  8
0
  6
CONTINUOUS
 62
               7
100
AcDbLine
 10
-22.899999859175558
 20
-10.050000003152753
 30
0.0
 11
-21.899999859175573
 21
-10.050000003152753
 31
0.0
  0
ARC
  5
737
100
AcDbEntity
  8
0
  6
CONTINUOUS
 62
               7
100
AcDbCircle
 10
-19.499999859175567
 20
-11.408348852156884
 30
0.0
 40
0.5
100
AcDbArc
 50
179.99999999999963
 51
269.49999999999915
  0
ARC
  5
738
100
AcDbEntity
  8
0
  6
CONTINUOUS
 62
               7
100
AcDbCircle
 10
-19.499999859175567
 20
7.4083488458514566
 30
0.0
 40
0.5
100
AcDbArc
 50
90.499999999999659
 51
179.99999999999963
  0
LINE
  5
739
100
AcDbEntity
  8
0
  6
CONTINUOUS
 62
               7
100
AcDbLine
 10
-18.799999859175564
 20
-12.000000003152742
 30
0.0
 11
-18.799999859175571
 21
-8.9000000031527193
 31
0.0
  0
LINE
  5
73A
100
AcDbEntity
  8
0
  6
CONTINUOUS
 62
               7
100
AcDbLine
 10
-27.399999859175573
 20
-10.300000003152753
 30
0.0
 11
-27.399999859175558
 21
-6.3000000031527534
 31
0.0
  0
LINE
  5
73B
100
AcDbEntity
  8
0
  6
CONTINUOUS
 62
               7
100
AcDbLine
 10
-32.899999859175551
 20
-9.6000000031527648
 30
0.0
 11
-32.899999859175551
 21
-7.0000000031527421
 31
0.0
  0
LINE
  5
73C
100
AcDbEntity
  8
0
  6
CENTER
 62
               2
100
AcDbLine
 10
-32.001543600617481
 20
-8.7500000031527421
 30
0.0
 11
-39.522492078148517
 21
-8.7500000031527421
 31
0.0
  0
LINE
  5
73D
100
AcDbEntity
  8
0
  6
CENTER
 62
               2
100
AcDbLine
 10
-32.001543600617481
 20
-7.8500000031527506
 30
0.0
 11
-39.522492078148517
 21
-7.8500000031527648
 31
0.0
  0
LINE
  5
73E
100
AcDbEntity
  8
0
  6
CONTINUOUS
 62
               7
100
AcDbLine
 10
-38.899999859175551
 20
-9.0000000031527421
 30
0.0
 11
-38.899999859175551
 21
-8.5000000031527421
 31
0.0
  0
LINE
  5
73F
100
AcDbEntity
  8
0
  6
CONTINUOUS
 62
               7
100
AcDbLine
 10
-38.899999859175551
 20
-8.1000000031527648
 30
0.0
 11
-38.899999859175551
 21
-7.6000000031527506
 31
0.0
  0
LINE
  5
740
100
AcDbEntity
  8
0
  6
CONTINUOUS
 62
               7
100
AcDbLine
 10
-36.899999859175551
 20
-9.2000000031527307
 30
0.0
 11
-36.899999859175551
 21
-7.4000000031527193
 31
0.0
  0
LINE
  5
741
100
AcDbEntity
  8
0
  6
CONTINUOUS
 62
               7
100
AcDbLine
 10
-32.899999859175551
 20
-7.4000000031527193
 30
0.0
 11
-34.899999859175551
 21
-7.4000000031527193
 31
0.0
  0
LINE
  5
742
100
AcDbEntity
  8
0
  6
CONTINUOUS
 62
               7
100
AcDbLine
 10
-32.899999859175566
 20
-8.3000000031527534
 30
0.0
 11
-34.379999859175555
 21
-8.3000000031527534
 31
0.0
  0
LINE
  5
743
100
AcDbEntity
  8
0
  6
CONTINUOUS
 62
               7
100
AcDbLine
 10
-35.361880039037473
 20
-8.3000000031527534
 30
0.0
 11
-36.899999859175551
 21
-8.3000000031527534
 31
0.0
  0
LINE
  5
744
100
AcDbEntity
  8
0
  6
CONTINUOUS
 62
               7
100
AcDbLine
 10
-35.88149528092265
 20
-7.4000000031527193
 30
0.0
 11
-36.899999859175551
 21
-7.4000000031527193
 31
0.0
  0
LINE
  5
745
100
AcDbEntity
  8
0
  6
CONTINUOUS
 62
               7
100
AcDbLine
 10
-32.899999859175551
 20
-9.2000000031527307
 30
0.0
 11
-33.859999859175559
 21
-9.2000000031527307
 31
0.0
  0
LINE
  5
746
100
AcDbEntity
  8
0
  6
CONTINUOUS
 62
               7
100
AcDbLine
 10
-34.842264797152282
 20
-9.2000000031527307
 30
0.0
 11
-36.899999859175551
 21
-9.2000000031527307
 31
0.0
  0
LINE
  5
747
100
AcDbEntity
  8
0
  6
CONTINUOUS
 62
               7
100
AcDbLine
 10
-36.899999859175551
 20
-9.0000000031527421
 30
0.0
 11
-38.899999859175551
 21
-9.0000000031527421
 31
0.0
  0
LINE
  5
748
100
AcDbEntity
  8
0
  6
CONTINUOUS
 62
               7
100
AcDbLine
 10
-36.899999859175551
 20
-8.5000000031527421
 30
0.0
 11
-38.899999859175551
 21
-8.5000000031527421
 31
0.0
  0
LINE
  5
749
100
AcDbEntity
  8
0
  6
CONTINUOUS
 62
               7
100
AcDbLine
 10
-36.899999859175551
 20
-8.1000000031527648
 30
0.0
 11
-38.899999859175551
 21
-8.1000000031527648
 31
0.0
  0
LINE
  5
74A
100
AcDbEntity
  8
0
  6
CONTINUOUS
 62
               7
100
AcDbLine
 10
-36.899999859175551
 20
-7.6000000031527648
 30
0.0
 11
-38.899999859175551
 21
-7.6000000031527506
 31
0.0
  0
LINE
  5
74B
100
AcDbEntity
  8
0
  6
CONTINUOUS
 62
               7
100
AcDbLine
 10
-27.399999859175566
 20
-9.6000000031527648
 30
0.0
 11
-28.937564310267852
 21
-9.6000000031527648
 31
0.0
  0
LINE
  5
74C
100
AcDbEntity
  8
0
  6
CONTINUOUS
 62
               7
100
AcDbLine
 10
-27.399999859175566
 20
-7.0000000031527421
 30
0.0
 11
-30.438675010160878
 21
-7.0000000031527421
 31
0.0
  0
LINE
  5
74D
100
AcDbEntity
  8
0
  6
CONTINUOUS
 62
               7
100
AcDbLine
 10
-29.861324709490226
 20
-9.6000000031527648
 30
0.0
 11
-32.899999859175551
 21
-9.6000000031527648
 31
0.0
  0
LINE
  5
74E
100
AcDbEntity
  8
0
  6
CONTINUOUS
 62
               7
100
AcDbLine
 10
-31.362435409383259
 20
-7.0000000031527421
 30
0.0
 11
-32.899999859175551
 21
-7.0000000031527421
 31
0.0
  0
LINE
  5
74F
100
AcDbEntity
  8
0
  6
PHANTOM
 62
               2
100
AcDbLine
 10
-34.495854636204257
 20
-9.8000000026179706
 30
0.0
 11
-36.227905442488222
 21
-6.8000000026179706
 31
0.0
  0
LINE
  5
750
100
AcDbEntity
  8
0
  6
PHANTOM
 62
               2
100
AcDbLine
 10
-33.572094251883044
 20
-9.8000000026179706
 30
0.0
 11
-35.304145073068156
 21
-6.7999999728156482
 31
0.0
  0
LINE
  5
751
100
AcDbEntity
  8
0
  6
PHANTOM
 62
               2
100
AcDbLine
 10
-29.514914547574541
 20
-10.200000008578435
 30
0.0
 11
-31.708845590722575
 21
-6.3999999668551695
 31
0.0
  0
LINE
  5
752
100
AcDbEntity
  8
0
  6
PHANTOM
 62
               2
100
AcDbLine
 10
-28.591154148352175
 20
-10.199999978776113
 30
0.0
 11
-30.785085176599047
 21
-6.3999999668551837
 31
0.0
  0
ARC
  5
753
100
AcDbEntity
  8
0
  6
CONTINUOUS
 62
               7
100
AcDbCircle
 10
0.0000001289725162
 20
-0.0000000031527421
 30
0.0
 40
14.66
100
AcDbArc
 50
248.0613275518941
 51
351.93867042710133
  0
CIRCLE
  5
754
100
AcDbEntity
  8
0
  6
CONTINUOUS
 62
               4
100
AcDbCircle
 10
-8.3499998436593685
 20
14.462623981918846
 30
0.0
 40
3.0
  0
CIRCLE
  5
755
100
AcDbEntity
  8
0
  6
CONTINUOUS
 62
               4
100
AcDbCircle
 10
16.700000188119184
 20
-0.0000005800826628
 30
0.0
 40
3.0
  0
CIRCLE
  5
756
100
AcDbEntity
  8
0
  6
CONTINUOUS
 62
               4
100
AcDbCircle
 10
-8.3499997972056406
 20
-14.462624494606764
 30
0.0
 40
3.0
  0
ARC
  5
757
100
AcDbEntity
  8
0
  6
CONTINUOUS
 62
               7
100
AcDbCircle
 10
-18.899999859175573
 20
-9.5000000031527421
 30
0.0
 40
0.5
100
AcDbArc
 50
89.999999999999815
 51
179.99999999999963
  0
ARC
  5
758
100
AcDbEntity
  8
0
  6
CONTINUOUS
 62
               7
100
AcDbCircle
 10
-18.899999859175573
 20
-11.500000003152742
 30
0.0
 40
0.5
100
AcDbArc
 50
179.99999999999963
 51
269.99999999999937
  0
LINE
  5
759
100
AcDbEntity
  8
0
  6
CONTINUOUS
 62
               7
100
AcDbLine
 10
-18.799999859175578
 20
-9.0000000031527421
 30
0.0
 11
-18.899999859175573
 21
-9.0000000031527421
 31
0.0
  0
LINE
  5
75A
100
AcDbEntity
  8
0
  6
CONTINUOUS
 62
               7
100
AcDbLine
 10
-18.799999859175578
 20
-12.000000003152742
 30
0.0
 11
-18.899999859175573
 21
-12.000000003152742
 31
0.0
  0
LINE
  5
75B
100
AcDbEntity
  8
0
  6
CONTINUOUS
 62
               7
100
AcDbLine
 10
-19.399999859175573
 20
-11.500000003152742
 30
0.0
 11
-19.399999859175573
 21
-9.5000000031527421
 31
0.0
  0
LINE
  5
75C
100
AcDbEntity
  8
0
  6
CONTINUOUS
 62
               7
100
AcDbLine
 10
-19.182320143276051
 20
-11.912668462312674
 30
0.0
 11
-19.504363126924765
 21
-11.908329813689001
 31
0.0
  0
ENDBLK
  5
75D
100
AcDbEntity
  8
0
100
AcDbBlockEnd
  0
ENDSEC
  0
SECTION
  2
ENTITIES
  0
INSERT
  5
75E
100
AcDbEntity
  8
0
  6
ByBlock
100
AcDbBlockReference
  2
NCT40-1
 10
-266.34993489583331
 20
126.17967178296611
 30
0.0
  0
INSERT
  5
75F
100
AcDbEntity
  8
0
  6
ByBlock
100
AcDbBlockReference
  2
NCT40-11
 10
-266.34993489583331
 20
186.77060784313721
 30
0.0
  0
INSERT
  5
760
100
AcDbEntity
  8
0
  6
ByBlock
100
AcDbBlockReference
  2
NCT40-12
 10
-266.34993489583331
 20
48.193217895324338
 30
0.0
 50
359.99999951407875
  0
INSERT
  5
761
100
AcDbEntity
  8
0
  6
ByBlock
100
AcDbBlockReference
  2
NCT40-13
 10
-266.34993489583331
 20
-145.0703282170339
 30
0.0
  0
INSERT
  5
762
100
AcDbEntity
  8
0
  6
ByBlock
100
AcDbBlockReference
  2
NCT40-14
 10
-266.34993489583337
 20
-84.479392156862787
 30
0.0
  0
INSERT
  5
763
100
AcDbEntity
  8
0
  6
ByBlock
100
AcDbBlockReference
  2
NCT40-15
 10
-266.34993502480586
 20
-223.05678621468826
 30
0.0
  0
INSERT
  5
764
100
AcDbEntity
  8
0
  6
ByBlock
100
AcDbBlockReference
  2
NCT40-16
 10
0.0000000000000568
 20
126.17967178296611
 30
0.0
  0
INSERT
  5
765
100
AcDbEntity
  8
0
  6
ByBlock
100
AcDbBlockReference
  2
NCT40-17
 10
0.0000000000000604
 20
186.77060784313721
 30
0.0
  0
INSERT
  5
766
100
AcDbEntity
  8
0
  6
ByBlock
100
AcDbBlockReference
  2
NCT40-18
 10
-0.0000002313365499
 20
48.193214259957969
 30
0.0
  0
INSERT
  5
767
100
AcDbEntity
  8
0
  6
ByBlock
100
AcDbBlockReference
  2
NCT40-2
 10
0.0
 20
-145.07032821703388
 30
0.0
  0
INSERT
  5
768
100
AcDbEntity
  8
0
  6
ByBlock
100
AcDbBlockReference
  2
NCT40-3
 10
0.0000000000000036
 20
-84.479392156862787
 30
0.0
  0
INSERT
  5
769
100
AcDbEntity
  8
0
  6
ByBlock
100
AcDbBlockReference
  2
NCT40-4
 10
-0.0000002313366068
 20
-223.05678621468826
 30
0.0
 50
359.99999918484752
  0
INSERT
  5
76A
100
AcDbEntity
  8
0
  6
ByBlock
100
AcDbBlockReference
  2
NCT40-5
 10
256.73912970507979
 20
126.17967178296612
 30
0.0
  0
INSERT
  5
76B
100
AcDbEntity
  8
0
  6
ByBlock
100
AcDbBlockReference
  2
NCT40-6
 10
256.73912970507979
 20
186.77060784313721
 30
0.0
  0
INSERT
  5
76C
100
AcDbEntity
  8
0
  6
ByBlock
100
AcDbBlockReference
  2
NCT40-7
 10
256.73913006155402
 20
48.193213785311755
 30
0.0
 50
0.0000117743186757
  0
INSERT
  5
76D
100
AcDbEntity
  8
0
  6
ByBlock
100
AcDbBlockReference
  2
NCT40-8
 10
256.73912970507973
 20
-145.07032821703388
 30
0.0
  0
INSERT
  5
76E
100
AcDbEntity
  8
0
  6
ByBlock
100
AcDbBlockReference
  2
NCT40-9
 10
256.73912970507973
 20
-84.479392156862787
 30
0.0
  0
INSERT
  5
76F
100
AcDbEntity
  8
0
  6
ByBlock
100
AcDbBlockReference
  2
NCT40-10
 10
256.73913006155396
 20
-223.05678621468826
 30
0.0
 50
0.0000118152183189
  0
LINE
  5
770
100
AcDbEntity
  8
0
  6
CONTINUOUS
 62
               7
100
AcDbLine
 10
399.52490234375
 20
276.5
 30
0.0
 11
399.52490234375
 21
-276.5
 31
0.0
  0
LINE
  5
771
100
AcDbEntity
  8
0
  6
CONTINUOUS
 62
               7
100
AcDbLine
 10
-399.52490234375
 20
276.5
 30
0.0
 11
-399.52490234375
 21
-276.5
 31
0.0
  0
LINE
  5
772
100
AcDbEntity
  8
0
  6
CONTINUOUS
 62
               7
100
AcDbLine
 10
-399.52490234375
 20
276.5
 30
0.0
 11
399.52490234375
 21
276.5
 31
0.0
  0
LINE
  5
773
100
AcDbEntity
  8
0
  6
CONTINUOUS
 62
               7
100
AcDbLine
 10
-399.52490234375
 20
-276.5
 30
0.0
 11
399.52490234375
 21
-276.5
 31
0.0
  0
MTEXT
  5
774
100
AcDbEntity
  8
0
  6
CONTINUOUS
 62
               7
100
AcDbMText
 10
-395.29615216613189
 20
266.5
 30
0.0
 40
6.3000001907348633
 41
0.0
 71
               4
 72
               1
  1
\W1.027;\A1;NON-CONTACT TRANSFER COMPONENT
  0
LINE
  5
775
100
AcDbEntity
  8
0
  6
CONTINUOUS
 62
               7
100
AcDbLine
 10
-399.52490234375
 20
256.5
 30
0.0
 11
-204.22490234374999
 21
256.5
 31
0.0
  0
MTEXT
  5
776
100
AcDbEntity
  8
0
  6
CONTINUOUS
 62
               7
100
AcDbMText
 10
-386.52944812356247
 20
241.5
 30
0.0
 40
6.3000001907348633
 41
0.0
 71
               4
 72
               1
  1
\W1.091;\A1;MODEL:NCT40-B1
  0
LINE
  5
777
100
AcDbEntity
  8
0
  6
CONTINUOUS
 62
               7
100
AcDbLine
 10
279.5250244140625
 20
276.5
 30
0.0
 11
279.5250244140625
 21
256.5
 31
0.0
  0
LINE
  5
778
100
AcDbEntity
  8
0
  6
CONTINUOUS
 62
               7
100
AcDbLine
 10
279.5250244140625
 20
256.5
 30
0.0
 11
399.52490234375
 21
256.5
 31
0.0
  0
MTEXT
  5
779
100
AcDbEntity
  8
0
  6
CONTINUOUS
 62
               7
100
AcDbMText
 10
315.7020692896773
 20
266.5
 30
0.0
 40
6.3000001907348633
 41
0.0
 71
               4
 72
               1
  1
\W1.311;\A1;Ver. 1.0
  0
MTEXT
  5
77A
100
AcDbEntity
  8
0
  6
CONTINUOUS
 62
               7
100
AcDbMText
 10
287.70604688092931
 20
-266.5
 30
0.0
 40
9.0
 41
0.0
 71
               4
 72
               1
  1
\W1.121;\A1;KOGANEI CORP.
  0
LINE
  5
77B
100
AcDbEntity
  8
0
  6
CONTINUOUS
 62
               7
100
AcDbLine
 10
279.5250244140625
 20
-256.5
 30
0.0
 11
279.5250244140625
 21
-276.5
 31
0.0
  0
LINE
  5
77C
100
AcDbEntity
  8
0
  6
CONTINUOUS
 62
               7
100
AcDbLine
 10
279.5250244140625
 20
-256.5
 30
0.0
 11
399.52490234375
 21
-256.5
 31
0.0
  0
LINE
  5
77D
100
AcDbEntity
  8
0
  6
CONTINUOUS
 62
               7
100
AcDbLine
 10
399.52490234375
 20
0.25
 30
0.0
 11
-399.52490234375
 21
0.25
 31
0.0
  0
LINE
  5
77E
100
AcDbEntity
  8
0
  6
CONTINUOUS
 62
               7
100
AcDbLine
 10
133.17496744791669
 20
-276.5
 30
0.0
 11
133.17496744791669
 21
276.5
 31
0.0
  0
LINE
  5
77F
100
AcDbEntity
  8
0
  6
CONTINUOUS
 62
               7
100
AcDbLine
 10
-133.17496744791663
 20
-276.5
 30
0.0
 11
-133.17496744791663
 21
276.5
 31
0.0
  0
MTEXT
  5
780
100
AcDbEntity
  8
0
  6
CONTINUOUS
 62
               7
100
AcDbMText
 10
-120.15589727792199
 20
241.5
 30
0.0
 40
6.3000001907348633
 41
0.0
 71
               4
 72
               1
  1
\W1.113;\A1;MODEL:NCT40-B1-S11
  0
MTEXT
  5
781
100
AcDbEntity
  8
0
  6
CONTINUOUS
 62
               7
100
AcDbMText
 10
146.17042166573972
 20
241.5
 30
0.0
 40
6.3000001907348633
 41
0.0
 71
               4
 72
               1
  1
\W1.091;\A1;MODEL:NCT40-B1-S12
  0
MTEXT
  5
782
100
AcDbEntity
  8
0
  6
CONTINUOUS
 62
               7
100
AcDbMText
 10
-386.52944812592705
 20
-14.75
 30
0.0
 40
6.3000001907348633
 41
0.0
 71
               4
 72
               1
  1
\W1.091;\A1;MODEL:NCT40-B1-S21
  0
MTEXT
  5
783
100
AcDbEntity
  8
0
  6
CONTINUOUS
 62
               7
100
AcDbMText
 10
-120.17951323009365
 20
-14.75
 30
0.0
 40
6.3000001907348633
 41
0.0
 71
               4
 72
               1
  1
\W1.091;\A1;MODEL:NCT40-B1-S13
  0
MTEXT
  5
784
100
AcDbEntity
  8
0
  6
CONTINUOUS
 62
               7
100
AcDbMText
 10
146.17042166573967
 20
-14.75
 30
0.0
 40
6.3000001907348633
 41
0.0
 71
               4
 72
               1
  1
\W1.091;\A1;MODEL:NCT40-B1-S14
  0
MTEXT
  5
785
100
AcDbEntity
  8
0
  6
CONTINUOUS
 62
               7
100
AcDbMText
 10
-348.802561153255
 20
231.5
 30
0.0
 40
6.3000001907348633
 41
0.0
 71
               4
 72
               1
  1
\W1.021;\A1;NCT40-B2
  0
MTEXT
  5
786
100
AcDbEntity
  8
0
  6
CONTINUOUS
 62
               7
100
AcDbMText
 10
-82.396608474889959
 20
231.5
 30
0.0
 40
6.3000001907348633
 41
0.0
 71
               4
 72
               1
  1
\W1.075;\A1;NCT40-B2-S11
  0
MTEXT
  5
787
100
AcDbEntity
  8
0
  6
CONTINUOUS
 62
               7
100
AcDbMText
 10
183.92062037182691
 20
231.5
 30
0.0
 40
6.3000001907348633
 41
0.0
 71
               4
 72
               1
  1
\W1.043;\A1;NCT40-B2-S12
  0
MTEXT
  5
788
100
AcDbEntity
  8
0
  6
CONTINUOUS
 62
               7
100
AcDbMText
 10
183.92062037182686
 20
-24.75
 30
0.0
 40
6.3000001907348633
 41
0.0
 71
               4
 72
               1
  1
\W1.043;\A1;NCT40-B2-S14
  0
MTEXT
  5
789
100
AcDbEntity
  8
0
  6
CONTINUOUS
 62
               7
100
AcDbMText
 10
-82.429314524006458
 20
-24.75
 30
0.0
 40
6.3000001907348633
 41
0.0
 71
               4
 72
               1
  1
\W1.043;\A1;NCT40-B2-S13
  0
MTEXT
  5
78A
100
AcDbEntity
  8
0
  6
CONTINUOUS
 62
               7
100
AcDbMText
 10
-348.77924941983986
 20
-24.75
 30
0.0
 40
6.3000001907348633
 41
0.0
 71
               4
 72
               1
  1
\W1.043;\A1;NCT40-B2-S21
  0
LINE
  5
78B
100
AcDbEntity
  8
0
  6
CONTINUOUS
 62
               7
100
AcDbLine
 10
-204.22490234374999
 20
276.5
 30
0.0
 11
-204.22490234374999
 21
256.5
 31
0.0
  0
ENDSEC
  0
SECTION
  2
OBJECTS
  0
DICTIONARY
  5
19
100
AcDbDictionary
  3
ACAD_GROUP
350
1A
  3
ACAD_MLINESTYLE
350
1B
  0
DICTIONARY
  5
1A
102
{ACAD_REACTORS
330
19
102
}
100
AcDbDictionary
  0
DICTIONARY
  5
1B
102
{ACAD_REACTORS
330
19
102
}
100
AcDbDictionary
  3
STANDARD
350
1C
  0
MLINESTYLE
  5
1C
102
{ACAD_REACTORS
330
1B
102
}
100
AcDbMlineStyle
  2
Standard
 70
               0
  3

 62
               0
 51
90.0
 52
90.0
 71
               2
 49
0.5
 62
             256
  6
ByLayer
 49
-0.5
 62
             256
  6
ByLayer
  0
ENDSEC
  0
EOF
