  0
SECTION
  2
HEADER
  9
$ACADVER
  1
AC1012
  9
$DWGCODEPAGE
  3
dos932
  9
$INSBASE
 10
0.0
 20
0.0
 30
0.0
  9
$EXTMIN
 10
-399.52490234375
 20
-276.5
 30
0.0
  9
$EXTMAX
 10
403.0569545343663
 20
276.5
 30
0.0
  9
$LIMMIN
 10
-399.52490234375
 20
-276.5
  9
$LIMMAX
 10
403.0569545343663
 20
276.5
  9
$ORTHOMODE
 70
               0
  9
$REGENMODE
 70
               1
  9
$FILLMODE
 70
               1
  9
$QTEXTMODE
 70
               0
  9
$MIRRTEXT
 70
               1
  9
$DRAGMODE
 70
               2
  9
$LTSCALE
 40
1.0
  9
$OSMODE
 70
               0
  9
$ATTMODE
 70
               1
  9
$TEXTSIZE
 40
3.2000000476837158
  9
$TRACEWID
 40
0.05
  9
$TEXTSTYLE
  7
MX_NOTE_STANDARD
  9
$CLAYER
  8
0
  9
$CELTYPE
  6
CONTINUOUS
  9
$CECOLOR
 62
             256
  9
$CELTSCALE
 40
1.0
  9
$DELOBJ
 70
               1
  9
$DISPSILH
 70
               0
  9
$DIMSCALE
 40
1.0
  9
$DIMASZ
 40
2.5
  9
$DIMEXO
 40
1.5
  9
$DIMDLI
 40
3.75
  9
$DIMRND
 40
0.0
  9
$DIMDLE
 40
0.0
  9
$DIMEXE
 40
1.5
  9
$DIMTP
 40
0.0
  9
$DIMTM
 40
0.0
  9
$DIMTXT
 40
3.2000000476837158
  9
$DIMCEN
 40
2.5
  9
$DIMTSZ
 40
0.0
  9
$DIMTOL
 70
               0
  9
$DIMLIM
 70
               0
  9
$DIMTIH
 70
               0
  9
$DIMTOH
 70
               0
  9
$DIMSE1
 70
               0
  9
$DIMSE2
 70
               0
  9
$DIMTAD
 70
               1
  9
$DIMZIN
 70
               8
  9
$DIMBLK
  1

  9
$DIMASO
 70
               1
  9
$DIMSHO
 70
               1
  9
$DIMPOST
  1

  9
$DIMAPOST
  1

  9
$DIMALT
 70
               0
  9
$DIMALTD
 70
               4
  9
$DIMALTF
 40
0.03937007874016
  9
$DIMLFAC
 40
1.0
  9
$DIMTOFL
 70
               1
  9
$DIMTVP
 40
0.0
  9
$DIMTIX
 70
               0
  9
$DIMSOXD
 70
               0
  9
$DIMSAH
 70
               0
  9
$DIMBLK1
  1

  9
$DIMBLK2
  1

  9
$DIMSTYLE
  2
MXDIMSTYLE
  9
$DIMCLRD
 70
               0
  9
$DIMCLRE
 70
               0
  9
$DIMCLRT
 70
               0
  9
$DIMTFAC
 40
1.0
  9
$DIMGAP
 40
1.0
  9
$DIMJUST
 70
               0
  9
$DIMSD1
 70
               0
  9
$DIMSD2
 70
               0
  9
$DIMTOLJ
 70
               1
  9
$DIMTZIN
 70
               0
  9
$DIMALTZ
 70
               0
  9
$DIMALTTZ
 70
               0
  9
$DIMFIT
 70
               3
  9
$DIMUPT
 70
               1
  9
$DIMUNIT
 70
               2
  9
$DIMDEC
 70
               4
  9
$DIMTDEC
 70
               4
  9
$DIMALTU
 70
               2
  9
$DIMALTTD
 70
               4
  9
$DIMTXSTY
  7
MX_NOTE_STANDARD
  9
$DIMAUNIT
 70
               0
  9
$LUNITS
 70
               2
  9
$LUPREC
 70
               4
  9
$SKETCHINC
 40
0.1
  9
$FILLETRAD
 40
0.0
  9
$AUNITS
 70
               0
  9
$AUPREC
 70
               0
  9
$MENU
  1
acad
  9
$ELEVATION
 40
0.0
  9
$PELEVATION
 40
0.0
  9
$THICKNESS
 40
0.0
  9
$LIMCHECK
 70
               0
  9
$BLIPMODE
 70
               1
  9
$CHAMFERA
 40
0.0
  9
$CHAMFERB
 40
0.0
  9
$CHAMFERC
 40
0.0
  9
$CHAMFERD
 40
0.0
  9
$SKPOLY
 70
               0
  9
$TDCREATE
 40
2453378.356759260
  9
$TDUPDATE
 40
2453378.356759260
  9
$TDINDWG
 40
0.0000000000
  9
$TDUSRTIMER
 40
0.0000000000
  9
$USRTIMER
 70
               1
  9
$ANGBASE
 50
0.0
  9
$ANGDIR
 70
               0
  9
$PDMODE
 70
               0
  9
$PDSIZE
 40
0.0
  9
$PLINEWID
 40
0.0
  9
$COORDS
 70
               1
  9
$SPLFRAME
 70
               0
  9
$SPLINETYPE
 70
               6
  9
$SPLINESEGS
 70
               8
  9
$ATTDIA
 70
               0
  9
$ATTREQ
 70
               1
  9
$HANDLING
 70
               1
  9
$HANDSEED
  5
7A2
  9
$SURFTAB1
 70
               6
  9
$SURFTAB2
 70
               6
  9
$SURFTYPE
 70
               6
  9
$SURFU
 70
               6
  9
$SURFV
 70
               6
  9
$UCSNAME
  2

  9
$UCSORG
 10
0.0
 20
0.0
 30
0.0
  9
$UCSXDIR
 10
1.0
 20
0.0
 30
0.0
  9
$UCSYDIR
 10
0.0
 20
1.0
 30
0.0
  9
$PUCSNAME
  2

  9
$PUCSORG
 10
0.0
 20
0.0
 30
0.0
  9
$PUCSXDIR
 10
1.0
 20
0.0
 30
0.0
  9
$PUCSYDIR
 10
0.0
 20
1.0
 30
0.0
  9
$USERI1
 70
               0
  9
$USERI2
 70
               0
  9
$USERI3
 70
               0
  9
$USERI4
 70
               0
  9
$USERI5
 70
               0
  9
$USERR1
 40
0.0
  9
$USERR2
 40
0.0
  9
$USERR3
 40
0.0
  9
$USERR4
 40
0.0
  9
$USERR5
 40
0.0
  9
$WORLDVIEW
 70
               1
  9
$SHADEDGE
 70
               3
  9
$SHADEDIF
 70
              70
  9
$TILEMODE
 70
               1
  9
$MAXACTVP
 70
              16
  9
$PINSBASE
 10
0.0
 20
0.0
 30
0.0
  9
$PLIMCHECK
 70
               0
  9
$PEXTMIN
 10
1.0000000000000000E+20
 20
1.0000000000000000E+20
 30
1.0000000000000000E+20
  9
$PEXTMAX
 10
-1.0000000000000000E+20
 20
-1.0000000000000000E+20
 30
-1.0000000000000000E+20
  9
$PLIMMIN
 10
0.0
 20
0.0
  9
$PLIMMAX
 10
12.0
 20
9.0
  9
$UNITMODE
 70
               0
  9
$VISRETAIN
 70
               0
  9
$PLINEGEN
 70
               1
  9
$PSLTSCALE
 70
               0
  9
$TREEDEPTH
 70
            3020
  9
$PICKSTYLE
 70
               1
  9
$CMLSTYLE
  2
Standard
  9
$CMLJUST
 70
               0
  9
$CMLSCALE
 40
1.0
  9
$SAVEIMAGES
 70
               0
  0
ENDSEC
  0
SECTION
  2
CLASSES
  0
CLASS
  1
LWPOLYLINE
  2
AcDbPolyline
  3
"AutoCAD"
 90
        0
280
               0
281
               1
  0
CLASS
  1
IMAGE
  2
AcDbRasterImage
  3
ISM
 90
      127
280
               0
281
               1
  0
CLASS
  1
OLE2FRAME
  2
AcDbOle2Frame
  3
""
 90
        0
280
               0
281
               1
  0
CLASS
  1
HATCH
  2
AcDbHatch
  3
"ACAD_SEDONA"
 90
        0
280
               0
281
               1
  0
CLASS
  1
DICTIONARYVAR
  2
AcDbDictionaryVar
  3
"AutoCAD"
 90
        0
280
               0
281
               0
  0
CLASS
  1
RASTERVARIABLES
  2
AcDbRasterVariables
  3
ISM
 90
        0
280
               0
281
               0
  0
CLASS
  1
IMAGEDEF
  2
AcDbRasterImageDef
  3
ISM
 90
        0
280
               0
281
               0
  0
CLASS
  1
IMAGEDEF_REACTOR
  2
AcDbRasterImageDefReactor
  3
ISM
 90
        1
280
               0
281
               0
  0
CLASS
  1
IDBUFFER
  2
AcDbIdBuffer
  3
"Acad"
 90
        0
280
               0
281
               0
  0
CLASS
  1
SPATIAL_FILTER
  2
AcDbSpatialFilter
  3
"Acad"
 90
        0
280
               0
281
               0
  0
CLASS
  1
XRECORD
  2
AcDbXrecord
  3
"<Built In>"
 90
        0
280
               0
281
               0
  0
CLASS
  1
SORTENTSTABLE
  2
AcDbSortentsTable
  3
"AutoCAD"
 90
        0
280
               0
281
               0
  0
CLASS
  1
LAYER_INDEX
  2
AcDbLayerIndex
  3
"Acad"
 90
        0
280
               0
281
               0
  0
CLASS
  1
SPATIAL_INDEX
  2
AcDbSpatialIndex
  3
"Acad"
 90
        0
280
               0
281
               0
  0
CLASS
  1
OBJECT_PTR
  2
CAseDLPNTableRecord
  3
"ASE-LPNTableRecord"
 90
        1
280
               0
281
               0
  0
CLASS
  1
LAYOUT
  2
AcDbLayout
  3
"AutoCAD 2000"
 90
        1
280
               0
281
               0
  0
CLASS
  1
PLOTSETTINGS
  2
AcDbPlotSettings
  3
"AutoCAD 2000"
 90
        1
280
               0
281
               0
  0
CLASS
  1
ACDBDICTIONARYWDFLT
  2
AcDbDictionaryWithDefault
  3
"AutoCAD 2000"
 90
        1
280
               0
281
               0
  0
CLASS
  1
ACDBPLACEHOLDER
  2
AcDbPlaceHolder
  3
"AutoCAD 2000"
 90
        1
280
               0
281
               0
  0
ENDSEC
  0
SECTION
  2
TABLES
  0
TABLE
  2
VPORT
  5
7
100
AcDbSymbolTable
 70
               1
  0
VPORT
  5
15
100
AcDbSymbolTableRecord
100
AcDbViewportTableRecord
  2
*ACTIVE
 70
               0
 10
0.0
 20
0.0
 11
1.0
 21
1.0
 12
1.7660260953081206
 22
0.0
 13
0.0
 23
0.0
 14
1.0
 24
1.0
 15
0.0
 25
0.0
 16
0.0
 26
0.0
 36
1.0
 17
0.0
 27
0.0
 37
0.0
 40
558.52999999999997
 41
1.7320508075688772
 42
50.0
 43
0.0
 44
0.0
 50
0.0
 51
0.0
 71
               0
 72
             100
 73
               1
 74
               1
 75
               0
 76
               0
 77
               0
 78
               0
  0
ENDTAB
  0
TABLE
  2
LTYPE
  5
4
100
AcDbSymbolTable
 70
               6
  0
LTYPE
  5
11
100
AcDbSymbolTableRecord
100
AcDbLinetypeTableRecord
  2
BYBLOCK
 70
              64
  3

 72
              65
 73
               0
 40
0.0
  0
LTYPE
  5
12
100
AcDbSymbolTableRecord
100
AcDbLinetypeTableRecord
  2
BYLAYER
 70
              64
  3

 72
              65
 73
               0
 40
0.0
  0
LTYPE
  5
13
100
AcDbSymbolTableRecord
100
AcDbLinetypeTableRecord
  2
CONTINUOUS
 70
              64
  3
Solid line
 72
              65
 73
               0
 40
0.0
  0
LTYPE
  5
33
100
AcDbSymbolTableRecord
100
AcDbLinetypeTableRecord
  2
CENTER
 70
              64
  3
Center ____ _ ____ _ ____ _ ____ _ ____ _ ____
 72
              65
 73
               4
 40
26.0
 49
20.0
 74
               0
 49
-2.0
 74
               0
 49
2.0
 74
               0
 49
-2.0
 74
               0
  0
LTYPE
  5
10C
100
AcDbSymbolTableRecord
100
AcDbLinetypeTableRecord
  2
PHANTOM
 70
              64
  3
Phantom ______  __  __  ______  __  __  ______
 72
              65
 73
               6
 40
30.0
 49
20.0
 74
               0
 49
-2.0
 74
               0
 49
2.0
 74
               0
 49
-2.0
 74
               0
 49
2.0
 74
               0
 49
-2.0
 74
               0
  0
LTYPE
  5
1E0
100
AcDbSymbolTableRecord
100
AcDbLinetypeTableRecord
  2
DASHED
 70
              64
  3
Dashed __ __ __ __ __ __ __ __ __ __ __ __ __ _
 72
              65
 73
               2
 40
4.0
 49
2.0
 74
               0
 49
-2.0
 74
               0
  0
ENDTAB
  0
TABLE
  2
LAYER
  5
2
100
AcDbSymbolTable
 70
               2
  0
LAYER
  5
14
100
AcDbSymbolTableRecord
100
AcDbLayerTableRecord
  2
0
 70
               0
 62
               7
  6
CONTINUOUS
  0
LAYER
  5
1D
100
AcDbSymbolTableRecord
100
AcDbLayerTableRecord
  2
DEFPOINTS
 70
               0
 62
               7
  6
CONTINUOUS
  0
ENDTAB
  0
TABLE
  2
STYLE
  5
3
100
AcDbSymbolTable
 70
               1
  0
STYLE
  5
17
100
AcDbSymbolTableRecord
100
AcDbTextStyleTableRecord
  2
MX_NOTE_STANDARD
 70
               0
 40
0.0
 41
1.0
 50
0.0
 71
               0
 42
3.2000000476837158
  3
txt.shx
  4
extfont.shx
  0
ENDTAB
  0
TABLE
  2
VIEW
  5
5
100
AcDbSymbolTable
 70
               0
  0
ENDTAB
  0
TABLE
  2
UCS
  5
6
100
AcDbSymbolTable
 70
               0
  0
ENDTAB
  0
TABLE
  2
APPID
  5
8
100
AcDbSymbolTable
 70
               1
  0
APPID
  5
16
100
AcDbSymbolTableRecord
100
AcDbRegAppTableRecord
  2
ACAD
 70
               0
  0
ENDTAB
  0
TABLE
  2
DIMSTYLE
  5
9
100
AcDbSymbolTable
 70
               1
  0
DIMSTYLE
105
18
100
AcDbSymbolTableRecord
100
AcDbDimStyleTableRecord
  2
MXDIMSTYLE
 70
               0
  3

  4

  5

  6

  7

 40
1.0
 41
2.5
 42
1.5
 43
3.75
 44
1.5
 45
0.0
 46
0.0
 47
0.0
 48
0.0
 71
               0
 72
               0
 73
               0
 74
               0
 75
               0
 76
               0
 77
               1
 78
               8
140
3.2000000476837158
141
2.5
142
0.0
143
0.03937007874016
144
1.0
145
0.0
146
1.0
147
1.0
170
               0
171
               4
172
               1
173
               0
174
               0
175
               0
176
               0
177
               0
178
               0
270
               2
271
               4
272
               4
273
               2
274
               4
275
               0
280
               0
281
               0
282
               0
283
               1
284
               0
285
               0
286
               0
287
               3
288
               1
340
17
  0
ENDTAB
  0
TABLE
  2
BLOCK_RECORD
  5
1
100
AcDbSymbolTable
 70
              18
  0
BLOCK_RECORD
  5
A
100
AcDbSymbolTableRecord
100
AcDbBlockTableRecord
  2
*MODEL_SPACE
  0
BLOCK_RECORD
  5
B
100
AcDbSymbolTableRecord
100
AcDbBlockTableRecord
  2
*PAPER_SPACE
  0
BLOCK_RECORD
  5
1E
100
AcDbSymbolTableRecord
100
AcDbBlockTableRecord
  2
NCT60-1
  0
BLOCK_RECORD
  5
1F
100
AcDbSymbolTableRecord
100
AcDbBlockTableRecord
  2
NCT60-2
  0
BLOCK_RECORD
  5
20
100
AcDbSymbolTableRecord
100
AcDbBlockTableRecord
  2
NCT60-3
  0
BLOCK_RECORD
  5
21
100
AcDbSymbolTableRecord
100
AcDbBlockTableRecord
  2
NCT60-4
  0
BLOCK_RECORD
  5
22
100
AcDbSymbolTableRecord
100
AcDbBlockTableRecord
  2
NCT60-5
  0
BLOCK_RECORD
  5
23
100
AcDbSymbolTableRecord
100
AcDbBlockTableRecord
  2
NCT60-6
  0
BLOCK_RECORD
  5
24
100
AcDbSymbolTableRecord
100
AcDbBlockTableRecord
  2
NCT60-7
  0
BLOCK_RECORD
  5
25
100
AcDbSymbolTableRecord
100
AcDbBlockTableRecord
  2
NCT60-8
  0
BLOCK_RECORD
  5
26
100
AcDbSymbolTableRecord
100
AcDbBlockTableRecord
  2
NCT60-9
  0
BLOCK_RECORD
  5
27
100
AcDbSymbolTableRecord
100
AcDbBlockTableRecord
  2
NCT60-10
  0
BLOCK_RECORD
  5
28
100
AcDbSymbolTableRecord
100
AcDbBlockTableRecord
  2
NCT60-11
  0
BLOCK_RECORD
  5
29
100
AcDbSymbolTableRecord
100
AcDbBlockTableRecord
  2
NCT60-12
  0
BLOCK_RECORD
  5
2A
100
AcDbSymbolTableRecord
100
AcDbBlockTableRecord
  2
NCT60-13
  0
BLOCK_RECORD
  5
2B
100
AcDbSymbolTableRecord
100
AcDbBlockTableRecord
  2
NCT60-14
  0
BLOCK_RECORD
  5
2C
100
AcDbSymbolTableRecord
100
AcDbBlockTableRecord
  2
NCT60-15
  0
BLOCK_RECORD
  5
2D
100
AcDbSymbolTableRecord
100
AcDbBlockTableRecord
  2
NCT60-16
  0
BLOCK_RECORD
  5
2E
100
AcDbSymbolTableRecord
100
AcDbBlockTableRecord
  2
NCT60-17
  0
BLOCK_RECORD
  5
2F
100
AcDbSymbolTableRecord
100
AcDbBlockTableRecord
  2
NCT60-18
  0
ENDTAB
  0
ENDSEC
  0
SECTION
  2
BLOCKS
  0
BLOCK
  5
D
100
AcDbEntity
  8
0
100
AcDbBlockBegin
  2
*MODEL_SPACE
 70
               0
 10
0.0
 20
0.0
 30
0.0
  3
*MODEL_SPACE
  1

  0
ENDBLK
  5
E
100
AcDbEntity
  8
0
100
AcDbBlockEnd
  0
BLOCK
  5
F
100
AcDbEntity
 67
               1
  8
0
100
AcDbBlockBegin
  2
*PAPER_SPACE
 70
               0
 10
0.0
 20
0.0
 30
0.0
  3
*PAPER_SPACE
  1

  0
ENDBLK
  5
10
100
AcDbEntity
 67
               1
  8
0
100
AcDbBlockEnd
  0
BLOCK
  5
30
100
AcDbEntity
  8
0
100
AcDbBlockBegin
  2
NCT60-1
 70
               0
 10
0.0
 20
0.0
 30
0.0
  3
NCT60-1
  1

  0
LINE
  5
31
100
AcDbEntity
  8
0
  6
CONTINUOUS
 62
               7
100
AcDbLine
 10
29.0
 20
0.0
 30
0.0
 11
-29.0
 21
0.0
 31
0.0
  0
LINE
  5
32
100
AcDbEntity
  8
0
  6
CONTINUOUS
 62
               7
100
AcDbLine
 10
30.0
 20
-1.0
 30
0.0
 11
30.0
 21
-16.799999999999983
 31
0.0
  0
LINE
  5
34
100
AcDbEntity
  8
0
  6
CENTER
 62
               2
100
AcDbLine
 10
5.97983220936527
 20
-6.9999999999999858
 30
0.0
 11
-7.0692497298594503
 21
-6.9999999999999858
 31
0.0
  0
LINE
  5
35
100
AcDbEntity
  8
0
  6
CONTINUOUS
 62
               7
100
AcDbLine
 10
29.800000000000011
 20
-16.999999999999986
 30
0.0
 11
-29.800000000000011
 21
-16.999999999999986
 31
0.0
  0
LINE
  5
36
100
AcDbEntity
  8
0
  6
CONTINUOUS
 62
               7
100
AcDbLine
 10
29.0
 20
0.0
 30
0.0
 11
30.0
 21
-1.0
 31
0.0
  0
LINE
  5
37
100
AcDbEntity
  8
0
  6
CONTINUOUS
 62
               7
100
AcDbLine
 10
-30.0
 20
-1.0
 30
0.0
 11
-30.0
 21
-16.799999999999983
 31
0.0
  0
LINE
  5
38
100
AcDbEntity
  8
0
  6
CONTINUOUS
 62
               7
100
AcDbLine
 10
-29.0
 20
0.0
 30
0.0
 11
-30.0
 21
-1.0
 31
0.0
  0
LINE
  5
39
100
AcDbEntity
  8
0
  6
CONTINUOUS
 62
               7
100
AcDbLine
 10
30.0
 20
-1.0
 30
0.0
 11
-30.0
 21
-1.0
 31
0.0
  0
LINE
  5
3A
100
AcDbEntity
  8
0
  6
CENTER
 62
               2
100
AcDbLine
 10
0.0
 20
2.8586970032394561
 30
0.0
 11
0.0
 21
-19.278038049940548
 31
0.0
  0
CIRCLE
  5
3B
100
AcDbEntity
  8
0
  6
CONTINUOUS
 62
               7
100
AcDbCircle
 10
0.0
 20
-6.9999999999999858
 30
0.0
 40
4.75
  0
LINE
  5
3C
100
AcDbEntity
  8
0
  6
CONTINUOUS
 62
               7
100
AcDbLine
 10
-2.0250000000000341
 20
-3.4925971146730177
 30
0.0
 11
-4.0500000000000114
 21
-6.9999999999999858
 31
0.0
  0
LINE
  5
3D
100
AcDbEntity
  8
0
  6
CONTINUOUS
 62
               7
100
AcDbLine
 10
-4.0500000000000114
 20
-6.9999999999999858
 30
0.0
 11
-2.0249999999999773
 21
-10.507402885326982
 31
0.0
  0
LINE
  5
3E
100
AcDbEntity
  8
0
  6
CONTINUOUS
 62
               7
100
AcDbLine
 10
-2.0249999999999773
 20
-10.507402885326982
 30
0.0
 11
2.0249999999999773
 21
-10.507402885326982
 31
0.0
  0
LINE
  5
3F
100
AcDbEntity
  8
0
  6
CONTINUOUS
 62
               7
100
AcDbLine
 10
2.0249999999999773
 20
-10.507402885326982
 30
0.0
 11
4.0500000000000114
 21
-6.9999999999999858
 31
0.0
  0
LINE
  5
40
100
AcDbEntity
  8
0
  6
CONTINUOUS
 62
               7
100
AcDbLine
 10
4.0500000000000114
 20
-6.9999999999999858
 30
0.0
 11
2.0250000000000341
 21
-3.4925971146730035
 31
0.0
  0
LINE
  5
41
100
AcDbEntity
  8
0
  6
CONTINUOUS
 62
               7
100
AcDbLine
 10
2.0250000000000341
 20
-3.4925971146730035
 30
0.0
 11
-2.0250000000000341
 21
-3.4925971146730177
 31
0.0
  0
LINE
  5
42
100
AcDbEntity
  8
0
  6
CONTINUOUS
 62
               7
100
AcDbLine
 10
0.6000000000000227
 20
-3.4925971146730035
 30
0.0
 11
0.6000000000000227
 21
-10.507402885326982
 31
0.0
  0
LINE
  5
43
100
AcDbEntity
  8
0
  6
CONTINUOUS
 62
               7
100
AcDbLine
 10
-0.6000000000000227
 20
-3.4925971146730177
 30
0.0
 11
-0.6000000000000227
 21
-10.507402885326982
 31
0.0
  0
ARC
  5
44
100
AcDbEntity
  8
0
  6
CONTINUOUS
 62
               7
100
AcDbCircle
 10
0.0
 20
-6.9999999999999858
 30
0.0
 40
3.5074028853269792
100
AcDbArc
 50
279.84984773017413
 51
80.150152269825071
  0
ARC
  5
45
100
AcDbEntity
  8
0
  6
CONTINUOUS
 62
               7
100
AcDbCircle
 10
0.0
 20
-6.9999999999999858
 30
0.0
 40
3.5074028853269792
100
AcDbArc
 50
99.849847730174503
 51
260.15015226982462
  0
ARC
  5
46
100
AcDbEntity
  8
0
  6
CONTINUOUS
 62
               7
100
AcDbCircle
 10
0.0
 20
-6.9999999999999858
 30
0.0
 40
4.0
100
AcDbArc
 50
1.2647703579682756
 51
58.735229642031562
  0
ARC
  5
47
100
AcDbEntity
  8
0
  6
CONTINUOUS
 62
               7
100
AcDbCircle
 10
0.0
 20
-6.9999999999999858
 30
0.0
 40
4.0
100
AcDbArc
 50
61.264770357968032
 51
118.73522964203177
  0
ARC
  5
48
100
AcDbEntity
  8
0
  6
CONTINUOUS
 62
               7
100
AcDbCircle
 10
0.0
 20
-6.9999999999999858
 30
0.0
 40
4.0
100
AcDbArc
 50
121.26477035796792
 51
178.73522964203138
  0
ARC
  5
49
100
AcDbEntity
  8
0
  6
CONTINUOUS
 62
               7
100
AcDbCircle
 10
0.0
 20
-6.9999999999999858
 30
0.0
 40
4.0
100
AcDbArc
 50
181.26477035796773
 51
238.73522964203116
  0
ARC
  5
4A
100
AcDbEntity
  8
0
  6
CONTINUOUS
 62
               7
100
AcDbCircle
 10
0.0
 20
-6.9999999999999858
 30
0.0
 40
4.0
100
AcDbArc
 50
241.2647703579683
 51
298.73522964203056
  0
ARC
  5
4B
100
AcDbEntity
  8
0
  6
CONTINUOUS
 62
               7
100
AcDbCircle
 10
0.0
 20
-6.9999999999999858
 30
0.0
 40
4.0
100
AcDbArc
 50
301.26477035796779
 51
358.7352296420309
  0
LINE
  5
4C
100
AcDbEntity
  8
0
  6
CENTER
 62
             200
100
AcDbLine
 10
18.879750943243948
 20
-13.999999997392536
 30
0.0
 11
18.879750943243948
 21
-19.999999999999986
 31
0.0
  0
LINE
  5
4D
100
AcDbEntity
  8
0
  6
CONTINUOUS
 62
               4
100
AcDbLine
 10
21.879750942536106
 20
-17.999999999999986
 30
0.0
 11
15.879750942536134
 21
-17.999999999999986
 31
0.0
  0
LINE
  5
4E
100
AcDbEntity
  8
0
  6
CENTER
 62
             200
100
AcDbLine
 10
6.9104682857315538
 20
-13.999999997392536
 30
0.0
 11
6.9104682857315538
 21
-19.999999999999986
 31
0.0
  0
LINE
  5
4F
100
AcDbEntity
  8
0
  6
CENTER
 62
             200
100
AcDbLine
 10
-25.790219619852337
 20
-13.999999997392536
 30
0.0
 11
-25.790219619852337
 21
-19.999999999999986
 31
0.0
  0
LINE
  5
50
100
AcDbEntity
  8
0
  6
CONTINUOUS
 62
               7
100
AcDbLine
 10
30.0
 20
-16.799999999999983
 30
0.0
 11
29.800000000000011
 21
-16.999999999999986
 31
0.0
  0
LINE
  5
51
100
AcDbEntity
  8
0
  6
CONTINUOUS
 62
               7
100
AcDbLine
 10
-29.800000000000011
 20
-16.999999999999986
 30
0.0
 11
-30.0
 21
-16.799999999999983
 31
0.0
  0
LINE
  5
52
100
AcDbEntity
  8
0
  6
CONTINUOUS
 62
               4
100
AcDbLine
 10
21.879750942536106
 20
-16.999999999999986
 30
0.0
 11
21.879750942536106
 21
-17.999999999999986
 31
0.0
  0
LINE
  5
53
100
AcDbEntity
  8
0
  6
CONTINUOUS
 62
               4
100
AcDbLine
 10
15.879750942536134
 20
-16.999999999999986
 30
0.0
 11
15.879750942536134
 21
-17.999999999999986
 31
0.0
  0
LINE
  5
54
100
AcDbEntity
  8
0
  6
CONTINUOUS
 62
               4
100
AcDbLine
 10
9.9104682850237396
 20
-17.999999999999986
 30
0.0
 11
3.9104682850237396
 21
-17.999999999999986
 31
0.0
  0
LINE
  5
55
100
AcDbEntity
  8
0
  6
CONTINUOUS
 62
               4
100
AcDbLine
 10
3.9104682850237396
 20
-16.999999999999986
 30
0.0
 11
3.9104682850237396
 21
-17.999999999999986
 31
0.0
  0
LINE
  5
56
100
AcDbEntity
  8
0
  6
CONTINUOUS
 62
               4
100
AcDbLine
 10
9.9104682850237396
 20
-16.999999999999986
 30
0.0
 11
9.9104682850237396
 21
-17.999999999999986
 31
0.0
  0
LINE
  5
57
100
AcDbEntity
  8
0
  6
CONTINUOUS
 62
               4
100
AcDbLine
 10
-22.790219620560208
 20
-17.999999999999986
 30
0.0
 11
-28.790219620560208
 21
-17.999999999999986
 31
0.0
  0
LINE
  5
58
100
AcDbEntity
  8
0
  6
CONTINUOUS
 62
               4
100
AcDbLine
 10
-28.790219620560208
 20
-16.999999999999986
 30
0.0
 11
-28.790219620560208
 21
-17.999999999999986
 31
0.0
  0
LINE
  5
59
100
AcDbEntity
  8
0
  6
CONTINUOUS
 62
               4
100
AcDbLine
 10
-22.790219620560208
 20
-16.999999999999986
 30
0.0
 11
-22.790219620560208
 21
-17.999999999999986
 31
0.0
  0
LINE
  5
5A
100
AcDbEntity
  8
0
  6
CONTINUOUS
 62
               7
100
AcDbLine
 10
30.0
 20
-16.799999999999983
 30
0.0
 11
-30.0
 21
-16.799999999999983
 31
0.0
  0
ENDBLK
  5
5B
100
AcDbEntity
  8
0
100
AcDbBlockEnd
  0
BLOCK
  5
5C
100
AcDbEntity
  8
0
100
AcDbBlockBegin
  2
NCT60-2
 70
               0
 10
0.0
 20
0.0
 30
0.0
  3
NCT60-2
  1

  0
LINE
  5
5D
100
AcDbEntity
  8
0
  6
CONTINUOUS
 62
               7
100
AcDbLine
 10
-30.449847371021249
 20
-7.0999999999999943
 30
0.0
 11
-30.049847371021251
 21
-7.0999999999999943
 31
0.0
  0
LINE
  5
5E
100
AcDbEntity
  8
0
  6
CONTINUOUS
 62
               7
100
AcDbLine
 10
-30.449847371021249
 20
-7.0999999999999943
 30
0.0
 11
-30.449847371021249
 21
-1.0999999999999943
 31
0.0
  0
LINE
  5
5F
100
AcDbEntity
  8
0
  6
CONTINUOUS
 62
               7
100
AcDbLine
 10
-30.449847371021249
 20
-1.0999999999999943
 30
0.0
 11
-29.959583191223881
 21
-1.0999999999999943
 31
0.0
  0
LINE
  5
60
100
AcDbEntity
  8
0
  6
CONTINUOUS
 62
               7
100
AcDbLine
 10
-63.6915881183021
 20
-7.9734797350150188
 30
0.0
 11
-65.9020659227306
 21
-7.6571014755549811
 31
0.0
  0
LINE
  5
61
100
AcDbEntity
  8
0
  6
CONTINUOUS
 62
               7
100
AcDbLine
 10
-63.694221299658928
 20
-7.8720837873829055
 30
0.0
 11
-65.716070499345534
 21
-7.5827033062009548
 31
0.0
  0
LINE
  5
62
100
AcDbEntity
  8
0
  6
CONTINUOUS
 62
               7
100
AcDbLine
 10
-63.69422132946125
 20
-7.8720837920903932
 30
0.0
 11
-63.347811144362602
 21
-7.672083789110161
 31
0.0
  0
LINE
  5
63
100
AcDbEntity
  8
0
  6
CONTINUOUS
 62
               7
100
AcDbLine
 10
-66.196812258988814
 20
-7.7750000100582781
 30
0.0
 11
-65.446812258988814
 21
-7.4750000100582668
 31
0.0
  0
ARC
  5
64
100
AcDbEntity
  8
0
  6
CONTINUOUS
 62
               7
100
AcDbCircle
 10
-63.597811162243993
 20
-7.7250000100582668
 30
0.0
 40
0.25
100
AcDbArc
 50
0.0
 51
89.999999999999815
  0
ARC
  5
65
100
AcDbEntity
  8
0
  6
CONTINUOUS
 62
               7
100
AcDbCircle
 10
-66.597811162244
 20
-7.7250000100582668
 30
0.0
 40
0.25
100
AcDbArc
 50
89.999999999999815
 51
179.99999999999963
  0
LINE
  5
66
100
AcDbEntity
  8
0
  6
CONTINUOUS
 62
               7
100
AcDbLine
 10
-61.097811162243993
 20
-6.850806334614731
 30
0.0
 11
-61.097811162243993
 21
-7.7250000029802095
 31
0.0
  0
ARC
  5
67
100
AcDbEntity
  8
0
  6
CONTINUOUS
 62
               7
100
AcDbCircle
 10
-60.097811162243993
 20
-7.6750000100582838
 30
0.0
 40
0.25
100
AcDbArc
 50
179.99999999999963
 51
269.99999999999937
  0
ARC
  5
68
100
AcDbEntity
  8
0
  6
CONTINUOUS
 62
               7
100
AcDbCircle
 10
-57.797811162243995
 20
-7.6750000100582838
 30
0.0
 40
0.25
100
AcDbArc
 50
269.99999999999937
 51
0.0
  0
LINE
  5
69
100
AcDbEntity
  8
0
  6
CONTINUOUS
 62
               7
100
AcDbLine
 10
-56.547811161312673
 20
-6.4375110954046022
 30
0.0
 11
-56.494120865984783
 21
-7.9750000100582668
 31
0.0
  0
LINE
  5
6A
100
AcDbEntity
  8
0
  6
CONTINUOUS
 62
               7
100
AcDbLine
 10
-55.040827009412858
 20
-6.2375113457441103
 30
0.0
 11
-55.10150145074735
 21
-7.9750000100582668
 31
0.0
  0
LINE
  5
6B
100
AcDbEntity
  8
0
  6
CONTINUOUS
 62
               7
100
AcDbLine
 10
-56.547811177145157
 20
-6.4375113040208589
 30
0.0
 11
-55.660141655936144
 21
-7.9750000100582668
 31
0.0
  0
LINE
  5
6C
100
AcDbEntity
  8
0
  6
CONTINUOUS
 62
               7
100
AcDbLine
 10
-67.347811162244
 20
-6.324999997019745
 30
0.0
 11
-67.347811162244
 21
-7.9750000029802095
 31
0.0
  0
LINE
  5
6D
100
AcDbEntity
  8
0
  6
CONTINUOUS
 62
               7
100
AcDbLine
 10
-55.10150144313122
 20
-1.9750000100582668
 30
0.0
 11
-56.494120865984783
 21
-1.9750000100582668
 31
0.0
  0
LINE
  5
6E
100
AcDbEntity
  8
0
  6
CONTINUOUS
 62
               7
100
AcDbLine
 10
-56.547811162243995
 20
-0.2375113457441103
 30
0.0
 11
-55.040827009412851
 21
-0.2375113457441103
 31
0.0
  0
LINE
  5
6F
100
AcDbEntity
  8
0
  6
CONTINUOUS
 62
               7
100
AcDbLine
 10
-67.347811162244
 20
-0.324999997019745
 30
0.0
 11
-67.347811162244
 21
-1.9750000029802095
 31
0.0
  0
LINE
  5
70
100
AcDbEntity
  8
0
  6
CONTINUOUS
 62
               7
100
AcDbLine
 10
-57.547811192046318
 20
-0.525000009313203
 30
0.0
 11
-56.547811192046318
 21
-0.4375113468616974
 31
0.0
  0
LINE
  5
71
100
AcDbEntity
  8
0
  6
CONTINUOUS
 62
               7
100
AcDbLine
 10
-57.547811192046318
 20
-0.3250000100582611
 30
0.0
 11
-56.547811192046318
 21
-0.2375113476067554
 31
0.0
  0
LINE
  5
72
100
AcDbEntity
  8
0
  6
CONTINUOUS
 62
               7
100
AcDbLine
 10
-56.547811177145157
 20
-0.4375113040208589
 30
0.0
 11
-55.660141655936144
 21
-1.9750000100582668
 31
0.0
  0
LINE
  5
73
100
AcDbEntity
  8
0
  6
CONTINUOUS
 62
               7
100
AcDbLine
 10
-55.040827009412851
 20
-0.2375113457441103
 30
0.0
 11
-55.10150145074735
 21
-1.9750000100582668
 31
0.0
  0
LINE
  5
74
100
AcDbEntity
  8
0
  6
CONTINUOUS
 62
               7
100
AcDbLine
 10
-56.547811161312673
 20
-0.4375110954046022
 30
0.0
 11
-56.494120865984783
 21
-1.9750000100582668
 31
0.0
  0
LINE
  5
75
100
AcDbEntity
  8
0
  6
CONTINUOUS
 62
               7
100
AcDbLine
 10
-55.797811162243995
 20
-1.7365493863820802
 30
0.0
 11
-55.935480691378658
 21
-1.9750000100582668
 31
0.0
  0
LINE
  5
76
100
AcDbEntity
  8
0
  6
CONTINUOUS
 62
               7
100
AcDbLine
 10
-60.347811162243993
 20
-0.7259619027375948
 30
0.0
 11
-60.347811162243993
 21
-1.6750000208616029
 31
0.0
  0
LINE
  5
77
100
AcDbEntity
  8
0
  6
CONTINUOUS
 62
               7
100
AcDbLine
 10
-57.547811162243995
 20
-0.5250000149011385
 30
0.0
 11
-57.547811162243995
 21
-1.6750000100582838
 31
0.0
  0
LINE
  5
78
100
AcDbEntity
  8
0
  6
CONTINUOUS
 62
               7
100
AcDbLine
 10
-67.547811162243988
 20
-0.3250000100582611
 30
0.0
 11
-66.647811162243997
 21
-0.3250000100582611
 31
0.0
  0
LINE
  5
79
100
AcDbEntity
  8
0
  6
CONTINUOUS
 62
               7
100
AcDbLine
 10
-60.097811174164924
 20
-1.9250000100582838
 30
0.0
 11
-57.797811162243995
 21
-1.9250000100582838
 31
0.0
  0
ARC
  5
7A
100
AcDbEntity
  8
0
  6
CONTINUOUS
 62
               7
100
AcDbCircle
 10
-57.797811162243995
 20
-1.6750000100582838
 30
0.0
 40
0.25
100
AcDbArc
 50
269.99999999999937
 51
0.0
  0
ARC
  5
7B
100
AcDbEntity
  8
0
  6
CONTINUOUS
 62
               7
100
AcDbCircle
 10
-60.097811162243993
 20
-1.6750000100582838
 30
0.0
 40
0.25
100
AcDbArc
 50
179.99999999999963
 51
269.99999999999937
  0
LINE
  5
7C
100
AcDbEntity
  8
0
  6
CONTINUOUS
 62
               7
100
AcDbLine
 10
-67.347811174164917
 20
-1.9750000100582668
 30
0.0
 11
-66.847811174164917
 21
-1.9750000100582668
 31
0.0
  0
LINE
  5
7D
100
AcDbEntity
  8
0
  6
CONTINUOUS
 62
               7
100
AcDbLine
 10
-61.097811162243993
 20
-0.850806334614731
 30
0.0
 11
-61.097811162243993
 21
-1.7250000029802095
 31
0.0
  0
ARC
  5
7E
100
AcDbEntity
  8
0
  6
CONTINUOUS
 62
               7
100
AcDbCircle
 10
-61.347811162243993
 20
-1.7250000100582668
 30
0.0
 40
0.25
100
AcDbArc
 50
269.99999999999937
 51
0.0
  0
LINE
  5
7F
100
AcDbEntity
  8
0
  6
CONTINUOUS
 62
               7
100
AcDbLine
 10
-60.783106428157005
 20
-0.6093248814344179
 30
0.0
 11
-60.347811203967247
 21
-0.7259618878364336
 31
0.0
  0
ARC
  5
80
100
AcDbEntity
  8
0
  6
CONTINUOUS
 62
               7
100
AcDbCircle
 10
-60.847811162243993
 20
-0.8508063479031023
 30
0.0
 40
0.25
100
AcDbArc
 50
75.000006605880117
 51
179.99999999999963
  0
LINE
  5
81
100
AcDbEntity
  8
0
  6
CONTINUOUS
 62
               7
100
AcDbLine
 10
-63.347811162243993
 20
-1.7250000029802095
 30
0.0
 11
-63.347811162243993
 21
-1.9750000100582668
 31
0.0
  0
LINE
  5
82
100
AcDbEntity
  8
0
  6
CONTINUOUS
 62
               7
100
AcDbLine
 10
-66.847811162244
 20
-1.7250000029802095
 30
0.0
 11
-66.847811162244
 21
-1.9750000100582668
 31
0.0
  0
LINE
  5
83
100
AcDbEntity
  8
0
  6
CONTINUOUS
 62
               7
100
AcDbLine
 10
-66.597811174164917
 20
-1.4750000100582668
 30
0.0
 11
-63.597811162243993
 21
-1.4750000100582668
 31
0.0
  0
ARC
  5
84
100
AcDbEntity
  8
0
  6
CONTINUOUS
 62
               7
100
AcDbCircle
 10
-66.597811162244
 20
-1.7250000100582668
 30
0.0
 40
0.25
100
AcDbArc
 50
89.999999999999815
 51
179.99999999999963
  0
ARC
  5
85
100
AcDbEntity
  8
0
  6
CONTINUOUS
 62
               7
100
AcDbCircle
 10
-63.597811162243993
 20
-1.7250000100582668
 30
0.0
 40
0.25
100
AcDbArc
 50
0.0
 51
89.999999999999815
  0
LINE
  5
86
100
AcDbEntity
  8
0
  6
CONTINUOUS
 62
               7
100
AcDbLine
 10
-63.347811162243993
 20
-1.9750000100582668
 30
0.0
 11
-61.347811174164924
 21
-1.9750000100582668
 31
0.0
  0
LINE
  5
87
100
AcDbEntity
  8
0
  6
CONTINUOUS
 62
               7
100
AcDbLine
 10
-66.847811162244
 20
-0.324999997019745
 30
0.0
 11
-66.847811162244
 21
-0.4250000208616029
 31
0.0
  0
LINE
  5
88
100
AcDbEntity
  8
0
  6
CONTINUOUS
 62
               7
100
AcDbLine
 10
-66.647811162243997
 20
-0.3250000100582611
 30
0.0
 11
-64.547811162243988
 21
0.1749999899417389
 31
0.0
  0
LINE
  5
89
100
AcDbEntity
  8
0
  6
CONTINUOUS
 62
               7
100
AcDbLine
 10
-66.647811162243997
 20
-0.4277954059864726
 30
0.0
 11
-64.52464910951339
 21
0.0777193684731969
 31
0.0
  0
LINE
  5
8A
100
AcDbEntity
  8
0
  6
CONTINUOUS
 62
               7
100
AcDbLine
 10
-64.547811162243988
 20
0.1749999899417389
 30
0.0
 11
-64.52464910951339
 21
0.0777193684731969
 31
0.0
  0
LINE
  5
8B
100
AcDbEntity
  8
0
  6
CONTINUOUS
 62
               7
100
AcDbLine
 10
-66.216070499345534
 20
-0.3250000100582611
 30
0.0
 11
-64.040631529333552
 21
-0.3250000100582611
 31
0.0
  0
LINE
  5
8C
100
AcDbEntity
  8
0
  6
CONTINUOUS
 62
               7
100
AcDbLine
 10
-66.847811174164917
 20
-0.4277954059864726
 30
0.0
 11
-66.647811162243997
 21
-0.4277954059864726
 31
0.0
  0
LINE
  5
8D
100
AcDbEntity
  8
0
  6
CONTINUOUS
 62
               7
100
AcDbLine
 10
-66.747811150323059
 20
-0.5250000100582781
 30
0.0
 11
-66.316070499345528
 21
-0.5250000100582781
 31
0.0
  0
ARC
  5
8E
100
AcDbEntity
  8
0
  6
CONTINUOUS
 62
               7
100
AcDbCircle
 10
-66.747811162244005
 20
-0.4250000100582838
 30
0.0
 40
0.1
100
AcDbArc
 50
179.99999999999963
 51
269.99999999999937
  0
LINE
  5
8F
100
AcDbEntity
  8
0
  6
CONTINUOUS
 62
               7
100
AcDbLine
 10
-66.216070499345534
 20
-0.324999997019745
 30
0.0
 11
-66.216070499345534
 21
-0.4250000208616029
 31
0.0
  0
ARC
  5
90
100
AcDbEntity
  8
0
  6
CONTINUOUS
 62
               7
100
AcDbCircle
 10
-66.316070499345528
 20
-0.4250000100582838
 30
0.0
 40
0.1
100
AcDbArc
 50
269.99999999999937
 51
0.0
  0
LINE
  5
91
100
AcDbEntity
  8
0
  6
CONTINUOUS
 62
               7
100
AcDbLine
 10
-65.716070499345534
 20
-0.324999997019745
 30
0.0
 11
-65.716070499345534
 21
-0.4250000208616029
 31
0.0
  0
LINE
  5
92
100
AcDbEntity
  8
0
  6
CONTINUOUS
 62
               7
100
AcDbLine
 10
-63.347811162243993
 20
-0.324999997019745
 30
0.0
 11
-63.347811162243993
 21
-0.4250000208616029
 31
0.0
  0
LINE
  5
93
100
AcDbEntity
  8
0
  6
CONTINUOUS
 62
               7
100
AcDbLine
 10
-65.616070490847733
 20
-0.5250000100582781
 30
0.0
 11
-63.44781116820446
 21
-0.5250000100582781
 31
0.0
  0
ARC
  5
94
100
AcDbEntity
  8
0
  6
CONTINUOUS
 62
               7
100
AcDbCircle
 10
-63.447811162243994
 20
-0.4250000100582838
 30
0.0
 40
0.1
100
AcDbArc
 50
269.99999999999937
 51
0.0
  0
ARC
  5
95
100
AcDbEntity
  8
0
  6
CONTINUOUS
 62
               7
100
AcDbCircle
 10
-65.61607049934554
 20
-0.4250000100582838
 30
0.0
 40
0.1
100
AcDbArc
 50
179.99999999999963
 51
269.99999999999937
  0
LINE
  5
96
100
AcDbEntity
  8
0
  6
CONTINUOUS
 62
               7
100
AcDbLine
 10
-63.347811162243993
 20
-0.3250000100582611
 30
0.0
 11
-57.547811162243995
 21
-0.3250000100582611
 31
0.0
  0
LINE
  5
97
100
AcDbEntity
  8
0
  6
CONTINUOUS
 62
               7
100
AcDbLine
 10
-63.69422132946125
 20
-0.5249999999999773
 30
0.0
 11
-63.347811185368933
 21
-0.3250000100582611
 31
0.0
  0
LINE
  5
98
100
AcDbEntity
  8
0
  6
CONTINUOUS
 62
               7
100
AcDbLine
 10
-64.040631544362213
 20
-0.324999997019745
 30
0.0
 11
-63.69422132946125
 21
-0.5250000298022997
 31
0.0
  0
LINE
  5
99
100
AcDbEntity
  8
0
  6
CONTINUOUS
 62
               7
100
AcDbLine
 10
-64.067426484595444
 20
-0.4250000059604417
 30
0.0
 11
-63.894221347342643
 21
-0.5250000298022997
 31
0.0
  0
LINE
  5
9A
100
AcDbEntity
  8
0
  6
CONTINUOUS
 62
               7
100
AcDbLine
 10
-65.716070499345534
 20
-0.4250000100582838
 30
0.0
 11
-64.06742647079659
 21
-0.4250000100582838
 31
0.0
  0
LINE
  5
9B
100
AcDbEntity
  8
0
  6
CONTINUOUS
 62
               7
100
AcDbLine
 10
-66.847811174164917
 20
-1.7750000100582781
 30
0.0
 11
-66.196812258988814
 21
-1.7750000100582781
 31
0.0
  0
LINE
  5
9C
100
AcDbEntity
  8
0
  6
CONTINUOUS
 62
               7
100
AcDbLine
 10
-66.847811174164917
 20
-1.6750000100582838
 30
0.0
 11
-66.216070499345534
 21
-1.6750000100582838
 31
0.0
  0
LINE
  5
9D
100
AcDbEntity
  8
0
  6
CONTINUOUS
 62
               7
100
AcDbLine
 10
-66.216070499345534
 20
-1.6750000100582838
 30
0.0
 11
-65.716070499345534
 21
-1.4750000100582668
 31
0.0
  0
LINE
  5
9E
100
AcDbEntity
  8
0
  6
CONTINUOUS
 62
               7
100
AcDbLine
 10
-66.196812258988814
 20
-1.7750000100582781
 30
0.0
 11
-65.446812258988814
 21
-1.4750000100582668
 31
0.0
  0
LINE
  5
9F
100
AcDbEntity
  8
0
  6
CONTINUOUS
 62
               7
100
AcDbLine
 10
-63.6915881183021
 20
-1.9734797350150188
 30
0.0
 11
-63.347811162243993
 21
-1.7750000168936992
 31
0.0
  0
LINE
  5
A0
100
AcDbEntity
  8
0
  6
CONTINUOUS
 62
               7
100
AcDbLine
 10
-63.69422132946125
 20
-1.8720837920903932
 30
0.0
 11
-63.347811144362602
 21
-1.672083789110161
 31
0.0
  0
LINE
  5
A1
100
AcDbEntity
  8
0
  6
CONTINUOUS
 62
               7
100
AcDbLine
 10
-63.694221299658928
 20
-1.8720837873829055
 30
0.0
 11
-65.716070499345534
 21
-1.5827033062009548
 31
0.0
  0
LINE
  5
A2
100
AcDbEntity
  8
0
  6
CONTINUOUS
 62
               7
100
AcDbLine
 10
-63.6915881183021
 20
-1.9734797350150188
 30
0.0
 11
-65.9020659227306
 21
-1.6571014755549811
 31
0.0
  0
LINE
  5
A3
100
AcDbEntity
  8
0
  6
CONTINUOUS
 62
               7
100
AcDbLine
 10
-67.547811162243988
 20
-0.324999997019745
 30
0.0
 11
-67.547811162243988
 21
-0.6250000100582724
 31
0.0
  0
LINE
  5
A4
100
AcDbEntity
  8
0
  6
CONTINUOUS
 62
               7
100
AcDbLine
 10
-67.547811162243988
 20
-0.6250000100582724
 30
0.0
 11
-67.347811162244
 21
-0.6250000100582724
 31
0.0
  0
LINE
  5
A5
100
AcDbEntity
  8
0
  6
CONTINUOUS
 62
               7
100
AcDbLine
 10
-55.10150144313122
 20
-4.9750000100582668
 30
0.0
 11
-56.494120865984783
 21
-4.9750000100582668
 31
0.0
  0
LINE
  5
A6
100
AcDbEntity
  8
0
  6
CONTINUOUS
 62
               7
100
AcDbLine
 10
-56.547811162243995
 20
-3.2375113457441103
 30
0.0
 11
-55.040827009412858
 21
-3.2375113457441103
 31
0.0
  0
LINE
  5
A7
100
AcDbEntity
  8
0
  6
CONTINUOUS
 62
               7
100
AcDbLine
 10
-67.347811162244
 20
-3.324999997019745
 30
0.0
 11
-67.347811162244
 21
-4.9750000029802095
 31
0.0
  0
LINE
  5
A8
100
AcDbEntity
  8
0
  6
CONTINUOUS
 62
               7
100
AcDbLine
 10
-57.547811192046318
 20
-3.525000009313203
 30
0.0
 11
-56.547811192046318
 21
-3.4375113468616973
 31
0.0
  0
LINE
  5
A9
100
AcDbEntity
  8
0
  6
CONTINUOUS
 62
               7
100
AcDbLine
 10
-57.547811192046318
 20
-3.3250000100582611
 30
0.0
 11
-56.547811192046318
 21
-3.2375113476067554
 31
0.0
  0
LINE
  5
AA
100
AcDbEntity
  8
0
  6
CONTINUOUS
 62
               7
100
AcDbLine
 10
-56.547811177145157
 20
-3.4375113040208589
 30
0.0
 11
-55.660141655936144
 21
-4.9750000100582668
 31
0.0
  0
LINE
  5
AB
100
AcDbEntity
  8
0
  6
CONTINUOUS
 62
               7
100
AcDbLine
 10
-55.040827009412858
 20
-3.2375113457441103
 30
0.0
 11
-55.10150145074735
 21
-4.9750000100582668
 31
0.0
  0
LINE
  5
AC
100
AcDbEntity
  8
0
  6
CONTINUOUS
 62
               7
100
AcDbLine
 10
-56.547811161312673
 20
-3.4375110954046022
 30
0.0
 11
-56.494120865984783
 21
-4.9750000100582668
 31
0.0
  0
LINE
  5
AD
100
AcDbEntity
  8
0
  6
CONTINUOUS
 62
               7
100
AcDbLine
 10
-55.797811162243995
 20
-4.7365493863820802
 30
0.0
 11
-55.935480691378658
 21
-4.9750000100582668
 31
0.0
  0
LINE
  5
AE
100
AcDbEntity
  8
0
  6
CONTINUOUS
 62
               7
100
AcDbLine
 10
-60.347811162243993
 20
-3.7259619027375948
 30
0.0
 11
-60.347811162243993
 21
-4.6750000208616029
 31
0.0
  0
LINE
  5
AF
100
AcDbEntity
  8
0
  6
CONTINUOUS
 62
               7
100
AcDbLine
 10
-57.547811162243995
 20
-3.5250000149011385
 30
0.0
 11
-57.547811162243995
 21
-4.6750000100582838
 31
0.0
  0
LINE
  5
B0
100
AcDbEntity
  8
0
  6
CONTINUOUS
 62
               7
100
AcDbLine
 10
-67.547811162243988
 20
-3.3250000100582611
 30
0.0
 11
-66.647811162243997
 21
-3.3250000100582611
 31
0.0
  0
LINE
  5
B1
100
AcDbEntity
  8
0
  6
CONTINUOUS
 62
               7
100
AcDbLine
 10
-60.097811174164924
 20
-4.9250000100582838
 30
0.0
 11
-57.797811162243995
 21
-4.9250000100582838
 31
0.0
  0
ARC
  5
B2
100
AcDbEntity
  8
0
  6
CONTINUOUS
 62
               7
100
AcDbCircle
 10
-57.797811162243995
 20
-4.6750000100582838
 30
0.0
 40
0.25
100
AcDbArc
 50
269.99999999999937
 51
0.0
  0
ARC
  5
B3
100
AcDbEntity
  8
0
  6
CONTINUOUS
 62
               7
100
AcDbCircle
 10
-60.097811162243993
 20
-4.6750000100582838
 30
0.0
 40
0.25
100
AcDbArc
 50
179.99999999999963
 51
269.99999999999937
  0
LINE
  5
B4
100
AcDbEntity
  8
0
  6
CONTINUOUS
 62
               7
100
AcDbLine
 10
-67.347811174164917
 20
-4.9750000100582668
 30
0.0
 11
-66.847811174164917
 21
-4.9750000100582668
 31
0.0
  0
LINE
  5
B5
100
AcDbEntity
  8
0
  6
CONTINUOUS
 62
               7
100
AcDbLine
 10
-61.097811162243993
 20
-3.850806334614731
 30
0.0
 11
-61.097811162243993
 21
-4.7250000029802095
 31
0.0
  0
ARC
  5
B6
100
AcDbEntity
  8
0
  6
CONTINUOUS
 62
               7
100
AcDbCircle
 10
-61.347811162243993
 20
-4.7250000100582668
 30
0.0
 40
0.25
100
AcDbArc
 50
269.99999999999937
 51
0.0
  0
LINE
  5
B7
100
AcDbEntity
  8
0
  6
CONTINUOUS
 62
               7
100
AcDbLine
 10
-60.783106428157005
 20
-3.6093248814344179
 30
0.0
 11
-60.347811203967247
 21
-3.7259618878364336
 31
0.0
  0
ARC
  5
B8
100
AcDbEntity
  8
0
  6
CONTINUOUS
 62
               7
100
AcDbCircle
 10
-60.847811162243993
 20
-3.8508063479031023
 30
0.0
 40
0.25
100
AcDbArc
 50
75.000006605880117
 51
179.99999999999963
  0
LINE
  5
B9
100
AcDbEntity
  8
0
  6
CONTINUOUS
 62
               7
100
AcDbLine
 10
-63.347811162243993
 20
-4.7250000029802095
 30
0.0
 11
-63.347811162243993
 21
-4.9750000100582668
 31
0.0
  0
LINE
  5
BA
100
AcDbEntity
  8
0
  6
CONTINUOUS
 62
               7
100
AcDbLine
 10
-66.847811162244
 20
-4.7250000029802095
 30
0.0
 11
-66.847811162244
 21
-4.9750000100582668
 31
0.0
  0
LINE
  5
BB
100
AcDbEntity
  8
0
  6
CONTINUOUS
 62
               7
100
AcDbLine
 10
-66.597811174164917
 20
-4.4750000100582668
 30
0.0
 11
-63.597811162243993
 21
-4.4750000100582668
 31
0.0
  0
ARC
  5
BC
100
AcDbEntity
  8
0
  6
CONTINUOUS
 62
               7
100
AcDbCircle
 10
-66.597811162244
 20
-4.7250000100582668
 30
0.0
 40
0.25
100
AcDbArc
 50
89.999999999999815
 51
179.99999999999963
  0
ARC
  5
BD
100
AcDbEntity
  8
0
  6
CONTINUOUS
 62
               7
100
AcDbCircle
 10
-63.597811162243993
 20
-4.7250000100582668
 30
0.0
 40
0.25
100
AcDbArc
 50
0.0
 51
89.999999999999815
  0
LINE
  5
BE
100
AcDbEntity
  8
0
  6
CONTINUOUS
 62
               7
100
AcDbLine
 10
-63.347811162243993
 20
-4.9750000100582668
 30
0.0
 11
-61.347811174164924
 21
-4.9750000100582668
 31
0.0
  0
LINE
  5
BF
100
AcDbEntity
  8
0
  6
CONTINUOUS
 62
               7
100
AcDbLine
 10
-66.847811162244
 20
-3.324999997019745
 30
0.0
 11
-66.847811162244
 21
-3.4250000208616029
 31
0.0
  0
LINE
  5
C0
100
AcDbEntity
  8
0
  6
CONTINUOUS
 62
               7
100
AcDbLine
 10
-66.647811162243997
 20
-3.3250000100582611
 30
0.0
 11
-64.547811162243988
 21
-2.8250000100582611
 31
0.0
  0
LINE
  5
C1
100
AcDbEntity
  8
0
  6
CONTINUOUS
 62
               7
100
AcDbLine
 10
-66.647811162243997
 20
-3.4277954059864726
 30
0.0
 11
-64.52464910951339
 21
-2.9222806315268031
 31
0.0
  0
LINE
  5
C2
100
AcDbEntity
  8
0
  6
CONTINUOUS
 62
               7
100
AcDbLine
 10
-64.547811162243988
 20
-2.8250000100582611
 30
0.0
 11
-64.52464910951339
 21
-2.9222806315268031
 31
0.0
  0
LINE
  5
C3
100
AcDbEntity
  8
0
  6
CONTINUOUS
 62
               7
100
AcDbLine
 10
-66.216070499345534
 20
-3.3250000100582611
 30
0.0
 11
-64.040631529333552
 21
-3.3250000100582611
 31
0.0
  0
LINE
  5
C4
100
AcDbEntity
  8
0
  6
CONTINUOUS
 62
               7
100
AcDbLine
 10
-66.847811174164917
 20
-3.4277954059864726
 30
0.0
 11
-66.647811162243997
 21
-3.4277954059864726
 31
0.0
  0
LINE
  5
C5
100
AcDbEntity
  8
0
  6
CONTINUOUS
 62
               7
100
AcDbLine
 10
-66.747811150323059
 20
-3.5250000100582781
 30
0.0
 11
-66.316070499345528
 21
-3.5250000100582781
 31
0.0
  0
ARC
  5
C6
100
AcDbEntity
  8
0
  6
CONTINUOUS
 62
               7
100
AcDbCircle
 10
-66.747811162244005
 20
-3.4250000100582838
 30
0.0
 40
0.1
100
AcDbArc
 50
179.99999999999963
 51
269.99999999999937
  0
LINE
  5
C7
100
AcDbEntity
  8
0
  6
CONTINUOUS
 62
               7
100
AcDbLine
 10
-66.216070499345534
 20
-3.324999997019745
 30
0.0
 11
-66.216070499345534
 21
-3.4250000208616029
 31
0.0
  0
ARC
  5
C8
100
AcDbEntity
  8
0
  6
CONTINUOUS
 62
               7
100
AcDbCircle
 10
-66.316070499345528
 20
-3.4250000100582838
 30
0.0
 40
0.1
100
AcDbArc
 50
269.99999999999937
 51
0.0
  0
LINE
  5
C9
100
AcDbEntity
  8
0
  6
CONTINUOUS
 62
               7
100
AcDbLine
 10
-65.716070499345534
 20
-3.324999997019745
 30
0.0
 11
-65.716070499345534
 21
-3.4250000208616029
 31
0.0
  0
LINE
  5
CA
100
AcDbEntity
  8
0
  6
CONTINUOUS
 62
               7
100
AcDbLine
 10
-63.347811162243993
 20
-3.324999997019745
 30
0.0
 11
-63.347811162243993
 21
-3.4250000208616029
 31
0.0
  0
LINE
  5
CB
100
AcDbEntity
  8
0
  6
CONTINUOUS
 62
               7
100
AcDbLine
 10
-65.616070490847733
 20
-3.5250000100582781
 30
0.0
 11
-63.44781116820446
 21
-3.5250000100582781
 31
0.0
  0
ARC
  5
CC
100
AcDbEntity
  8
0
  6
CONTINUOUS
 62
               7
100
AcDbCircle
 10
-63.447811162243994
 20
-3.4250000100582838
 30
0.0
 40
0.1
100
AcDbArc
 50
269.99999999999937
 51
0.0
  0
ARC
  5
CD
100
AcDbEntity
  8
0
  6
CONTINUOUS
 62
               7
100
AcDbCircle
 10
-65.61607049934554
 20
-3.4250000100582838
 30
0.0
 40
0.1
100
AcDbArc
 50
179.99999999999963
 51
269.99999999999937
  0
LINE
  5
CE
100
AcDbEntity
  8
0
  6
CONTINUOUS
 62
               7
100
AcDbLine
 10
-63.347811162243993
 20
-3.3250000100582611
 30
0.0
 11
-57.547811162243995
 21
-3.3250000100582611
 31
0.0
  0
LINE
  5
CF
100
AcDbEntity
  8
0
  6
CONTINUOUS
 62
               7
100
AcDbLine
 10
-63.69422132946125
 20
-3.5249999999999773
 30
0.0
 11
-63.347811185368933
 21
-3.3250000100582611
 31
0.0
  0
LINE
  5
D0
100
AcDbEntity
  8
0
  6
CONTINUOUS
 62
               7
100
AcDbLine
 10
-64.040631544362213
 20
-3.324999997019745
 30
0.0
 11
-63.69422132946125
 21
-3.5250000298022997
 31
0.0
  0
LINE
  5
D1
100
AcDbEntity
  8
0
  6
CONTINUOUS
 62
               7
100
AcDbLine
 10
-64.067426484595444
 20
-3.4250000059604417
 30
0.0
 11
-63.894221347342643
 21
-3.5250000298022997
 31
0.0
  0
LINE
  5
D2
100
AcDbEntity
  8
0
  6
CONTINUOUS
 62
               7
100
AcDbLine
 10
-65.716070499345534
 20
-3.4250000100582838
 30
0.0
 11
-64.06742647079659
 21
-3.4250000100582838
 31
0.0
  0
LINE
  5
D3
100
AcDbEntity
  8
0
  6
CONTINUOUS
 62
               7
100
AcDbLine
 10
-66.847811174164917
 20
-4.7750000100582781
 30
0.0
 11
-66.196812258988814
 21
-4.7750000100582781
 31
0.0
  0
LINE
  5
D4
100
AcDbEntity
  8
0
  6
CONTINUOUS
 62
               7
100
AcDbLine
 10
-66.847811174164917
 20
-4.6750000100582838
 30
0.0
 11
-66.216070499345534
 21
-4.6750000100582838
 31
0.0
  0
LINE
  5
D5
100
AcDbEntity
  8
0
  6
CONTINUOUS
 62
               7
100
AcDbLine
 10
-66.216070499345534
 20
-4.6750000100582838
 30
0.0
 11
-65.716070499345534
 21
-4.4750000100582668
 31
0.0
  0
LINE
  5
D6
100
AcDbEntity
  8
0
  6
CONTINUOUS
 62
               7
100
AcDbLine
 10
-66.196812258988814
 20
-4.7750000100582781
 30
0.0
 11
-65.446812258988814
 21
-4.4750000100582668
 31
0.0
  0
LINE
  5
D7
100
AcDbEntity
  8
0
  6
CONTINUOUS
 62
               7
100
AcDbLine
 10
-63.6915881183021
 20
-4.9734797350150188
 30
0.0
 11
-63.347811162243993
 21
-4.7750000168936992
 31
0.0
  0
LINE
  5
D8
100
AcDbEntity
  8
0
  6
CONTINUOUS
 62
               7
100
AcDbLine
 10
-63.69422132946125
 20
-4.8720837920903932
 30
0.0
 11
-63.347811144362602
 21
-4.672083789110161
 31
0.0
  0
LINE
  5
D9
100
AcDbEntity
  8
0
  6
CONTINUOUS
 62
               7
100
AcDbLine
 10
-63.694221299658928
 20
-4.8720837873829055
 30
0.0
 11
-65.716070499345534
 21
-4.5827033062009548
 31
0.0
  0
LINE
  5
DA
100
AcDbEntity
  8
0
  6
CONTINUOUS
 62
               7
100
AcDbLine
 10
-63.6915881183021
 20
-4.9734797350150188
 30
0.0
 11
-65.9020659227306
 21
-4.6571014755549811
 31
0.0
  0
LINE
  5
DB
100
AcDbEntity
  8
0
  6
CONTINUOUS
 62
               7
100
AcDbLine
 10
-67.547811162243988
 20
-3.324999997019745
 30
0.0
 11
-67.547811162243988
 21
-3.6250000100582724
 31
0.0
  0
LINE
  5
DC
100
AcDbEntity
  8
0
  6
CONTINUOUS
 62
               7
100
AcDbLine
 10
-67.547811162243988
 20
-3.6250000100582724
 30
0.0
 11
-67.347811162244
 21
-3.6250000100582724
 31
0.0
  0
LINE
  5
DD
100
AcDbEntity
  8
0
  6
CONTINUOUS
 62
               7
100
AcDbLine
 10
-56.547811162243995
 20
-6.2375113457441103
 30
0.0
 11
-55.040827009412858
 21
-6.2375113457441103
 31
0.0
  0
LINE
  5
DE
100
AcDbEntity
  8
0
  6
CONTINUOUS
 62
               7
100
AcDbLine
 10
-57.547811192046318
 20
-6.525000009313203
 30
0.0
 11
-56.547811192046318
 21
-6.4375113468616973
 31
0.0
  0
LINE
  5
DF
100
AcDbEntity
  8
0
  6
CONTINUOUS
 62
               7
100
AcDbLine
 10
-57.547811192046318
 20
-6.3250000100582611
 30
0.0
 11
-56.547811192046318
 21
-6.2375113476067554
 31
0.0
  0
LINE
  5
E0
100
AcDbEntity
  8
0
  6
CONTINUOUS
 62
               7
100
AcDbLine
 10
-60.347811162243993
 20
-6.7259619027375948
 30
0.0
 11
-60.347811162243993
 21
-7.6750000208616029
 31
0.0
  0
LINE
  5
E1
100
AcDbEntity
  8
0
  6
CONTINUOUS
 62
               7
100
AcDbLine
 10
-57.547811162243995
 20
-6.5250000149011385
 30
0.0
 11
-57.547811162243995
 21
-7.6750000100582838
 31
0.0
  0
LINE
  5
E2
100
AcDbEntity
  8
0
  6
CONTINUOUS
 62
               7
100
AcDbLine
 10
-67.547811162243988
 20
-6.3250000100582611
 30
0.0
 11
-66.647811162243997
 21
-6.3250000100582611
 31
0.0
  0
LINE
  5
E3
100
AcDbEntity
  8
0
  6
CONTINUOUS
 62
               7
100
AcDbLine
 10
-60.783106428157005
 20
-6.6093248814344179
 30
0.0
 11
-60.347811203967247
 21
-6.7259618878364336
 31
0.0
  0
ARC
  5
E4
100
AcDbEntity
  8
0
  6
CONTINUOUS
 62
               7
100
AcDbCircle
 10
-60.847811162243993
 20
-6.8508063479031023
 30
0.0
 40
0.25
100
AcDbArc
 50
75.000006605880117
 51
179.99999999999963
  0
LINE
  5
E5
100
AcDbEntity
  8
0
  6
CONTINUOUS
 62
               7
100
AcDbLine
 10
-66.597811174164917
 20
-7.4750000100582668
 30
0.0
 11
-63.597811162243993
 21
-7.4750000100582668
 31
0.0
  0
LINE
  5
E6
100
AcDbEntity
  8
0
  6
CONTINUOUS
 62
               7
100
AcDbLine
 10
-66.847811162244
 20
-6.324999997019745
 30
0.0
 11
-66.847811162244
 21
-6.4250000208616029
 31
0.0
  0
LINE
  5
E7
100
AcDbEntity
  8
0
  6
CONTINUOUS
 62
               7
100
AcDbLine
 10
-66.647811162243997
 20
-6.3250000100582611
 30
0.0
 11
-64.547811162243988
 21
-5.8250000100582611
 31
0.0
  0
LINE
  5
E8
100
AcDbEntity
  8
0
  6
CONTINUOUS
 62
               7
100
AcDbLine
 10
-66.647811162243997
 20
-6.4277954059864726
 30
0.0
 11
-64.52464910951339
 21
-5.9222806315268031
 31
0.0
  0
LINE
  5
E9
100
AcDbEntity
  8
0
  6
CONTINUOUS
 62
               7
100
AcDbLine
 10
-64.547811162243988
 20
-5.8250000100582611
 30
0.0
 11
-64.52464910951339
 21
-5.9222806315268031
 31
0.0
  0
LINE
  5
EA
100
AcDbEntity
  8
0
  6
CONTINUOUS
 62
               7
100
AcDbLine
 10
-66.216070499345534
 20
-6.3250000100582611
 30
0.0
 11
-64.040631529333552
 21
-6.3250000100582611
 31
0.0
  0
LINE
  5
EB
100
AcDbEntity
  8
0
  6
CONTINUOUS
 62
               7
100
AcDbLine
 10
-66.847811174164917
 20
-6.4277954059864726
 30
0.0
 11
-66.647811162243997
 21
-6.4277954059864726
 31
0.0
  0
LINE
  5
EC
100
AcDbEntity
  8
0
  6
CONTINUOUS
 62
               7
100
AcDbLine
 10
-66.747811150323059
 20
-6.5250000100582781
 30
0.0
 11
-66.316070499345528
 21
-6.5250000100582781
 31
0.0
  0
ARC
  5
ED
100
AcDbEntity
  8
0
  6
CONTINUOUS
 62
               7
100
AcDbCircle
 10
-66.747811162244005
 20
-6.4250000100582838
 30
0.0
 40
0.1
100
AcDbArc
 50
179.99999999999963
 51
269.99999999999937
  0
LINE
  5
EE
100
AcDbEntity
  8
0
  6
CONTINUOUS
 62
               7
100
AcDbLine
 10
-66.216070499345534
 20
-6.324999997019745
 30
0.0
 11
-66.216070499345534
 21
-6.4250000208616029
 31
0.0
  0
ARC
  5
EF
100
AcDbEntity
  8
0
  6
CONTINUOUS
 62
               7
100
AcDbCircle
 10
-66.316070499345528
 20
-6.4250000100582838
 30
0.0
 40
0.1
100
AcDbArc
 50
269.99999999999937
 51
0.0
  0
LINE
  5
F0
100
AcDbEntity
  8
0
  6
CONTINUOUS
 62
               7
100
AcDbLine
 10
-65.716070499345534
 20
-6.324999997019745
 30
0.0
 11
-65.716070499345534
 21
-6.4250000208616029
 31
0.0
  0
LINE
  5
F1
100
AcDbEntity
  8
0
  6
CONTINUOUS
 62
               7
100
AcDbLine
 10
-63.347811162243993
 20
-6.324999997019745
 30
0.0
 11
-63.347811162243993
 21
-6.4250000208616029
 31
0.0
  0
LINE
  5
F2
100
AcDbEntity
  8
0
  6
CONTINUOUS
 62
               7
100
AcDbLine
 10
-65.616070490847733
 20
-6.5250000100582781
 30
0.0
 11
-63.44781116820446
 21
-6.5250000100582781
 31
0.0
  0
ARC
  5
F3
100
AcDbEntity
  8
0
  6
CONTINUOUS
 62
               7
100
AcDbCircle
 10
-63.447811162243994
 20
-6.4250000100582838
 30
0.0
 40
0.1
100
AcDbArc
 50
269.99999999999937
 51
0.0
  0
ARC
  5
F4
100
AcDbEntity
  8
0
  6
CONTINUOUS
 62
               7
100
AcDbCircle
 10
-65.61607049934554
 20
-6.4250000100582838
 30
0.0
 40
0.1
100
AcDbArc
 50
179.99999999999963
 51
269.99999999999937
  0
LINE
  5
F5
100
AcDbEntity
  8
0
  6
CONTINUOUS
 62
               7
100
AcDbLine
 10
-63.347811162243993
 20
-6.3250000100582611
 30
0.0
 11
-57.547811162243995
 21
-6.3250000100582611
 31
0.0
  0
LINE
  5
F6
100
AcDbEntity
  8
0
  6
CONTINUOUS
 62
               7
100
AcDbLine
 10
-63.69422132946125
 20
-6.5249999999999773
 30
0.0
 11
-63.347811185368933
 21
-6.3250000100582611
 31
0.0
  0
LINE
  5
F7
100
AcDbEntity
  8
0
  6
CONTINUOUS
 62
               7
100
AcDbLine
 10
-64.040631544362213
 20
-6.324999997019745
 30
0.0
 11
-63.69422132946125
 21
-6.5250000298022997
 31
0.0
  0
LINE
  5
F8
100
AcDbEntity
  8
0
  6
CONTINUOUS
 62
               7
100
AcDbLine
 10
-64.067426484595444
 20
-6.4250000059604417
 30
0.0
 11
-63.894221347342643
 21
-6.5250000298022997
 31
0.0
  0
LINE
  5
F9
100
AcDbEntity
  8
0
  6
CONTINUOUS
 62
               7
100
AcDbLine
 10
-65.716070499345534
 20
-6.4250000100582838
 30
0.0
 11
-64.06742647079659
 21
-6.4250000100582838
 31
0.0
  0
LINE
  5
FA
100
AcDbEntity
  8
0
  6
CONTINUOUS
 62
               7
100
AcDbLine
 10
-66.847811174164917
 20
-7.6750000100582838
 30
0.0
 11
-66.216070499345534
 21
-7.6750000100582838
 31
0.0
  0
LINE
  5
FB
100
AcDbEntity
  8
0
  6
CONTINUOUS
 62
               7
100
AcDbLine
 10
-66.216070499345534
 20
-7.6750000100582838
 30
0.0
 11
-65.716070499345534
 21
-7.4750000100582668
 31
0.0
  0
LINE
  5
FC
100
AcDbEntity
  8
0
  6
CONTINUOUS
 62
               7
100
AcDbLine
 10
-67.547811162243988
 20
-6.324999997019745
 30
0.0
 11
-67.547811162243988
 21
-6.6250000100582724
 31
0.0
  0
LINE
  5
FD
100
AcDbEntity
  8
0
  6
CONTINUOUS
 62
               7
100
AcDbLine
 10
-67.547811162243988
 20
-6.6250000100582724
 30
0.0
 11
-67.347811162244
 21
-6.6250000100582724
 31
0.0
  0
LINE
  5
FE
100
AcDbEntity
  8
0
  6
CONTINUOUS
 62
               7
100
AcDbLine
 10
-56.50896219468158
 20
-7.5499999999999829
 30
0.0
 11
-57.547811162243995
 21
-7.5499999999999829
 31
0.0
  0
LINE
  5
FF
100
AcDbEntity
  8
0
  6
CONTINUOUS
 62
               7
100
AcDbLine
 10
-56.536898802280838
 20
-6.75
 30
0.0
 11
-57.547811162243995
 21
-6.75
 31
0.0
  0
LINE
  5
100
100
AcDbEntity
  8
0
  6
CONTINUOUS
 62
               7
100
AcDbLine
 10
-60.347811172962601
 20
-7.5499999999999829
 30
0.0
 11
-61.097811162243993
 21
-7.5499999999999829
 31
0.0
  0
LINE
  5
101
100
AcDbEntity
  8
0
  6
CONTINUOUS
 62
               7
100
AcDbLine
 10
-60.347811172962601
 20
-6.75
 30
0.0
 11
-61.097811162243993
 21
-6.75
 31
0.0
  0
LINE
  5
102
100
AcDbEntity
  8
0
  6
CONTINUOUS
 62
               7
100
AcDbLine
 10
-60.347811172962601
 20
-3.75
 30
0.0
 11
-61.097811162243993
 21
-3.75
 31
0.0
  0
LINE
  5
103
100
AcDbEntity
  8
0
  6
CONTINUOUS
 62
               7
100
AcDbLine
 10
-60.347811172962601
 20
-4.5499999999999829
 30
0.0
 11
-61.097811162243993
 21
-4.5499999999999829
 31
0.0
  0
LINE
  5
104
100
AcDbEntity
  8
0
  6
CONTINUOUS
 62
               7
100
AcDbLine
 10
-56.50896219468158
 20
-4.5499999999999829
 30
0.0
 11
-57.547811162243995
 21
-4.5499999999999829
 31
0.0
  0
LINE
  5
105
100
AcDbEntity
  8
0
  6
CONTINUOUS
 62
               7
100
AcDbLine
 10
-56.536898802280838
 20
-3.75
 30
0.0
 11
-57.547811162243995
 21
-3.75
 31
0.0
  0
LINE
  5
106
100
AcDbEntity
  8
0
  6
CONTINUOUS
 62
               7
100
AcDbLine
 10
-60.347811172962601
 20
-0.7499999999999716
 30
0.0
 11
-61.097811162243993
 21
-0.7499999999999716
 31
0.0
  0
LINE
  5
107
100
AcDbEntity
  8
0
  6
CONTINUOUS
 62
               7
100
AcDbLine
 10
-60.347811172962601
 20
-1.5499999999999829
 30
0.0
 11
-61.097811162243993
 21
-1.5499999999999829
 31
0.0
  0
LINE
  5
108
100
AcDbEntity
  8
0
  6
CONTINUOUS
 62
               7
100
AcDbLine
 10
-56.50896219468158
 20
-1.5499999999999829
 30
0.0
 11
-57.547811162243995
 21
-1.5499999999999829
 31
0.0
  0
LINE
  5
109
100
AcDbEntity
  8
0
  6
CONTINUOUS
 62
               7
100
AcDbLine
 10
-56.536898802280838
 20
-0.7499999999999716
 30
0.0
 11
-57.547811162243995
 21
-0.7499999999999716
 31
0.0
  0
LINE
  5
10A
100
AcDbEntity
  8
0
  6
CONTINUOUS
 62
               7
100
AcDbLine
 10
-42.949847371021249
 20
-5.4000000000000057
 30
0.0
 11
-42.949847371021249
 21
-2.7999999999999829
 31
0.0
  0
LINE
  5
10B
100
AcDbEntity
  8
0
  6
CONTINUOUS
 62
               7
100
AcDbLine
 10
-41.412282921228936
 20
-2.7999999999999829
 30
0.0
 11
-42.949847371021249
 21
-2.7999999999999829
 31
0.0
  0
LINE
  5
10D
100
AcDbEntity
  8
0
  6
PHANTOM
 62
               2
100
AcDbLine
 10
-38.641001660197851
 20
-5.9999999756233251
 30
0.0
 11
-40.834932688444731
 21
-2.1999999637023961
 31
0.0
  0
LINE
  5
10E
100
AcDbEntity
  8
0
  6
CONTINUOUS
 62
               7
100
AcDbLine
 10
-37.449847371021249
 20
-5.4000000000000057
 30
0.0
 11
-38.987411822113536
 21
-5.4000000000000057
 31
0.0
  0
LINE
  5
10F
100
AcDbEntity
  8
0
  6
CONTINUOUS
 62
               7
100
AcDbLine
 10
-37.449847371021249
 20
-2.7999999999999829
 30
0.0
 11
-40.488522522006562
 21
-2.7999999999999829
 31
0.0
  0
LINE
  5
110
100
AcDbEntity
  8
0
  6
CONTINUOUS
 62
               7
100
AcDbLine
 10
-39.91117222133591
 20
-5.4000000000000057
 30
0.0
 11
-42.949847371021249
 21
-5.4000000000000057
 31
0.0
  0
LINE
  5
111
100
AcDbEntity
  8
0
  6
PHANTOM
 62
               2
100
AcDbLine
 10
-39.564762059420225
 20
-6.0000000054256475
 30
0.0
 11
-41.758693102568266
 21
-2.1999999637023961
 31
0.0
  0
LINE
  5
112
100
AcDbEntity
  8
0
  6
PHANTOM
 62
               2
100
AcDbLine
 10
-44.458714840262211
 20
-5.6499999994651944
 30
0.0
 11
-46.190765646546161
 21
-2.6499999994651944
 31
0.0
  0
ARC
  5
113
100
AcDbEntity
  8
0
  6
CONTINUOUS
 62
               7
100
AcDbCircle
 10
-45.221854559739917
 20
-1.2999999999999829
 30
0.0
 40
2.0
100
AcDbArc
 50
239.99999999999943
 51
250.79511110182787
  0
ARC
  5
114
100
AcDbEntity
  8
0
  6
CONTINUOUS
 62
               7
100
AcDbCircle
 10
-45.436213913684817
 20
-2.0999999999999943
 30
0.0
 40
2.0
100
AcDbArc
 50
239.99999999999946
 51
269.99999999999937
  0
ARC
  5
115
100
AcDbEntity
  8
0
  6
CONTINUOUS
 62
               7
100
AcDbCircle
 10
-45.436213913684817
 20
-6.1999999999999886
 30
0.0
 40
2.0
100
AcDbArc
 50
89.999999999999815
 51
119.99999999999973
  0
ARC
  5
116
100
AcDbEntity
  8
0
  6
CONTINUOUS
 62
               7
100
AcDbCircle
 10
-45.221854559739917
 20
-7.0
 30
0.0
 40
2.0
100
AcDbArc
 50
89.999999999999815
 51
119.99999999999973
  0
LINE
  5
117
100
AcDbEntity
  8
0
  6
CONTINUOUS
 62
               7
100
AcDbLine
 10
-55.058723507632322
 20
-3.75
 30
0.0
 11
-46.578330081196171
 21
-3.75
 31
0.0
  0
LINE
  5
118
100
AcDbEntity
  8
0
  6
CONTINUOUS
 62
               7
100
AcDbLine
 10
-55.058723507632322
 20
-4.5499999999999829
 30
0.0
 11
-46.578330081196164
 21
-4.5499999999999829
 31
0.0
  0
LINE
  5
119
100
AcDbEntity
  8
0
  6
CONTINUOUS
 62
               7
100
AcDbLine
 10
-45.353607756533485
 20
-4.0999999999999943
 30
0.0
 11
-45.436213913684817
 21
-4.0999999999999943
 31
0.0
  0
LINE
  5
11A
100
AcDbEntity
  8
0
  6
CONTINUOUS
 62
               7
100
AcDbLine
 10
-45.295872729657354
 20
-4.1999999999999886
 30
0.0
 11
-45.436213913684817
 21
-4.1999999999999886
 31
0.0
  0
LINE
  5
11B
100
AcDbEntity
  8
0
  6
CONTINUOUS
 62
               7
100
AcDbLine
 10
-44.833992514648301
 20
-5.0
 30
0.0
 11
-45.221854559739917
 21
-5.0
 31
0.0
  0
LINE
  5
11C
100
AcDbEntity
  8
0
  6
CONTINUOUS
 62
               7
100
AcDbLine
 10
-55.058723507632322
 20
-1.5499999999999829
 30
0.0
 11
-51.728587820003312
 21
-1.5499999999999829
 31
0.0
  0
LINE
  5
11D
100
AcDbEntity
  8
0
  6
CONTINUOUS
 62
               7
100
AcDbLine
 10
-55.058723507632322
 20
-0.75
 30
0.0
 11
-51.514228466058412
 21
-0.75
 31
0.0
  0
LINE
  5
11E
100
AcDbEntity
  8
0
  6
CONTINUOUS
 62
               7
100
AcDbLine
 10
-55.058723507632322
 20
-7.5499999999999829
 30
0.0
 11
-51.514228466058412
 21
-7.5499999999999829
 31
0.0
  0
LINE
  5
11F
100
AcDbEntity
  8
0
  6
CONTINUOUS
 62
               7
100
AcDbLine
 10
-55.058723507632322
 20
-6.75
 30
0.0
 11
-51.728587820003312
 21
-6.75
 31
0.0
  0
LINE
  5
120
100
AcDbEntity
  8
0
  6
CONTINUOUS
 62
               7
100
AcDbLine
 10
-46.221854559739917
 20
-3.0320508075688792
 30
0.0
 11
-49.014228466058412
 21
-1.4198729810777877
 31
0.0
  0
LINE
  5
121
100
AcDbEntity
  8
0
  6
CONTINUOUS
 62
               7
100
AcDbLine
 10
-46.436213913684817
 20
-3.8320508075688622
 30
0.0
 11
-49.228587820003312
 21
-2.2198729810777991
 31
0.0
  0
LINE
  5
122
100
AcDbEntity
  8
0
  6
CONTINUOUS
 62
               7
100
AcDbLine
 10
-46.221854559739917
 20
-5.2679491924311037
 30
0.0
 11
-49.014228466058412
 21
-6.8801270189221952
 31
0.0
  0
LINE
  5
123
100
AcDbEntity
  8
0
  6
CONTINUOUS
 62
               7
100
AcDbLine
 10
-46.436213913684817
 20
-4.4679491924311208
 30
0.0
 11
-49.228587820003312
 21
-6.0801270189221839
 31
0.0
  0
ARC
  5
124
100
AcDbEntity
  8
0
  6
CONTINUOUS
 62
               7
100
AcDbCircle
 10
-51.728587820003312
 20
-6.5499999999999829
 30
0.0
 40
5.0
100
AcDbArc
 50
59.999999999999858
 51
89.999999999999815
  0
ARC
  5
125
100
AcDbEntity
  8
0
  6
CONTINUOUS
 62
               7
100
AcDbCircle
 10
-51.514228466058412
 20
-5.75
 30
0.0
 40
5.0
100
AcDbArc
 50
59.999999999999858
 51
89.999999999999815
  0
ARC
  5
126
100
AcDbEntity
  8
0
  6
CONTINUOUS
 62
               7
100
AcDbCircle
 10
-51.728587820003312
 20
-1.75
 30
0.0
 40
5.0
100
AcDbArc
 50
269.99999999999937
 51
299.99999999999932
  0
ARC
  5
127
100
AcDbEntity
  8
0
  6
CONTINUOUS
 62
               7
100
AcDbCircle
 10
-51.514228466058412
 20
-2.5499999999999829
 30
0.0
 40
5.0
100
AcDbArc
 50
269.99999999999937
 51
299.99999999999932
  0
LINE
  5
128
100
AcDbEntity
  8
0
  6
CONTINUOUS
 62
               7
100
AcDbLine
 10
-42.949847371021249
 20
-3.1999999999999886
 30
0.0
 11
-44.949847371021242
 21
-3.1999999999999886
 31
0.0
  0
LINE
  5
129
100
AcDbEntity
  8
0
  6
CONTINUOUS
 62
               7
100
AcDbLine
 10
-42.949847371021249
 20
-4.0999999999999943
 30
0.0
 11
-44.429847371021246
 21
-4.0999999999999943
 31
0.0
  0
LINE
  5
12A
100
AcDbEntity
  8
0
  6
CONTINUOUS
 62
               7
100
AcDbLine
 10
-42.949847371021249
 20
-5.0
 30
0.0
 11
-43.90984737102125
 21
-5.0
 31
0.0
  0
LINE
  5
12B
100
AcDbEntity
  8
0
  6
PHANTOM
 62
               2
100
AcDbLine
 10
-43.621941763728735
 20
-5.599999999465183
 30
0.0
 11
-45.353992584913847
 21
-2.5999999696628606
 31
0.0
  0
LINE
  5
12C
100
AcDbEntity
  8
0
  6
CONTINUOUS
 62
               7
100
AcDbLine
 10
-32.949847371021249
 20
-5.8499999999999943
 30
0.0
 11
-31.949847371021249
 21
-5.8499999999999943
 31
0.0
  0
LINE
  5
12D
100
AcDbEntity
  8
0
  6
CONTINUOUS
 62
               7
100
AcDbLine
 10
-32.949847371021249
 20
-2.3499999999999943
 30
0.0
 11
-31.949847371021249
 21
-2.3499999999999943
 31
0.0
  0
LINE
  5
12E
100
AcDbEntity
  8
0
  6
CONTINUOUS
 62
               7
100
AcDbLine
 10
-35.449847371021249
 20
-5.8499999999999943
 30
0.0
 11
-34.449847371021249
 21
-5.8499999999999943
 31
0.0
  0
LINE
  5
12F
100
AcDbEntity
  8
0
  6
CONTINUOUS
 62
               7
100
AcDbLine
 10
-35.449847371021249
 20
-2.3499999999999943
 30
0.0
 11
-34.449847371021249
 21
-2.3499999999999943
 31
0.0
  0
LINE
  5
130
100
AcDbEntity
  8
0
  6
CONTINUOUS
 62
               7
100
AcDbLine
 10
-34.449847371021249
 20
-6.5285714285714107
 30
0.0
 11
-32.949847371021249
 21
-6.7428571428571331
 31
0.0
  0
LINE
  5
131
100
AcDbEntity
  8
0
  6
CONTINUOUS
 62
               7
100
AcDbLine
 10
-34.449847371021249
 20
-1.6714285714285495
 30
0.0
 11
-32.949847371021249
 21
-1.4571428571428555
 31
0.0
  0
LINE
  5
132
100
AcDbEntity
  8
0
  6
CONTINUOUS
 62
               7
100
AcDbLine
 10
-31.949847371021249
 20
-6.8857142857142719
 30
0.0
 11
-31.949847371021249
 21
-1.3142857142857167
 31
0.0
  0
LINE
  5
133
100
AcDbEntity
  8
0
  6
CONTINUOUS
 62
               7
100
AcDbLine
 10
-32.949847371021249
 20
-6.7428571428571331
 30
0.0
 11
-32.949847371021249
 21
-1.4571428571428555
 31
0.0
  0
LINE
  5
134
100
AcDbEntity
  8
0
  6
CONTINUOUS
 62
               7
100
AcDbLine
 10
-34.449847371021249
 20
-6.5285714285714107
 30
0.0
 11
-34.449847371021249
 21
-1.6714285714285495
 31
0.0
  0
LINE
  5
135
100
AcDbEntity
  8
0
  6
CONTINUOUS
 62
               7
100
AcDbLine
 10
-35.449847371021249
 20
-6.3857142857142719
 30
0.0
 11
-35.449847371021249
 21
-1.8142857142857167
 31
0.0
  0
LINE
  5
136
100
AcDbEntity
  8
0
  6
CONTINUOUS
 62
               7
100
AcDbLine
 10
-37.449847371021249
 20
-6.0999999999999943
 30
0.0
 11
-35.449847371021249
 21
-6.3857142857142719
 31
0.0
  0
LINE
  5
137
100
AcDbEntity
  8
0
  6
CONTINUOUS
 62
               7
100
AcDbLine
 10
-37.449847371021249
 20
-2.0999999999999943
 30
0.0
 11
-35.449847371021249
 21
-1.8142857142857167
 31
0.0
  0
LINE
  5
138
100
AcDbEntity
  8
0
  6
CONTINUOUS
 62
               7
100
AcDbLine
 10
-37.449847371021249
 20
-6.0999999999999943
 30
0.0
 11
-37.449847371021249
 21
-2.0999999999999943
 31
0.0
  0
LINE
  5
139
100
AcDbEntity
  8
0
  6
CONTINUOUS
 62
               7
100
AcDbLine
 10
-55.10150144313122
 20
-7.9750000100582668
 30
0.0
 11
-56.494120865984783
 21
-7.9750000100582668
 31
0.0
  0
LINE
  5
13A
100
AcDbEntity
  8
0
  6
CONTINUOUS
 62
               7
100
AcDbLine
 10
-55.797811162243995
 20
-7.7365493863820802
 30
0.0
 11
-55.935480691378658
 21
-7.9750000100582668
 31
0.0
  0
LINE
  5
13B
100
AcDbEntity
  8
0
  6
CONTINUOUS
 62
               7
100
AcDbLine
 10
-60.097811174164924
 20
-7.9250000100582838
 30
0.0
 11
-57.797811162243995
 21
-7.9250000100582838
 31
0.0
  0
LINE
  5
13C
100
AcDbEntity
  8
0
  6
CONTINUOUS
 62
               7
100
AcDbLine
 10
-67.347811174164917
 20
-7.9750000100582668
 30
0.0
 11
-66.847811174164917
 21
-7.9750000100582668
 31
0.0
  0
ARC
  5
13D
100
AcDbEntity
  8
0
  6
CONTINUOUS
 62
               7
100
AcDbCircle
 10
-61.347811162243993
 20
-7.7250000100582668
 30
0.0
 40
0.25
100
AcDbArc
 50
269.99999999999937
 51
0.0
  0
LINE
  5
13E
100
AcDbEntity
  8
0
  6
CONTINUOUS
 62
               7
100
AcDbLine
 10
-63.347811162243993
 20
-7.7250000029802095
 30
0.0
 11
-63.347811162243993
 21
-7.9750000100582668
 31
0.0
  0
LINE
  5
13F
100
AcDbEntity
  8
0
  6
CONTINUOUS
 62
               7
100
AcDbLine
 10
-66.847811162244
 20
-7.7250000029802095
 30
0.0
 11
-66.847811162244
 21
-7.9750000100582668
 31
0.0
  0
LINE
  5
140
100
AcDbEntity
  8
0
  6
CONTINUOUS
 62
               7
100
AcDbLine
 10
-63.347811162243993
 20
-7.9750000100582668
 30
0.0
 11
-61.347811174164924
 21
-7.9750000100582668
 31
0.0
  0
LINE
  5
141
100
AcDbEntity
  8
0
  6
CONTINUOUS
 62
               7
100
AcDbLine
 10
-66.847811174164917
 20
-7.7750000100582781
 30
0.0
 11
-66.196812258988814
 21
-7.7750000100582781
 31
0.0
  0
LINE
  5
142
100
AcDbEntity
  8
0
  6
CONTINUOUS
 62
               7
100
AcDbLine
 10
-63.6915881183021
 20
-7.9734797350150188
 30
0.0
 11
-63.347811162243993
 21
-7.7750000168936992
 31
0.0
  0
LINE
  5
143
100
AcDbEntity
  8
0
  6
CENTER
 62
               2
100
AcDbLine
 10
-28.79999998814808
 20
-4.0999999999999943
 30
0.0
 11
-42.949847371021249
 21
-4.0999999999999943
 31
0.0
  0
LINE
  5
144
100
AcDbEntity
  8
0
  6
CONTINUOUS
 62
               7
100
AcDbLine
 10
-31.949847371021249
 20
-1.3142857142857167
 30
0.0
 11
-30.449847371021249
 21
-1.0999999999999943
 31
0.0
  0
LINE
  5
145
100
AcDbEntity
  8
0
  6
CONTINUOUS
 62
               7
100
AcDbLine
 10
-31.949847371021249
 20
-6.8857142857142719
 30
0.0
 11
-30.449847371021249
 21
-7.0999999999999943
 31
0.0
  0
LINE
  5
146
100
AcDbEntity
  8
0
  6
CONTINUOUS
 62
               7
100
AcDbLine
 10
-29.182320272248575
 20
-0.587331540840097
 30
0.0
 11
-29.504363255897275
 21
-0.5916701894637697
 31
0.0
  0
ARC
  5
147
100
AcDbEntity
  8
0
  6
CONTINUOUS
 62
               7
100
AcDbCircle
 10
-28.899999988148089
 20
-1.0
 30
0.0
 40
0.5
100
AcDbArc
 50
89.999999999999815
 51
179.99999999999963
  0
ARC
  5
148
100
AcDbEntity
  8
0
  6
CONTINUOUS
 62
               7
100
AcDbCircle
 10
-28.899999988148089
 20
-3.0
 30
0.0
 40
0.5
100
AcDbArc
 50
179.99999999999963
 51
269.99999999999937
  0
LINE
  5
149
100
AcDbEntity
  8
0
  6
CONTINUOUS
 62
               7
100
AcDbLine
 10
-28.799999988148087
 20
-3.5
 30
0.0
 11
-28.899999988148089
 21
-3.5
 31
0.0
  0
LINE
  5
14A
100
AcDbEntity
  8
0
  6
CONTINUOUS
 62
               7
100
AcDbLine
 10
-28.799999988148087
 20
-0.5
 30
0.0
 11
-28.899999988148089
 21
-0.5
 31
0.0
  0
LINE
  5
14B
100
AcDbEntity
  8
0
  6
CONTINUOUS
 62
               7
100
AcDbLine
 10
-29.399999988148089
 20
-3.0
 30
0.0
 11
-29.399999988148082
 21
-1.0000000000000284
 31
0.0
  0
LINE
  5
14C
100
AcDbEntity
  8
0
  6
CONTINUOUS
 62
               7
100
AcDbLine
 10
30.0
 20
-16.799999999999983
 30
0.0
 11
-30.0
 21
-16.800000000000011
 31
0.0
  0
LINE
  5
14D
100
AcDbEntity
  8
0
  6
CONTINUOUS
 62
               7
100
AcDbLine
 10
-29.799999999999997
 20
-17.0
 30
0.0
 11
-30.0
 21
-16.800000000000011
 31
0.0
  0
LINE
  5
14E
100
AcDbEntity
  8
0
  6
CONTINUOUS
 62
               7
100
AcDbLine
 10
30.0
 20
-16.799999999999983
 30
0.0
 11
29.799999999999997
 21
-17.0
 31
0.0
  0
LINE
  5
14F
100
AcDbEntity
  8
0
  6
CONTINUOUS
 62
               4
100
AcDbLine
 10
-10.350000010314414
 20
-18.0
 30
0.0
 11
-16.350000010314414
 21
-18.0
 31
0.0
  0
LINE
  5
150
100
AcDbEntity
  8
0
  6
CONTINUOUS
 62
               4
100
AcDbLine
 10
-10.350000010314414
 20
-17.0
 30
0.0
 11
-10.350000010314414
 21
-18.0
 31
0.0
  0
LINE
  5
151
100
AcDbEntity
  8
0
  6
CONTINUOUS
 62
               4
100
AcDbLine
 10
-16.350000010314414
 20
-17.0
 30
0.0
 11
-16.350000010314414
 21
-18.0
 31
0.0
  0
LINE
  5
152
100
AcDbEntity
  8
0
  6
CENTER
 62
             200
100
AcDbLine
 10
-13.350000009606578
 20
-13.999999997392564
 30
0.0
 11
-13.350000009606578
 21
-20.0
 31
0.0
  0
LINE
  5
153
100
AcDbEntity
  8
0
  6
CONTINUOUS
 62
               4
100
AcDbLine
 10
29.699999796049294
 20
-18.0
 30
0.0
 11
23.699999796049294
 21
-18.0
 31
0.0
  0
LINE
  5
154
100
AcDbEntity
  8
0
  6
CONTINUOUS
 62
               4
100
AcDbLine
 10
29.699999796049294
 20
-17.0
 30
0.0
 11
29.699999796049294
 21
-18.0
 31
0.0
  0
LINE
  5
155
100
AcDbEntity
  8
0
  6
CONTINUOUS
 62
               4
100
AcDbLine
 10
23.699999796049294
 20
-17.0
 30
0.0
 11
23.699999796049294
 21
-18.0
 31
0.0
  0
LINE
  5
156
100
AcDbEntity
  8
0
  6
CENTER
 62
             200
100
AcDbLine
 10
26.69999979675713
 20
-13.999999997392564
 30
0.0
 11
26.69999979675713
 21
-20.0
 31
0.0
  0
LINE
  5
157
100
AcDbEntity
  8
0
  6
CONTINUOUS
 62
               7
100
AcDbLine
 10
-19.000000000000007
 20
-11.0
 30
0.0
 11
-30.000000000000007
 21
-11.0
 31
0.0
  0
LINE
  5
158
100
AcDbEntity
  8
0
  6
CENTER
 62
               2
100
AcDbLine
 10
-17.855588207395279
 20
-5.5
 30
0.0
 11
-31.436533219128911
 21
-5.5
 31
0.0
  0
LINE
  5
159
100
AcDbEntity
  8
0
  6
CONTINUOUS
 62
               7
100
AcDbLine
 10
-22.699999988148079
 20
-10.500000001673442
 30
0.0
 11
-19.000000000000007
 21
-10.467710590951043
 31
0.0
  0
LINE
  5
15A
100
AcDbEntity
  8
0
  6
CONTINUOUS
 62
               7
100
AcDbLine
 10
-22.699999988148079
 20
-0.5
 30
0.0
 11
-19.000000000000007
 21
-0.5322894107223704
 31
0.0
  0
LINE
  5
15B
100
AcDbEntity
  8
0
  6
CONTINUOUS
 62
               7
100
AcDbLine
 10
-22.699999988148079
 20
-10.500000001673442
 30
0.0
 11
-22.699999988148079
 21
-0.5
 31
0.0
  0
LINE
  5
15C
100
AcDbEntity
  8
0
  6
CONTINUOUS
 62
               7
100
AcDbLine
 10
-29.999999988148076
 20
-9.9083488506775836
 30
0.0
 11
-29.999999988148076
 21
-1.0916511509958298
 31
0.0
  0
LINE
  5
15D
100
AcDbEntity
  8
0
  6
CONTINUOUS
 62
               7
100
AcDbLine
 10
-28.79999998814808
 20
-3.5999999999999943
 30
0.0
 11
-29.999999988148076
 21
-3.5999999999999943
 31
0.0
  0
LINE
  5
15E
100
AcDbEntity
  8
0
  6
CONTINUOUS
 62
               7
100
AcDbLine
 10
-28.79999998814808
 20
-3.5999999999999943
 30
0.0
 11
-28.79999998814808
 21
-0.5
 31
0.0
  0
LINE
  5
15F
100
AcDbEntity
  8
0
  6
CENTER
 62
               2
100
AcDbLine
 10
-28.195856974999181
 20
-2.0
 30
0.0
 11
-30.399999988148082
 21
-2.0000000000000284
 31
0.0
  0
LINE
  5
160
100
AcDbEntity
  8
0
  6
CONTINUOUS
 62
               7
100
AcDbLine
 10
-22.699999988148079
 20
-10.500000001673442
 30
0.0
 11
-29.504363255897275
 21
-10.408329812209672
 31
0.0
  0
LINE
  5
161
100
AcDbEntity
  8
0
  6
CONTINUOUS
 62
               7
100
AcDbLine
 10
-22.699999988148079
 20
-0.5
 30
0.0
 11
-28.79999998814808
 21
-0.5821808204125887
 31
0.0
  0
ARC
  5
162
100
AcDbEntity
  8
0
  6
CONTINUOUS
 62
               7
100
AcDbCircle
 10
-29.499999988148076
 20
-1.0916511509958298
 30
0.0
 40
0.5
100
AcDbArc
 50
90.500000000000071
 51
179.99999999999963
  0
ARC
  5
163
100
AcDbEntity
  8
0
  6
CONTINUOUS
 62
               7
100
AcDbCircle
 10
-29.499999988148076
 20
-9.9083488506775836
 30
0.0
 40
0.5
100
AcDbArc
 50
179.99999999999963
 51
269.49999999999915
  0
LINE
  5
164
100
AcDbEntity
  8
0
  6
CONTINUOUS
 62
               7
100
AcDbLine
 10
-19.000000000000007
 20
-0.0000000110763096
 30
0.0
 11
-19.000000000000007
 21
-11.00000001107631
 31
0.0
  0
LINE
  5
165
100
AcDbEntity
  8
0
  6
CONTINUOUS
 62
               7
100
AcDbLine
 10
30.0
 20
-1.0
 30
0.0
 11
-19.000000000000007
 21
-1.0
 31
0.0
  0
LINE
  5
166
100
AcDbEntity
  8
0
  6
CONTINUOUS
 62
               7
100
AcDbLine
 10
-30.0
 20
-11.0
 30
0.0
 11
-30.0
 21
-16.800000000000011
 31
0.0
  0
LINE
  5
167
100
AcDbEntity
  8
0
  6
CONTINUOUS
 62
               7
100
AcDbLine
 10
29.0
 20
0.0
 30
0.0
 11
-19.000000000000007
 21
0.0
 31
0.0
  0
ARC
  5
168
100
AcDbEntity
  8
0
  6
CONTINUOUS
 62
               7
100
AcDbCircle
 10
21.213203435596412
 20
-7.0
 30
0.0
 40
4.0
100
AcDbArc
 50
301.26477035796779
 51
358.7352296420309
  0
ARC
  5
169
100
AcDbEntity
  8
0
  6
CONTINUOUS
 62
               7
100
AcDbCircle
 10
21.213203435596412
 20
-7.0
 30
0.0
 40
4.0
100
AcDbArc
 50
241.2647703579683
 51
298.73522964203056
  0
ARC
  5
16A
100
AcDbEntity
  8
0
  6
CONTINUOUS
 62
               7
100
AcDbCircle
 10
21.213203435596412
 20
-7.0
 30
0.0
 40
4.0
100
AcDbArc
 50
181.26477035796773
 51
238.73522964203116
  0
ARC
  5
16B
100
AcDbEntity
  8
0
  6
CONTINUOUS
 62
               7
100
AcDbCircle
 10
21.213203435596412
 20
-7.0
 30
0.0
 40
4.0
100
AcDbArc
 50
121.26477035796792
 51
178.73522964203138
  0
ARC
  5
16C
100
AcDbEntity
  8
0
  6
CONTINUOUS
 62
               7
100
AcDbCircle
 10
21.213203435596412
 20
-7.0
 30
0.0
 40
4.0
100
AcDbArc
 50
61.264770357968032
 51
118.73522964203177
  0
ARC
  5
16D
100
AcDbEntity
  8
0
  6
CONTINUOUS
 62
               7
100
AcDbCircle
 10
21.213203435596412
 20
-7.0
 30
0.0
 40
4.0
100
AcDbArc
 50
1.2647703579682756
 51
58.735229642031562
  0
LINE
  5
16E
100
AcDbEntity
  8
0
  6
CENTER
 62
               2
100
AcDbLine
 10
0.0
 20
2.0
 30
0.0
 11
0.0
 21
-19.0
 31
0.0
  0
ARC
  5
16F
100
AcDbEntity
  8
0
  6
CONTINUOUS
 62
               7
100
AcDbCircle
 10
21.213203435596412
 20
-7.0
 30
0.0
 40
3.5074028853269792
100
AcDbArc
 50
99.849847730174503
 51
260.15015226982462
  0
ARC
  5
170
100
AcDbEntity
  8
0
  6
CONTINUOUS
 62
               7
100
AcDbCircle
 10
21.213203435596412
 20
-7.0
 30
0.0
 40
3.5074028853269792
100
AcDbArc
 50
279.84984773017413
 51
80.150152269825071
  0
LINE
  5
171
100
AcDbEntity
  8
0
  6
CONTINUOUS
 62
               7
100
AcDbLine
 10
20.613203435596411
 20
-3.4925971146730319
 30
0.0
 11
20.613203435596411
 21
-10.507402885326997
 31
0.0
  0
LINE
  5
172
100
AcDbEntity
  8
0
  6
CONTINUOUS
 62
               7
100
AcDbLine
 10
21.813203435596414
 20
-3.4925971146730319
 30
0.0
 11
21.813203435596414
 21
-10.507402885326997
 31
0.0
  0
LINE
  5
173
100
AcDbEntity
  8
0
  6
CONTINUOUS
 62
               7
100
AcDbLine
 10
23.238203435596418
 20
-3.4925971146730319
 30
0.0
 11
19.188203435596407
 21
-3.4925971146730319
 31
0.0
  0
LINE
  5
174
100
AcDbEntity
  8
0
  6
CONTINUOUS
 62
               7
100
AcDbLine
 10
25.263203435596417
 20
-7.0
 30
0.0
 11
23.238203435596418
 21
-3.4925971146730319
 31
0.0
  0
LINE
  5
175
100
AcDbEntity
  8
0
  6
CONTINUOUS
 62
               7
100
AcDbLine
 10
23.238203435596411
 20
-10.507402885326997
 30
0.0
 11
25.263203435596417
 21
-7.0
 31
0.0
  0
LINE
  5
176
100
AcDbEntity
  8
0
  6
CONTINUOUS
 62
               7
100
AcDbLine
 10
19.188203435596421
 20
-10.507402885326997
 30
0.0
 11
23.238203435596411
 21
-10.507402885326997
 31
0.0
  0
LINE
  5
177
100
AcDbEntity
  8
0
  6
CONTINUOUS
 62
               7
100
AcDbLine
 10
17.163203435596415
 20
-7.0
 30
0.0
 11
19.188203435596421
 21
-10.507402885326997
 31
0.0
  0
LINE
  5
178
100
AcDbEntity
  8
0
  6
CONTINUOUS
 62
               7
100
AcDbLine
 10
19.188203435596407
 20
-3.4925971146730319
 30
0.0
 11
17.163203435596415
 21
-7.0
 31
0.0
  0
CIRCLE
  5
179
100
AcDbEntity
  8
0
  6
CONTINUOUS
 62
               7
100
AcDbCircle
 10
21.213203435596412
 20
-7.0
 30
0.0
 40
4.75
  0
LINE
  5
17A
100
AcDbEntity
  8
0
  6
CENTER
 62
               2
100
AcDbLine
 10
21.213203435596412
 20
-0.799999999999983
 30
0.0
 11
21.213203435596412
 21
-13.199999999999989
 31
0.0
  0
LINE
  5
17B
100
AcDbEntity
  8
0
  6
CONTINUOUS
 62
               7
100
AcDbLine
 10
29.0
 20
0.0
 30
0.0
 11
30.0
 21
-1.0
 31
0.0
  0
LINE
  5
17C
100
AcDbEntity
  8
0
  6
CONTINUOUS
 62
               7
100
AcDbLine
 10
29.799999999999997
 20
-17.0
 30
0.0
 11
-29.799999999999997
 21
-17.0
 31
0.0
  0
LINE
  5
17D
100
AcDbEntity
  8
0
  6
CENTER
 62
               2
100
AcDbLine
 10
27.413203435596415
 20
-7.0
 30
0.0
 11
15.013203435596409
 21
-7.0
 31
0.0
  0
LINE
  5
17E
100
AcDbEntity
  8
0
  6
CONTINUOUS
 62
               7
100
AcDbLine
 10
30.0
 20
-1.0
 30
0.0
 11
30.0
 21
-16.799999999999983
 31
0.0
  0
ENDBLK
  5
17F
100
AcDbEntity
  8
0
100
AcDbBlockEnd
  0
BLOCK
  5
180
100
AcDbEntity
  8
0
100
AcDbBlockBegin
  2
NCT60-3
 70
               0
 10
0.0
 20
0.0
 30
0.0
  3
NCT60-3
  1

  0
LINE
  5
181
100
AcDbEntity
  8
0
  6
CONTINUOUS
 62
               7
100
AcDbLine
 10
-64.497963779370821
 20
10.700000000000017
 30
0.0
 11
-64.497963779370821
 21
11.300000000000011
 31
0.0
  0
LINE
  5
182
100
AcDbEntity
  8
0
  6
CONTINUOUS
 62
               7
100
AcDbLine
 10
-67.429633835914302
 20
11.500000000000014
 30
0.0
 11
-64.497963779370821
 21
11.300000000000011
 31
0.0
  0
LINE
  5
183
100
AcDbEntity
  8
0
  6
CONTINUOUS
 62
               7
100
AcDbLine
 10
-67.429633835914302
 20
10.700000000000017
 30
0.0
 11
-64.497963779370821
 21
10.700000000000017
 31
0.0
  0
LINE
  5
184
100
AcDbEntity
  8
0
  6
CONTINUOUS
 62
               7
100
AcDbLine
 10
-63.990784161489039
 20
10.500000010711105
 30
0.0
 11
-63.990784161489039
 21
12.10000000475064
 31
0.0
  0
LINE
  5
185
100
AcDbEntity
  8
0
  6
CONTINUOUS
 62
               7
100
AcDbLine
 10
-63.297963802495751
 20
10.500000010711105
 30
0.0
 11
-63.297963802495751
 21
12.10000000475064
 31
0.0
  0
LINE
  5
186
100
AcDbEntity
  8
0
  6
CONTINUOUS
 62
               7
100
AcDbLine
 10
-64.497963779370821
 20
7.7000000000000171
 30
0.0
 11
-64.497963779370821
 21
8.3000000000000114
 31
0.0
  0
LINE
  5
187
100
AcDbEntity
  8
0
  6
CONTINUOUS
 62
               7
100
AcDbLine
 10
-67.429633835914302
 20
8.5000000000000142
 30
0.0
 11
-64.497963779370821
 21
8.3000000000000114
 31
0.0
  0
LINE
  5
188
100
AcDbEntity
  8
0
  6
CONTINUOUS
 62
               7
100
AcDbLine
 10
-67.429633835914302
 20
7.7000000000000171
 30
0.0
 11
-64.497963779370821
 21
7.7000000000000171
 31
0.0
  0
LINE
  5
189
100
AcDbEntity
  8
0
  6
CONTINUOUS
 62
               7
100
AcDbLine
 10
-63.990784161489039
 20
7.5000000107111049
 30
0.0
 11
-63.990784161489039
 21
9.1000000047506404
 31
0.0
  0
LINE
  5
18A
100
AcDbEntity
  8
0
  6
CONTINUOUS
 62
               7
100
AcDbLine
 10
-63.297963802495751
 20
7.5000000107111049
 30
0.0
 11
-63.297963802495751
 21
9.1000000047506404
 31
0.0
  0
LINE
  5
18B
100
AcDbEntity
  8
0
  6
CONTINUOUS
 62
               7
100
AcDbLine
 10
-67.429633835914302
 20
5.5000000000000142
 30
0.0
 11
-64.497963779370821
 21
5.3000000000000114
 31
0.0
  0
LINE
  5
18C
100
AcDbEntity
  8
0
  6
CONTINUOUS
 62
               7
100
AcDbLine
 10
-67.429633835914302
 20
4.7000000000000171
 30
0.0
 11
-64.497963779370821
 21
4.7000000000000171
 31
0.0
  0
LINE
  5
18D
100
AcDbEntity
  8
0
  6
CONTINUOUS
 62
               7
100
AcDbLine
 10
-64.497963779370821
 20
4.7000000000000171
 30
0.0
 11
-64.497963779370821
 21
5.3000000000000114
 31
0.0
  0
LINE
  5
18E
100
AcDbEntity
  8
0
  6
CONTINUOUS
 62
               7
100
AcDbLine
 10
-63.990784161489039
 20
4.5000000107111049
 30
0.0
 11
-63.990784161489039
 21
6.1000000047506404
 31
0.0
  0
LINE
  5
18F
100
AcDbEntity
  8
0
  6
CONTINUOUS
 62
               7
100
AcDbLine
 10
-63.297963802495751
 20
4.5000000107111049
 30
0.0
 11
-63.297963802495751
 21
6.1000000047506404
 31
0.0
  0
LINE
  5
190
100
AcDbEntity
  8
0
  6
CONTINUOUS
 62
               7
100
AcDbLine
 10
-55.122649683083175
 20
12.100000000000009
 30
0.0
 11
-55.122649683083175
 21
10.500000000000014
 31
0.0
  0
LINE
  5
191
100
AcDbEntity
  8
0
  6
CONTINUOUS
 62
               7
100
AcDbLine
 10
-55.122649683083175
 20
9.1000000000000085
 30
0.0
 11
-55.122649683083175
 21
7.5000000000000142
 31
0.0
  0
LINE
  5
192
100
AcDbEntity
  8
0
  6
CONTINUOUS
 62
               7
100
AcDbLine
 10
-55.122649683083175
 20
6.1000000000000085
 30
0.0
 11
-55.122649683083175
 21
4.5000000000000142
 31
0.0
  0
LINE
  5
193
100
AcDbEntity
  8
0
  6
CONTINUOUS
 62
               7
100
AcDbLine
 10
-67.429633835914302
 20
10.49999999925619
 30
0.0
 11
-67.429633835914302
 21
12.100000000000009
 31
0.0
  0
LINE
  5
194
100
AcDbEntity
  8
0
  6
CONTINUOUS
 62
               7
100
AcDbLine
 10
-67.629633835914319
 20
10.99999999925619
 30
0.0
 11
-67.629633835914319
 21
11.599999999628096
 31
0.0
  0
LINE
  5
195
100
AcDbEntity
  8
0
  6
CONTINUOUS
 62
               7
100
AcDbLine
 10
-67.429633846632925
 20
10.999999999628102
 30
0.0
 11
-67.629633835914319
 21
10.999999999628102
 31
0.0
  0
LINE
  5
196
100
AcDbEntity
  8
0
  6
CONTINUOUS
 62
               7
100
AcDbLine
 10
-67.429633846632925
 20
11.599999999628096
 30
0.0
 11
-67.629633835914319
 21
11.599999999628096
 31
0.0
  0
LINE
  5
197
100
AcDbEntity
  8
0
  6
CONTINUOUS
 62
               7
100
AcDbLine
 10
-67.429633835914302
 20
7.4999999992561897
 30
0.0
 11
-67.429633835914302
 21
9.1000000000000085
 31
0.0
  0
LINE
  5
198
100
AcDbEntity
  8
0
  6
CONTINUOUS
 62
               7
100
AcDbLine
 10
-67.629633835914319
 20
7.9999999992561897
 30
0.0
 11
-67.629633835914319
 21
8.5999999996280962
 31
0.0
  0
LINE
  5
199
100
AcDbEntity
  8
0
  6
CONTINUOUS
 62
               7
100
AcDbLine
 10
-67.429633846632925
 20
7.9999999996281019
 30
0.0
 11
-67.629633835914319
 21
7.9999999996281019
 31
0.0
  0
LINE
  5
19A
100
AcDbEntity
  8
0
  6
CONTINUOUS
 62
               7
100
AcDbLine
 10
-67.429633846632925
 20
8.5999999996280962
 30
0.0
 11
-67.629633835914319
 21
8.5999999996280962
 31
0.0
  0
LINE
  5
19B
100
AcDbEntity
  8
0
  6
CONTINUOUS
 62
               7
100
AcDbLine
 10
-67.429633846632925
 20
5.5999999996280962
 30
0.0
 11
-67.629633835914319
 21
5.5999999996280962
 31
0.0
  0
LINE
  5
19C
100
AcDbEntity
  8
0
  6
CONTINUOUS
 62
               7
100
AcDbLine
 10
-67.429633846632925
 20
4.9999999996281019
 30
0.0
 11
-67.629633835914319
 21
4.9999999996281019
 31
0.0
  0
LINE
  5
19D
100
AcDbEntity
  8
0
  6
CONTINUOUS
 62
               7
100
AcDbLine
 10
-67.629633835914319
 20
4.9999999992561897
 30
0.0
 11
-67.629633835914319
 21
5.5999999996280962
 31
0.0
  0
LINE
  5
19E
100
AcDbEntity
  8
0
  6
CONTINUOUS
 62
               7
100
AcDbLine
 10
-67.429633835914302
 20
4.4999999992561897
 30
0.0
 11
-67.429633835914302
 21
6.1000000000000085
 31
0.0
  0
LINE
  5
19F
100
AcDbEntity
  8
0
  6
CONTINUOUS
 62
               7
100
AcDbLine
 10
-67.429633835914302
 20
12.100000000000009
 30
0.0
 11
-55.122649683083175
 21
12.100000000000009
 31
0.0
  0
LINE
  5
1A0
100
AcDbEntity
  8
0
  6
CONTINUOUS
 62
               7
100
AcDbLine
 10
-67.429633835914302
 20
10.500000000000014
 30
0.0
 11
-55.122649683083175
 21
10.500000000000014
 31
0.0
  0
LINE
  5
1A1
100
AcDbEntity
  8
0
  6
CONTINUOUS
 62
               7
100
AcDbLine
 10
-67.429633835914302
 20
9.1000000000000085
 30
0.0
 11
-55.122649683083175
 21
9.1000000000000085
 31
0.0
  0
LINE
  5
1A2
100
AcDbEntity
  8
0
  6
CONTINUOUS
 62
               7
100
AcDbLine
 10
-67.429633835914302
 20
7.5000000000000142
 30
0.0
 11
-55.122649683083175
 21
7.5000000000000142
 31
0.0
  0
LINE
  5
1A3
100
AcDbEntity
  8
0
  6
CONTINUOUS
 62
               7
100
AcDbLine
 10
-67.429633835914302
 20
6.1000000000000085
 30
0.0
 11
-55.122649683083175
 21
6.1000000000000085
 31
0.0
  0
LINE
  5
1A4
100
AcDbEntity
  8
0
  6
CONTINUOUS
 62
               7
100
AcDbLine
 10
-67.429633835914302
 20
4.5000000000000142
 30
0.0
 11
-55.122649683083175
 21
4.5000000000000142
 31
0.0
  0
LINE
  5
1A5
100
AcDbEntity
  8
0
  6
PHANTOM
 62
               2
100
AcDbLine
 10
-43.57209438085556
 20
6.8000000005348085
 30
0.0
 11
-45.304145202040672
 21
9.8000000303371309
 31
0.0
  0
LINE
  5
1A6
100
AcDbEntity
  8
0
  6
PHANTOM
 62
               2
100
AcDbLine
 10
-44.495854765176773
 20
6.8000000005348085
 30
0.0
 11
-46.227905571460724
 21
9.8000000005348085
 31
0.0
  0
ARC
  5
1A7
100
AcDbEntity
  8
0
  6
CONTINUOUS
 62
               7
100
AcDbCircle
 10
-45.25899448465448
 20
11.150000000000006
 30
0.0
 40
2.0
100
AcDbArc
 50
239.99999999999943
 51
250.79511110182787
  0
ARC
  5
1A8
100
AcDbEntity
  8
0
  6
CONTINUOUS
 62
               7
100
AcDbCircle
 10
-45.473353838599373
 20
10.350000000000009
 30
0.0
 40
2.0
100
AcDbArc
 50
239.99999999999946
 51
269.99999999999937
  0
ARC
  5
1A9
100
AcDbEntity
  8
0
  6
CONTINUOUS
 62
               7
100
AcDbCircle
 10
-45.473353838599373
 20
6.2500000000000142
 30
0.0
 40
2.0
100
AcDbArc
 50
89.999999999999815
 51
119.99999999999973
  0
ARC
  5
1AA
100
AcDbEntity
  8
0
  6
CONTINUOUS
 62
               7
100
AcDbCircle
 10
-45.25899448465448
 20
5.4500000000000028
 30
0.0
 40
2.0
100
AcDbArc
 50
89.999999999999815
 51
119.99999999999973
  0
LINE
  5
1AB
100
AcDbEntity
  8
0
  6
CONTINUOUS
 62
               7
100
AcDbLine
 10
-55.122649683083175
 20
8.7000000000000171
 30
0.0
 11
-46.615470006110726
 21
8.7000000000000171
 31
0.0
  0
LINE
  5
1AC
100
AcDbEntity
  8
0
  6
CONTINUOUS
 62
               7
100
AcDbLine
 10
-55.122649683083175
 20
7.9000000000000057
 30
0.0
 11
-46.615470006110726
 21
7.9000000000000057
 31
0.0
  0
LINE
  5
1AD
100
AcDbEntity
  8
0
  6
CONTINUOUS
 62
               7
100
AcDbLine
 10
-45.390747681448048
 20
8.3500000000000085
 30
0.0
 11
-45.473353838599373
 21
8.3500000000000085
 31
0.0
  0
LINE
  5
1AE
100
AcDbEntity
  8
0
  6
CONTINUOUS
 62
               7
100
AcDbLine
 10
-45.333012654571917
 20
8.2500000000000142
 30
0.0
 11
-45.473353838599373
 21
8.2500000000000142
 31
0.0
  0
LINE
  5
1AF
100
AcDbEntity
  8
0
  6
CONTINUOUS
 62
               7
100
AcDbLine
 10
-44.871132439562864
 20
7.4500000000000028
 30
0.0
 11
-45.25899448465448
 21
7.4500000000000028
 31
0.0
  0
LINE
  5
1B0
100
AcDbEntity
  8
0
  6
CONTINUOUS
 62
               7
100
AcDbLine
 10
-55.122649683083175
 20
10.900000000000006
 30
0.0
 11
-51.765727744917868
 21
10.900000000000006
 31
0.0
  0
LINE
  5
1B1
100
AcDbEntity
  8
0
  6
CONTINUOUS
 62
               7
100
AcDbLine
 10
-55.122649683083175
 20
11.700000000000017
 30
0.0
 11
-51.551368390972975
 21
11.700000000000017
 31
0.0
  0
LINE
  5
1B2
100
AcDbEntity
  8
0
  6
CONTINUOUS
 62
               7
100
AcDbLine
 10
-55.122649683083175
 20
4.9000000000000057
 30
0.0
 11
-51.551368390972975
 21
4.9000000000000057
 31
0.0
  0
LINE
  5
1B3
100
AcDbEntity
  8
0
  6
CONTINUOUS
 62
               7
100
AcDbLine
 10
-55.122649683083175
 20
5.7000000000000171
 30
0.0
 11
-51.765727744917868
 21
5.7000000000000171
 31
0.0
  0
LINE
  5
1B4
100
AcDbEntity
  8
0
  6
CONTINUOUS
 62
               7
100
AcDbLine
 10
-46.25899448465448
 20
9.4179491924311378
 30
0.0
 11
-49.051368390972975
 21
11.030127018922201
 31
0.0
  0
LINE
  5
1B5
100
AcDbEntity
  8
0
  6
CONTINUOUS
 62
               7
100
AcDbLine
 10
-46.47335383859938
 20
8.6179491924311407
 30
0.0
 11
-49.265727744917868
 21
10.230127018922204
 31
0.0
  0
LINE
  5
1B6
100
AcDbEntity
  8
0
  6
CONTINUOUS
 62
               7
100
AcDbLine
 10
-46.25899448465448
 20
7.1820508075688849
 30
0.0
 11
-49.051368390972975
 21
5.5698729810778076
 31
0.0
  0
LINE
  5
1B7
100
AcDbEntity
  8
0
  6
CONTINUOUS
 62
               7
100
AcDbLine
 10
-46.47335383859938
 20
7.9820508075688821
 30
0.0
 11
-49.265727744917868
 21
6.369872981077819
 31
0.0
  0
ARC
  5
1B8
100
AcDbEntity
  8
0
  6
CONTINUOUS
 62
               7
100
AcDbCircle
 10
-51.765727744917868
 20
5.9000000000000057
 30
0.0
 40
5.0
100
AcDbArc
 50
59.999999999999858
 51
89.999999999999815
  0
ARC
  5
1B9
100
AcDbEntity
  8
0
  6
CONTINUOUS
 62
               7
100
AcDbCircle
 10
-51.551368390972975
 20
6.7000000000000171
 30
0.0
 40
5.0
100
AcDbArc
 50
59.999999999999858
 51
89.999999999999815
  0
ARC
  5
1BA
100
AcDbEntity
  8
0
  6
CONTINUOUS
 62
               7
100
AcDbCircle
 10
-51.765727744917868
 20
10.700000000000017
 30
0.0
 40
5.0
100
AcDbArc
 50
269.99999999999937
 51
299.99999999999932
  0
ARC
  5
1BB
100
AcDbEntity
  8
0
  6
CONTINUOUS
 62
               7
100
AcDbCircle
 10
-51.551368390972975
 20
9.9000000000000057
 30
0.0
 40
5.0
100
AcDbArc
 50
269.99999999999937
 51
299.99999999999932
  0
LINE
  5
1BC
100
AcDbEntity
  8
0
  6
CONTINUOUS
 62
               7
100
AcDbLine
 10
-42.899999988148068
 20
7.4500000000000028
 30
0.0
 11
-43.947372054742189
 21
7.4500000000000028
 31
0.0
  0
LINE
  5
1BD
100
AcDbEntity
  8
0
  6
CONTINUOUS
 62
               7
100
AcDbLine
 10
-42.899999988148068
 20
8.2500000000000142
 30
0.0
 11
-44.409252269136516
 21
8.2500000000000142
 31
0.0
  0
LINE
  5
1BE
100
AcDbEntity
  8
0
  6
CONTINUOUS
 62
               7
100
AcDbLine
 10
-42.899999988148068
 20
8.3500000000000085
 30
0.0
 11
-44.466987295935802
 21
8.3500000000000085
 31
0.0
  0
LINE
  5
1BF
100
AcDbEntity
  8
0
  6
CONTINUOUS
 62
               7
100
AcDbLine
 10
-42.899999988148068
 20
9.1500000000000057
 30
0.0
 11
-44.928867510330136
 21
9.1500000000000057
 31
0.0
  0
LINE
  5
1C0
100
AcDbEntity
  8
0
  6
CONTINUOUS
 62
               7
100
AcDbLine
 10
-30.399999988148068
 20
5.3000000000000114
 30
0.0
 11
-30.399999988148068
 21
11.300000000000011
 31
0.0
  0
LINE
  5
1C1
100
AcDbEntity
  8
0
  6
CONTINUOUS
 62
               7
100
AcDbLine
 10
-37.399999988148068
 20
6.3000000000000114
 30
0.0
 11
-37.399999988148068
 21
10.300000000000011
 31
0.0
  0
LINE
  5
1C2
100
AcDbEntity
  8
0
  6
CONTINUOUS
 62
               7
100
AcDbLine
 10
-37.399999988148068
 20
10.300000000000011
 30
0.0
 11
-35.399999988148068
 21
10.585714285714289
 31
0.0
  0
LINE
  5
1C3
100
AcDbEntity
  8
0
  6
CONTINUOUS
 62
               7
100
AcDbLine
 10
-37.399999988148068
 20
6.3000000000000114
 30
0.0
 11
-35.399999988148068
 21
6.0142857142857338
 31
0.0
  0
LINE
  5
1C4
100
AcDbEntity
  8
0
  6
CONTINUOUS
 62
               7
100
AcDbLine
 10
-35.399999988148068
 20
6.0142857142857338
 30
0.0
 11
-35.399999988148068
 21
10.585714285714289
 31
0.0
  0
LINE
  5
1C5
100
AcDbEntity
  8
0
  6
CONTINUOUS
 62
               7
100
AcDbLine
 10
-34.399999988148068
 20
5.8714285714285808
 30
0.0
 11
-34.399999988148068
 21
10.728571428571442
 31
0.0
  0
LINE
  5
1C6
100
AcDbEntity
  8
0
  6
CONTINUOUS
 62
               7
100
AcDbLine
 10
-32.899999988148068
 20
5.6571428571428726
 30
0.0
 11
-32.899999988148068
 21
10.94285714285715
 31
0.0
  0
LINE
  5
1C7
100
AcDbEntity
  8
0
  6
CONTINUOUS
 62
               7
100
AcDbLine
 10
-31.899999988148068
 20
5.5142857142857338
 30
0.0
 11
-31.899999988148068
 21
11.085714285714289
 31
0.0
  0
LINE
  5
1C8
100
AcDbEntity
  8
0
  6
CONTINUOUS
 62
               7
100
AcDbLine
 10
-34.399999988148068
 20
10.728571428571442
 30
0.0
 11
-32.899999988148068
 21
10.94285714285715
 31
0.0
  0
LINE
  5
1C9
100
AcDbEntity
  8
0
  6
CONTINUOUS
 62
               7
100
AcDbLine
 10
-31.899999988148068
 20
11.085714285714289
 30
0.0
 11
-30.399999988148068
 21
11.300000000000011
 31
0.0
  0
LINE
  5
1CA
100
AcDbEntity
  8
0
  6
CONTINUOUS
 62
               7
100
AcDbLine
 10
-34.399999988148068
 20
5.8714285714285808
 30
0.0
 11
-32.899999988148068
 21
5.6571428571428726
 31
0.0
  0
LINE
  5
1CB
100
AcDbEntity
  8
0
  6
CONTINUOUS
 62
               7
100
AcDbLine
 10
-31.899999988148068
 20
5.5142857142857338
 30
0.0
 11
-30.399999988148068
 21
5.3000000000000114
 31
0.0
  0
LINE
  5
1CC
100
AcDbEntity
  8
0
  6
CONTINUOUS
 62
               7
100
AcDbLine
 10
-35.399999988148068
 20
10.050000000000011
 30
0.0
 11
-34.399999988148068
 21
10.050000000000011
 31
0.0
  0
LINE
  5
1CD
100
AcDbEntity
  8
0
  6
CONTINUOUS
 62
               7
100
AcDbLine
 10
-35.399999988148068
 20
6.5500000000000114
 30
0.0
 11
-34.399999988148068
 21
6.5500000000000114
 31
0.0
  0
LINE
  5
1CE
100
AcDbEntity
  8
0
  6
CONTINUOUS
 62
               7
100
AcDbLine
 10
-32.899999988148068
 20
10.050000000000011
 30
0.0
 11
-31.899999988148068
 21
10.050000000000011
 31
0.0
  0
LINE
  5
1CF
100
AcDbEntity
  8
0
  6
CONTINUOUS
 62
               7
100
AcDbLine
 10
-32.899999988148068
 20
6.5500000000000114
 30
0.0
 11
-31.899999988148068
 21
6.5500000000000114
 31
0.0
  0
LINE
  5
1D0
100
AcDbEntity
  8
0
  6
CONTINUOUS
 62
               7
100
AcDbLine
 10
-42.899999988148068
 20
7.0
 30
0.0
 11
-42.899999988148068
 21
9.6000000000000227
 31
0.0
  0
LINE
  5
1D1
100
AcDbEntity
  8
0
  6
CONTINUOUS
 62
               7
100
AcDbLine
 10
-37.399999988148068
 20
7.0
 30
0.0
 11
-38.937564439240354
 21
7.0
 31
0.0
  0
LINE
  5
1D2
100
AcDbEntity
  8
0
  6
CONTINUOUS
 62
               7
100
AcDbLine
 10
-37.399999988148068
 20
9.6000000000000227
 30
0.0
 11
-40.43867513913338
 21
9.6000000000000227
 31
0.0
  0
LINE
  5
1D3
100
AcDbEntity
  8
0
  6
CONTINUOUS
 62
               7
100
AcDbLine
 10
-39.861324838462728
 20
7.0
 30
0.0
 11
-42.899999988148068
 21
7.0
 31
0.0
  0
LINE
  5
1D4
100
AcDbEntity
  8
0
  6
CONTINUOUS
 62
               7
100
AcDbLine
 10
-41.362435538355754
 20
9.6000000000000227
 30
0.0
 11
-42.899999988148068
 21
9.6000000000000227
 31
0.0
  0
LINE
  5
1D5
100
AcDbEntity
  8
0
  6
PHANTOM
 62
               2
100
AcDbLine
 10
-39.514914676547043
 20
6.399999994574344
 30
0.0
 11
-41.708845719695084
 21
10.200000036297595
 31
0.0
  0
LINE
  5
1D6
100
AcDbEntity
  8
0
  6
PHANTOM
 62
               2
100
AcDbLine
 10
-38.591154277324669
 20
6.4000000243766664
 30
0.0
 11
-40.785085305571549
 21
10.200000036297595
 31
0.0
  0
LINE
  5
1D7
100
AcDbEntity
  8
0
  6
CONTINUOUS
 62
               7
100
AcDbLine
 10
-30.399999988148068
 20
5.3000000000000114
 30
0.0
 11
-29.999999988148069
 21
5.3000000000000114
 31
0.0
  0
LINE
  5
1D8
100
AcDbEntity
  8
0
  6
CONTINUOUS
 62
               7
100
AcDbLine
 10
-30.399999988148068
 20
11.300000000000011
 30
0.0
 11
-29.999999988148069
 21
11.300000000000011
 31
0.0
  0
LINE
  5
1D9
100
AcDbEntity
  8
0
  6
CENTER
 62
               2
100
AcDbLine
 10
-42.899999988148075
 20
8.3000000000000114
 30
0.0
 11
-28.799999988148073
 21
8.3000000000000114
 31
0.0
  0
LINE
  5
1DA
100
AcDbEntity
  8
0
  6
CONTINUOUS
 62
               7
100
AcDbLine
 10
-19.000000000000004
 20
-23.216373532487751
 30
0.0
 11
-19.0
 21
23.216373532487808
 31
0.0
  0
ARC
  5
1DB
100
AcDbEntity
  8
0
  6
CONTINUOUS
 62
               7
100
AcDbCircle
 10
0.0
 20
0.0000000000000284
 30
0.0
 40
29.999999999999989
100
AcDbArc
 50
195.29957414445676
 51
156.55717253809757
  0
ARC
  5
1DC
100
AcDbEntity
  8
0
  6
CONTINUOUS
 62
               7
100
AcDbCircle
 10
0.0
 20
0.0000000000000284
 30
0.0
 40
28.999999999999989
100
AcDbArc
 50
229.06727542584358
 51
130.9327245741558
  0
CIRCLE
  5
1DD
100
AcDbEntity
  8
0
  6
CENTER
 62
               2
100
AcDbCircle
 10
0.0
 20
0.0000000000000284
 30
0.0
 40
22.5
  0
LINE
  5
1DE
100
AcDbEntity
  8
0
  6
CENTER
 62
               2
100
AcDbLine
 10
0.0000000000000003
 20
-32.865335578289489
 30
0.0
 11
-0.0000000000000071
 21
32.0
 31
0.0
  0
LINE
  5
1DF
100
AcDbEntity
  8
0
  6
CENTER
 62
               2
100
AcDbLine
 10
0.0
 20
0.0000000000000284
 30
0.0
 11
22.453549495869225
 21
22.453549495869225
 31
0.0
  0
LINE
  5
1E1
100
AcDbEntity
  8
0
  6
DASHED
 62
               2
100
AcDbLine
 10
16.617009357883894
 20
20.152543263816625
 30
0.0
 11
14.251764208515418
 21
17.787298114448134
 31
0.0
  0
LINE
  5
1E2
100
AcDbEntity
  8
0
  6
DASHED
 62
               2
100
AcDbLine
 10
16.899852070358513
 20
19.869700551341992
 30
0.0
 11
14.215883090639949
 21
17.185731571623421
 31
0.0
  0
ARC
  5
1E3
100
AcDbEntity
  8
0
  6
DASHED
 62
               2
100
AcDbCircle
 10
17.48532751867976
 20
17.512286289533336
 30
0.0
 40
4.363929581700825
100
AcDbArc
 50
16.995213414137279
 51
38.168845001456681
  0
LINE
  5
1E4
100
AcDbEntity
  8
0
  6
DASHED
 62
               2
100
AcDbLine
 10
20.930360723121836
 20
20.223253941935269
 30
0.0
 11
19.869700551342014
 21
19.162593770155439
 31
0.0
  0
LINE
  5
1E5
100
AcDbEntity
  8
0
  6
DASHED
 62
               2
100
AcDbLine
 10
15.026019100214171
 20
21.743533521486341
 30
0.0
 11
21.743533521486363
 21
15.026019100214143
 31
0.0
  0
LINE
  5
1E6
100
AcDbEntity
  8
0
  6
DASHED
 62
               2
100
AcDbLine
 10
15.945257915756677
 20
21.672822843367697
 30
0.0
 11
21.672822843367719
 21
15.945257915756656
 31
0.0
  0
LINE
  5
1E7
100
AcDbEntity
  8
0
  6
DASHED
 62
               2
100
AcDbLine
 10
20.930360723121836
 20
20.223253941935269
 30
0.0
 11
23.087036405740804
 21
18.066578259316287
 31
0.0
  0
LINE
  5
1E8
100
AcDbEntity
  8
0
  6
DASHED
 62
               2
100
AcDbLine
 10
19.162593770155468
 20
19.869700551341992
 30
0.0
 11
19.869700551342014
 21
19.162593770155439
 31
0.0
  0
LINE
  5
1E9
100
AcDbEntity
  8
0
  6
CONTINUOUS
 62
               7
100
AcDbLine
 10
-29.182320272248568
 20
-7.9126684591599314
 30
0.0
 11
-29.504363255897275
 21
-7.9083298105362587
 31
0.0
  0
ARC
  5
1EA
100
AcDbEntity
  8
0
  6
CONTINUOUS
 62
               7
100
AcDbCircle
 10
-28.899999988148089
 20
-5.5
 30
0.0
 40
0.5
100
AcDbArc
 50
89.999999999999815
 51
179.99999999999963
  0
ARC
  5
1EB
100
AcDbEntity
  8
0
  6
CONTINUOUS
 62
               7
100
AcDbCircle
 10
-28.899999988148089
 20
-7.5
 30
0.0
 40
0.5
100
AcDbArc
 50
179.99999999999963
 51
269.99999999999937
  0
LINE
  5
1EC
100
AcDbEntity
  8
0
  6
CONTINUOUS
 62
               7
100
AcDbLine
 10
-28.799999988148087
 20
-8.0
 30
0.0
 11
-28.899999988148089
 21
-8.0
 31
0.0
  0
LINE
  5
1ED
100
AcDbEntity
  8
0
  6
CONTINUOUS
 62
               7
100
AcDbLine
 10
-28.799999988148087
 20
-5.0
 30
0.0
 11
-28.899999988148089
 21
-5.0
 31
0.0
  0
LINE
  5
1EE
100
AcDbEntity
  8
0
  6
CONTINUOUS
 62
               7
100
AcDbLine
 10
-29.399999988148089
 20
-7.5
 30
0.0
 11
-29.399999988148089
 21
-5.5
 31
0.0
  0
LINE
  5
1EF
100
AcDbEntity
  8
0
  6
DASHED
 62
               2
100
AcDbLine
 10
24.304371310012606
 20
-17.586856888740385
 30
0.0
 11
21.743533521486405
 21
-15.026019100214171
 31
0.0
  0
LINE
  5
1F0
100
AcDbEntity
  8
0
  6
DASHED
 62
               2
100
AcDbLine
 10
17.586856888740392
 20
-24.304371310012584
 30
0.0
 11
15.026019100214192
 21
-21.74353352148637
 31
0.0
  0
LINE
  5
1F1
100
AcDbEntity
  8
0
  6
DASHED
 62
               2
100
AcDbLine
 10
24.304371310012627
 20
17.586856888740414
 30
0.0
 11
21.743533521486363
 21
15.026019100214143
 31
0.0
  0
LINE
  5
1F2
100
AcDbEntity
  8
0
  6
DASHED
 62
               2
100
AcDbLine
 10
23.087036405740811
 20
17.359471478129763
 30
0.0
 11
21.672822843367719
 21
15.945257915756656
 31
0.0
  0
LINE
  5
1F3
100
AcDbEntity
  8
0
  6
DASHED
 62
               2
100
AcDbLine
 10
23.087036405740804
 20
18.066578259316287
 30
0.0
 11
23.087036405740811
 21
17.359471478129763
 31
0.0
  0
ARC
  5
1F4
100
AcDbEntity
  8
0
  6
DASHED
 62
               2
100
AcDbCircle
 10
19.225012704195159
 20
12.193233480323954
 30
0.0
 40
7.0293247160888015
100
AcDbArc
 50
56.673040373502339
 51
69.743928567659154
  0
LINE
  5
1F5
100
AcDbEntity
  8
0
  6
DASHED
 62
               2
100
AcDbLine
 10
21.658680707743983
 20
18.787827176126569
 30
0.0
 11
20.244467145370884
 21
17.373613613753491
 31
0.0
  0
LINE
  5
1F6
100
AcDbEntity
  8
0
  6
DASHED
 62
               2
100
AcDbLine
 10
21.213203435596462
 20
15.556349186104029
 30
0.0
 11
21.637467504308383
 21
15.980613254815978
 31
0.0
  0
LINE
  5
1F7
100
AcDbEntity
  8
0
  6
DASHED
 62
               2
100
AcDbLine
 10
19.869700551342014
 20
16.899852070358492
 30
0.0
 11
17.504455401973537
 21
14.534606920990001
 31
0.0
  0
LINE
  5
1F8
100
AcDbEntity
  8
0
  6
DASHED
 62
               2
100
AcDbLine
 10
20.152543263816632
 20
16.617009357883859
 30
0.0
 11
17.966580269020078
 21
14.431046363087319
 31
0.0
  0
ARC
  5
1F9
100
AcDbEntity
  8
0
  6
DASHED
 62
               2
100
AcDbCircle
 10
17.512286289533385
 20
-17.485327518679782
 30
0.0
 40
4.363929581700825
100
AcDbArc
 50
286.99521341413669
 51
308.16884500145608
  0
LINE
  5
1FA
100
AcDbEntity
  8
0
  6
DASHED
 62
               2
100
AcDbLine
 10
20.223253941935319
 20
-20.930360723121851
 30
0.0
 11
19.162593770155489
 21
-19.869700551342021
 31
0.0
  0
LINE
  5
1FB
100
AcDbEntity
  8
0
  6
DASHED
 62
               2
100
AcDbLine
 10
15.556349186104093
 20
-21.213203435596455
 30
0.0
 11
15.980613254816028
 21
-21.637467504308376
 31
0.0
  0
LINE
  5
1FC
100
AcDbEntity
  8
0
  6
DASHED
 62
               2
100
AcDbLine
 10
21.743533521486405
 20
-15.026019100214171
 30
0.0
 11
15.026019100214192
 21
-21.74353352148637
 31
0.0
  0
LINE
  5
1FD
100
AcDbEntity
  8
0
  6
DASHED
 62
               2
100
AcDbLine
 10
21.672822843367733
 20
-15.945257915756684
 30
0.0
 11
15.945257915756706
 21
-21.672822843367726
 31
0.0
  0
LINE
  5
1FE
100
AcDbEntity
  8
0
  6
DASHED
 62
               2
100
AcDbLine
 10
20.223253941935319
 20
-20.930360723121851
 30
0.0
 11
18.066578259316351
 21
-23.087036405740804
 31
0.0
  0
LINE
  5
1FF
100
AcDbEntity
  8
0
  6
DASHED
 62
               2
100
AcDbLine
 10
18.787827176126619
 20
-21.658680707743997
 30
0.0
 11
17.373613613753541
 21
-20.244467145370891
 31
0.0
  0
ARC
  5
200
100
AcDbEntity
  8
0
  6
DASHED
 62
               2
100
AcDbCircle
 10
12.193233480324018
 20
-19.225012704195166
 30
0.0
 40
7.0293247160888015
100
AcDbArc
 50
326.67304037350175
 51
339.74392856765854
  0
LINE
  5
201
100
AcDbEntity
  8
0
  6
DASHED
 62
               2
100
AcDbLine
 10
18.066578259316351
 20
-23.087036405740804
 30
0.0
 11
17.359471478129812
 21
-23.087036405740804
 31
0.0
  0
LINE
  5
202
100
AcDbEntity
  8
0
  6
DASHED
 62
               2
100
AcDbLine
 10
17.359471478129812
 20
-23.087036405740804
 30
0.0
 11
15.945257915756706
 21
-21.672822843367726
 31
0.0
  0
LINE
  5
203
100
AcDbEntity
  8
0
  6
DASHED
 62
               2
100
AcDbLine
 10
23.087036405740825
 20
-17.359471478129791
 30
0.0
 11
21.672822843367733
 21
-15.945257915756684
 31
0.0
  0
LINE
  5
204
100
AcDbEntity
  8
0
  6
DASHED
 62
               2
100
AcDbLine
 10
21.213203435596476
 20
-15.556349186104086
 30
0.0
 11
21.637467504308411
 21
-15.980613254816006
 31
0.0
  0
ARC
  5
205
100
AcDbEntity
  8
0
  6
DASHED
 62
               2
100
AcDbCircle
 10
17.484020166272522
 20
-17.51160334424597
 30
0.0
 40
4.3653794686807261
100
AcDbArc
 50
321.83471178066645
 51
343.001229803738
  0
LINE
  5
206
100
AcDbEntity
  8
0
  6
DASHED
 62
               2
100
AcDbLine
 10
23.087036405740839
 20
-18.066578259316344
 30
0.0
 11
20.930360723121858
 21
-20.223253941935297
 31
0.0
  0
LINE
  5
207
100
AcDbEntity
  8
0
  6
DASHED
 62
               2
100
AcDbLine
 10
21.658680707744004
 20
-18.787827176126598
 30
0.0
 11
20.244467145370912
 21
-17.37361361375352
 31
0.0
  0
ARC
  5
208
100
AcDbEntity
  8
0
  6
DASHED
 62
               2
100
AcDbCircle
 10
19.225717326111642
 20
-12.194628908040926
 30
0.0
 40
7.0277716396203269
100
AcDbArc
 50
290.25462085736189
 51
303.32841020147521
  0
LINE
  5
209
100
AcDbEntity
  8
0
  6
DASHED
 62
               2
100
AcDbLine
 10
23.087036405740825
 20
-17.359471478129791
 30
0.0
 11
23.087036405740839
 21
-18.066578259316344
 31
0.0
  0
LINE
  5
20A
100
AcDbEntity
  8
0
  6
DASHED
 62
               2
100
AcDbLine
 10
20.930360723121858
 20
-20.223253941935297
 30
0.0
 11
19.869700551342042
 21
-19.162593770155468
 31
0.0
  0
LINE
  5
20B
100
AcDbEntity
  8
0
  6
DASHED
 62
               2
100
AcDbLine
 10
19.869700551342042
 20
-19.162593770155468
 30
0.0
 11
19.162593770155489
 21
-19.869700551342021
 31
0.0
  0
LINE
  5
20C
100
AcDbEntity
  8
0
  6
DASHED
 62
               2
100
AcDbLine
 10
19.869700551342042
 20
-16.89985207035852
 30
0.0
 11
17.185731571623485
 21
-14.215883090639949
 31
0.0
  0
LINE
  5
20D
100
AcDbEntity
  8
0
  6
DASHED
 62
               2
100
AcDbLine
 10
20.152543263816661
 20
-16.617009357883916
 30
0.0
 11
17.787298114448184
 21
-14.251764208515425
 31
0.0
  0
LINE
  5
20E
100
AcDbEntity
  8
0
  6
DASHED
 62
               2
100
AcDbLine
 10
16.899852070358541
 20
-19.869700551342021
 30
0.0
 11
14.534606920990065
 21
-17.504455401973559
 31
0.0
  0
LINE
  5
20F
100
AcDbEntity
  8
0
  6
DASHED
 62
               2
100
AcDbLine
 10
16.617009357883923
 20
-20.152543263816625
 30
0.0
 11
14.431046363087368
 21
-17.966580269020085
 31
0.0
  0
LINE
  5
210
100
AcDbEntity
  8
0
  6
CENTER
 62
               2
100
AcDbLine
 10
-31.999999999999979
 20
0.0
 30
0.0
 11
31.999999766954794
 21
0.0
 31
0.0
  0
LINE
  5
211
100
AcDbEntity
  8
0
  6
CENTER
 62
               2
100
AcDbLine
 10
0.0
 20
0.0
 30
0.0
 11
22.583036858937355
 21
-22.583036858937362
 31
0.0
  0
CIRCLE
  5
212
100
AcDbEntity
  8
0
  6
CONTINUOUS
 62
               7
100
AcDbCircle
 10
-0.0000000000000142
 20
0.0
 30
0.0
 40
2.1000000000000001
  0
CIRCLE
  5
213
100
AcDbEntity
  8
0
  6
CONTINUOUS
 62
               2
100
AcDbCircle
 10
-0.0000000000000142
 20
0.0
 30
0.0
 40
2.5
  0
CIRCLE
  5
214
100
AcDbEntity
  8
0
  6
CONTINUOUS
 62
               7
100
AcDbCircle
 10
0.0000000000000568
 20
-22.499999999999915
 30
0.0
 40
1.6499999999999999
  0
CIRCLE
  5
215
100
AcDbEntity
  8
0
  6
CONTINUOUS
 62
               2
100
AcDbCircle
 10
0.0000000000000568
 20
-22.499999999999915
 30
0.0
 40
2.0
  0
CIRCLE
  5
216
100
AcDbEntity
  8
0
  6
CONTINUOUS
 62
               7
100
AcDbCircle
 10
22.499999999999993
 20
0.0000000000001137
 30
0.0
 40
1.6499999999999999
  0
CIRCLE
  5
217
100
AcDbEntity
  8
0
  6
CONTINUOUS
 62
               2
100
AcDbCircle
 10
22.499999999999993
 20
0.0000000000001137
 30
0.0
 40
2.0
  0
LINE
  5
218
100
AcDbEntity
  8
0
  6
CONTINUOUS
 62
               7
100
AcDbLine
 10
-22.699999988148079
 20
12.0
 30
0.0
 11
-19.000000000000004
 21
11.967710589277658
 31
0.0
  0
LINE
  5
219
100
AcDbEntity
  8
0
  6
CONTINUOUS
 62
               7
100
AcDbLine
 10
-22.699999988148079
 20
-8.0
 30
0.0
 11
-19.000000000000004
 21
-7.9677105892776012
 31
0.0
  0
ARC
  5
21A
100
AcDbEntity
  8
0
  6
CONTINUOUS
 62
               7
100
AcDbCircle
 10
-29.499999988148069
 20
11.408348849004227
 30
0.0
 40
0.5
100
AcDbArc
 50
90.499999999999659
 51
179.99999999999963
  0
ARC
  5
21B
100
AcDbEntity
  8
0
  6
CONTINUOUS
 62
               7
100
AcDbCircle
 10
-29.499999988148083
 20
-7.4083488490041134
 30
0.0
 40
0.5
100
AcDbArc
 50
179.99999999999963
 51
269.49999999999915
  0
LINE
  5
21C
100
AcDbEntity
  8
0
  6
CONTINUOUS
 62
               7
100
AcDbLine
 10
-22.699999988148079
 20
-8.0
 30
0.0
 11
-28.79999998814808
 21
-7.9178191795874397
 31
0.0
  0
LINE
  5
21D
100
AcDbEntity
  8
0
  6
CONTINUOUS
 62
               7
100
AcDbLine
 10
-22.699999988148079
 20
12.0
 30
0.0
 11
-29.50436325589726
 21
11.908329810536316
 31
0.0
  0
LINE
  5
21E
100
AcDbEntity
  8
0
  6
CONTINUOUS
 62
               7
100
AcDbLine
 10
-24.599999988148078
 20
-4.1999999999999886
 30
0.0
 11
-23.699999988148086
 21
-4.1999999999999886
 31
0.0
  0
LINE
  5
21F
100
AcDbEntity
  8
0
  6
CONTINUOUS
 62
               7
100
AcDbLine
 10
-23.699999988148086
 20
-3.0
 30
0.0
 11
-24.59999998814807
 21
-3.0
 31
0.0
  0
LINE
  5
220
100
AcDbEntity
  8
0
  6
CONTINUOUS
 62
               7
100
AcDbLine
 10
-23.699999988148086
 20
7.0
 30
0.0
 11
-24.59999998814807
 21
7.0
 31
0.0
  0
LINE
  5
221
100
AcDbEntity
  8
0
  6
CONTINUOUS
 62
               7
100
AcDbLine
 10
-24.599999988148078
 20
8.1999999999999886
 30
0.0
 11
-23.699999988148072
 21
8.1999999999999886
 31
0.0
  0
LINE
  5
222
100
AcDbEntity
  8
0
  6
CONTINUOUS
 62
               7
100
AcDbLine
 10
-23.699999988148086
 20
7.0
 30
0.0
 11
-23.699999988148072
 21
8.1999999999999886
 31
0.0
  0
LINE
  5
223
100
AcDbEntity
  8
0
  6
CONTINUOUS
 62
               7
100
AcDbLine
 10
-24.59999998814807
 20
7.0
 30
0.0
 11
-24.599999988148078
 21
8.1999999999999886
 31
0.0
  0
LINE
  5
224
100
AcDbEntity
  8
0
  6
CONTINUOUS
 62
               7
100
AcDbLine
 10
-23.699999988148086
 20
7.1000000000000227
 30
0.0
 11
-24.549999988148066
 21
7.1000000000000227
 31
0.0
  0
LINE
  5
225
100
AcDbEntity
  8
0
  6
CONTINUOUS
 62
               7
100
AcDbLine
 10
-23.699999988148072
 20
8.1000000000000227
 30
0.0
 11
-24.54999998814808
 21
8.1000000000000227
 31
0.0
  0
LINE
  5
226
100
AcDbEntity
  8
0
  6
CONTINUOUS
 62
               7
100
AcDbLine
 10
-24.549999988148066
 20
7.1000000000000227
 30
0.0
 11
-24.54999998814808
 21
8.1000000000000227
 31
0.0
  0
LINE
  5
227
100
AcDbEntity
  8
0
  6
CONTINUOUS
 62
               7
100
AcDbLine
 10
-23.849999988148078
 20
7.1000000000000227
 30
0.0
 11
-23.84999998814807
 21
8.1000000000000227
 31
0.0
  0
LINE
  5
228
100
AcDbEntity
  8
0
  6
CONTINUOUS
 62
               7
100
AcDbLine
 10
-23.849999988148078
 20
-4.1000000000000227
 30
0.0
 11
-23.849999988148078
 21
-3.1000000000000227
 31
0.0
  0
LINE
  5
229
100
AcDbEntity
  8
0
  6
CONTINUOUS
 62
               7
100
AcDbLine
 10
-24.54999998814808
 20
-4.1000000000000227
 30
0.0
 11
-24.54999998814808
 21
-3.1000000000000227
 31
0.0
  0
LINE
  5
22A
100
AcDbEntity
  8
0
  6
CONTINUOUS
 62
               7
100
AcDbLine
 10
-23.699999988148086
 20
-3.1000000000000227
 30
0.0
 11
-24.54999998814808
 21
-3.1000000000000227
 31
0.0
  0
LINE
  5
22B
100
AcDbEntity
  8
0
  6
CONTINUOUS
 62
               7
100
AcDbLine
 10
-23.699999988148079
 20
-4.1000000000000227
 30
0.0
 11
-24.54999998814808
 21
-4.1000000000000227
 31
0.0
  0
LINE
  5
22C
100
AcDbEntity
  8
0
  6
CONTINUOUS
 62
               7
100
AcDbLine
 10
-24.599999988148078
 20
-4.1999999999999886
 30
0.0
 11
-24.59999998814807
 21
-3.0
 31
0.0
  0
LINE
  5
22D
100
AcDbEntity
  8
0
  6
CONTINUOUS
 62
               7
100
AcDbLine
 10
-23.699999988148086
 20
-4.1999999999999886
 30
0.0
 11
-23.699999988148086
 21
-3.0
 31
0.0
  0
LINE
  5
22E
100
AcDbEntity
  8
0
  6
CENTER
 62
               2
100
AcDbLine
 10
-28.195856974999181
 20
-6.5
 30
0.0
 11
-30.43544927920842
 21
-6.5
 31
0.0
  0
LINE
  5
22F
100
AcDbEntity
  8
0
  6
CONTINUOUS
 62
               7
100
AcDbLine
 10
-28.79999998814808
 20
-8.0
 30
0.0
 11
-28.79999998814808
 21
-4.8999999999999773
 31
0.0
  0
LINE
  5
230
100
AcDbEntity
  8
0
  6
CONTINUOUS
 62
               7
100
AcDbLine
 10
-28.79999998814808
 20
-4.8999999999999773
 30
0.0
 11
-29.999999988148083
 21
-4.8999999999999773
 31
0.0
  0
LINE
  5
231
100
AcDbEntity
  8
0
  6
CONTINUOUS
 62
               7
100
AcDbLine
 10
-29.999999988148069
 20
-7.4083488490041418
 30
0.0
 11
-29.999999988148069
 21
11.408348849004199
 31
0.0
  0
LINE
  5
232
100
AcDbEntity
  8
0
  6
CONTINUOUS
 62
               7
100
AcDbLine
 10
-22.699999988148079
 20
-8.0
 30
0.0
 11
-22.699999988148079
 21
12.0
 31
0.0
  0
LINE
  5
233
100
AcDbEntity
  8
0
  6
DASHED
 62
               2
100
AcDbLine
 10
17.586856888740428
 20
24.304371310012613
 30
0.0
 11
15.026019100214171
 21
21.743533521486341
 31
0.0
  0
LINE
  5
234
100
AcDbEntity
  8
0
  6
DASHED
 62
               2
100
AcDbLine
 10
20.22325394193529
 20
20.930360723121822
 30
0.0
 11
19.162593770155468
 21
19.869700551341992
 31
0.0
  0
LINE
  5
235
100
AcDbEntity
  8
0
  6
DASHED
 62
               2
100
AcDbLine
 10
17.359471478129784
 20
23.087036405740776
 30
0.0
 11
18.066578259316323
 21
23.087036405740776
 31
0.0
  0
ARC
  5
236
100
AcDbEntity
  8
0
  6
DASHED
 62
               2
100
AcDbCircle
 10
12.194628908040933
 20
19.225717326111607
 30
0.0
 40
7.0277716396203269
100
AcDbArc
 50
20.2546208573625
 51
33.328410201475762
  0
LINE
  5
237
100
AcDbEntity
  8
0
  6
DASHED
 62
               2
100
AcDbLine
 10
18.787827176126598
 20
21.658680707743969
 30
0.0
 11
17.373613613753506
 21
20.244467145370862
 31
0.0
  0
LINE
  5
238
100
AcDbEntity
  8
0
  6
DASHED
 62
               2
100
AcDbLine
 10
18.066578259316323
 20
23.087036405740776
 30
0.0
 11
20.22325394193529
 21
20.930360723121822
 31
0.0
  0
ARC
  5
239
100
AcDbEntity
  8
0
  6
DASHED
 62
               2
100
AcDbCircle
 10
17.511603344245962
 20
17.484020166272472
 30
0.0
 40
4.3653794686807261
100
AcDbArc
 50
51.834711780667043
 51
73.001229803738639
  0
LINE
  5
23A
100
AcDbEntity
  8
0
  6
DASHED
 62
               2
100
AcDbLine
 10
15.556349186104072
 20
21.213203435596427
 30
0.0
 11
15.980613254816006
 21
21.637467504308376
 31
0.0
  0
LINE
  5
23B
100
AcDbEntity
  8
0
  6
DASHED
 62
               2
100
AcDbLine
 10
17.359471478129784
 20
23.087036405740776
 30
0.0
 11
15.945257915756677
 21
21.672822843367697
 31
0.0
  0
CIRCLE
  5
23C
100
AcDbEntity
  8
0
  6
CONTINUOUS
 62
               7
100
AcDbCircle
 10
-0.0000000000000497
 20
22.500000000000057
 30
0.0
 40
1.6499999999999999
  0
CIRCLE
  5
23D
100
AcDbEntity
  8
0
  6
CONTINUOUS
 62
               2
100
AcDbCircle
 10
-0.0000000000000497
 20
22.500000000000057
 30
0.0
 40
2.0
  0
ENDBLK
  5
23E
100
AcDbEntity
  8
0
100
AcDbBlockEnd
  0
BLOCK
  5
23F
100
AcDbEntity
  8
0
100
AcDbBlockBegin
  2
NCT60-4
 70
               0
 10
0.0
 20
0.0
 30
0.0
  3
NCT60-4
  1

  0
LINE
  5
240
100
AcDbEntity
  8
0
  6
CONTINUOUS
 62
               7
100
AcDbLine
 10
-30.400000419646386
 20
-11.300000242783028
 30
0.0
 11
-30.400000419646386
 21
-5.3000002427830282
 31
0.0
  0
LINE
  5
241
100
AcDbEntity
  8
0
  6
CONTINUOUS
 62
               7
100
AcDbLine
 10
-30.400000419646386
 20
-5.3000002427830282
 30
0.0
 11
-30.000000419646387
 21
-5.3000002427830282
 31
0.0
  0
LINE
  5
242
100
AcDbEntity
  8
0
  6
CONTINUOUS
 62
               7
100
AcDbLine
 10
-30.400000419646386
 20
-11.300000242783028
 30
0.0
 11
-30.000000419646387
 21
-11.300000242783028
 31
0.0
  0
LINE
  5
243
100
AcDbEntity
  8
0
  6
CONTINUOUS
 62
               7
100
AcDbLine
 10
-55.122650114581489
 20
-10.500000242783017
 30
0.0
 11
-55.122650114581489
 21
-12.100000242783011
 31
0.0
  0
LINE
  5
244
100
AcDbEntity
  8
0
  6
CONTINUOUS
 62
               7
100
AcDbLine
 10
-55.122650114581489
 20
-7.5000002427830168
 30
0.0
 11
-55.122650114581489
 21
-9.1000002427830111
 31
0.0
  0
LINE
  5
245
100
AcDbEntity
  8
0
  6
CONTINUOUS
 62
               7
100
AcDbLine
 10
-55.122650114581489
 20
-4.5000002427830168
 30
0.0
 11
-55.122650114581489
 21
-6.1000002427830111
 31
0.0
  0
LINE
  5
246
100
AcDbEntity
  8
0
  6
CONTINUOUS
 62
               7
100
AcDbLine
 10
-67.429634267412638
 20
-12.100000243526836
 30
0.0
 11
-67.429634267412638
 21
-10.500000242783017
 31
0.0
  0
LINE
  5
247
100
AcDbEntity
  8
0
  6
CONTINUOUS
 62
               7
100
AcDbLine
 10
-67.629634267412627
 20
-11.600000243526836
 30
0.0
 11
-67.629634267412627
 21
-11.000000243154915
 31
0.0
  0
LINE
  5
248
100
AcDbEntity
  8
0
  6
CONTINUOUS
 62
               7
100
AcDbLine
 10
-67.429634278131232
 20
-11.600000243154909
 30
0.0
 11
-67.629634267412627
 21
-11.600000243154909
 31
0.0
  0
LINE
  5
249
100
AcDbEntity
  8
0
  6
CONTINUOUS
 62
               7
100
AcDbLine
 10
-67.429634278131232
 20
-11.000000243154915
 30
0.0
 11
-67.629634267412627
 21
-11.000000243154915
 31
0.0
  0
LINE
  5
24A
100
AcDbEntity
  8
0
  6
CONTINUOUS
 62
               7
100
AcDbLine
 10
-56.575943971153421
 20
-12.100000243526836
 30
0.0
 11
-56.575943971153421
 21
-10.500000242783017
 31
0.0
  0
LINE
  5
24B
100
AcDbEntity
  8
0
  6
CONTINUOUS
 62
               7
100
AcDbLine
 10
-57.629634267412627
 20
-12.100000243526836
 30
0.0
 11
-57.629634267412627
 21
-10.500000242783017
 31
0.0
  0
LINE
  5
24C
100
AcDbEntity
  8
0
  6
CONTINUOUS
 62
               7
100
AcDbLine
 10
-60.429634267412624
 20
-12.100000243526836
 30
0.0
 11
-60.429634267412624
 21
-10.500000242783017
 31
0.0
  0
LINE
  5
24D
100
AcDbEntity
  8
0
  6
CONTINUOUS
 62
               7
100
AcDbLine
 10
-61.179634267412624
 20
-12.100000243526836
 30
0.0
 11
-61.179634267412624
 21
-10.500000242783017
 31
0.0
  0
LINE
  5
24E
100
AcDbEntity
  8
0
  6
CONTINUOUS
 62
               7
100
AcDbLine
 10
-63.429634267412624
 20
-12.100000243526836
 30
0.0
 11
-63.429634267412624
 21
-10.500000242783017
 31
0.0
  0
LINE
  5
24F
100
AcDbEntity
  8
0
  6
CONTINUOUS
 62
               7
100
AcDbLine
 10
-66.929634267412638
 20
-12.100000243526836
 30
0.0
 11
-66.929634267412638
 21
-10.500000242783017
 31
0.0
  0
LINE
  5
250
100
AcDbEntity
  8
0
  6
CONTINUOUS
 62
               7
100
AcDbLine
 10
-66.929634267412638
 20
-9.1000002435268357
 30
0.0
 11
-66.929634267412638
 21
-7.5000002427830168
 31
0.0
  0
LINE
  5
251
100
AcDbEntity
  8
0
  6
CONTINUOUS
 62
               7
100
AcDbLine
 10
-63.429634267412624
 20
-9.1000002435268357
 30
0.0
 11
-63.429634267412624
 21
-7.5000002427830168
 31
0.0
  0
LINE
  5
252
100
AcDbEntity
  8
0
  6
CONTINUOUS
 62
               7
100
AcDbLine
 10
-61.179634267412624
 20
-9.1000002435268357
 30
0.0
 11
-61.179634267412624
 21
-7.5000002427830168
 31
0.0
  0
LINE
  5
253
100
AcDbEntity
  8
0
  6
CONTINUOUS
 62
               7
100
AcDbLine
 10
-60.429634267412624
 20
-9.1000002435268357
 30
0.0
 11
-60.429634267412624
 21
-7.5000002427830168
 31
0.0
  0
LINE
  5
254
100
AcDbEntity
  8
0
  6
CONTINUOUS
 62
               7
100
AcDbLine
 10
-57.629634267412627
 20
-9.1000002435268357
 30
0.0
 11
-57.629634267412627
 21
-7.5000002427830168
 31
0.0
  0
LINE
  5
255
100
AcDbEntity
  8
0
  6
CONTINUOUS
 62
               7
100
AcDbLine
 10
-56.575943971153421
 20
-9.1000002435268357
 30
0.0
 11
-56.575943971153421
 21
-7.5000002427830168
 31
0.0
  0
LINE
  5
256
100
AcDbEntity
  8
0
  6
CONTINUOUS
 62
               7
100
AcDbLine
 10
-67.429634278131232
 20
-8.0000002431549149
 30
0.0
 11
-67.629634267412627
 21
-8.0000002431549149
 31
0.0
  0
LINE
  5
257
100
AcDbEntity
  8
0
  6
CONTINUOUS
 62
               7
100
AcDbLine
 10
-67.429634278131232
 20
-8.6000002431549092
 30
0.0
 11
-67.629634267412627
 21
-8.6000002431549092
 31
0.0
  0
LINE
  5
258
100
AcDbEntity
  8
0
  6
CONTINUOUS
 62
               7
100
AcDbLine
 10
-67.629634267412627
 20
-8.6000002435268357
 30
0.0
 11
-67.629634267412627
 21
-8.0000002431549149
 31
0.0
  0
LINE
  5
259
100
AcDbEntity
  8
0
  6
CONTINUOUS
 62
               7
100
AcDbLine
 10
-67.429634267412638
 20
-9.1000002435268357
 30
0.0
 11
-67.429634267412638
 21
-7.5000002427830168
 31
0.0
  0
LINE
  5
25A
100
AcDbEntity
  8
0
  6
CONTINUOUS
 62
               7
100
AcDbLine
 10
-66.929634267412638
 20
-6.1000002435268357
 30
0.0
 11
-66.929634267412638
 21
-4.5000002427830168
 31
0.0
  0
LINE
  5
25B
100
AcDbEntity
  8
0
  6
CONTINUOUS
 62
               7
100
AcDbLine
 10
-63.429634267412624
 20
-6.1000002435268357
 30
0.0
 11
-63.429634267412624
 21
-4.5000002427830168
 31
0.0
  0
LINE
  5
25C
100
AcDbEntity
  8
0
  6
CONTINUOUS
 62
               7
100
AcDbLine
 10
-61.179634267412624
 20
-6.1000002435268357
 30
0.0
 11
-61.179634267412624
 21
-4.5000002427830168
 31
0.0
  0
LINE
  5
25D
100
AcDbEntity
  8
0
  6
CONTINUOUS
 62
               7
100
AcDbLine
 10
-60.429634267412624
 20
-6.1000002435268357
 30
0.0
 11
-60.429634267412624
 21
-4.5000002427830168
 31
0.0
  0
LINE
  5
25E
100
AcDbEntity
  8
0
  6
CONTINUOUS
 62
               7
100
AcDbLine
 10
-57.629634267412627
 20
-6.1000002435268357
 30
0.0
 11
-57.629634267412627
 21
-4.5000002427830168
 31
0.0
  0
LINE
  5
25F
100
AcDbEntity
  8
0
  6
CONTINUOUS
 62
               7
100
AcDbLine
 10
-56.575943971153421
 20
-6.1000002435268357
 30
0.0
 11
-56.575943971153421
 21
-4.5000002427830168
 31
0.0
  0
LINE
  5
260
100
AcDbEntity
  8
0
  6
CONTINUOUS
 62
               7
100
AcDbLine
 10
-67.429634278131232
 20
-5.0000002431549149
 30
0.0
 11
-67.629634267412627
 21
-5.0000002431549149
 31
0.0
  0
LINE
  5
261
100
AcDbEntity
  8
0
  6
CONTINUOUS
 62
               7
100
AcDbLine
 10
-67.429634278131232
 20
-5.6000002431549092
 30
0.0
 11
-67.629634267412627
 21
-5.6000002431549092
 31
0.0
  0
LINE
  5
262
100
AcDbEntity
  8
0
  6
CONTINUOUS
 62
               7
100
AcDbLine
 10
-67.629634267412627
 20
-5.6000002435268357
 30
0.0
 11
-67.629634267412627
 21
-5.0000002431549149
 31
0.0
  0
LINE
  5
263
100
AcDbEntity
  8
0
  6
CONTINUOUS
 62
               7
100
AcDbLine
 10
-67.429634267412638
 20
-6.1000002435268357
 30
0.0
 11
-67.429634267412638
 21
-4.5000002427830168
 31
0.0
  0
LINE
  5
264
100
AcDbEntity
  8
0
  6
CONTINUOUS
 62
               7
100
AcDbLine
 10
-67.429634267412638
 20
-4.5000002427830168
 30
0.0
 11
-55.122650114581489
 21
-4.5000002427830168
 31
0.0
  0
LINE
  5
265
100
AcDbEntity
  8
0
  6
CONTINUOUS
 62
               7
100
AcDbLine
 10
-67.429634267412638
 20
-6.1000002427830111
 30
0.0
 11
-55.122650114581489
 21
-6.1000002427830111
 31
0.0
  0
LINE
  5
266
100
AcDbEntity
  8
0
  6
CONTINUOUS
 62
               7
100
AcDbLine
 10
-67.429634267412638
 20
-7.5000002427830168
 30
0.0
 11
-55.122650114581489
 21
-7.5000002427830168
 31
0.0
  0
LINE
  5
267
100
AcDbEntity
  8
0
  6
CONTINUOUS
 62
               7
100
AcDbLine
 10
-67.429634267412638
 20
-9.1000002427830111
 30
0.0
 11
-55.122650114581489
 21
-9.1000002427830111
 31
0.0
  0
LINE
  5
268
100
AcDbEntity
  8
0
  6
CONTINUOUS
 62
               7
100
AcDbLine
 10
-67.429634267412638
 20
-10.500000242783017
 30
0.0
 11
-55.122650114581489
 21
-10.500000242783017
 31
0.0
  0
LINE
  5
269
100
AcDbEntity
  8
0
  6
CONTINUOUS
 62
               7
100
AcDbLine
 10
-67.429634267412638
 20
-12.100000242783011
 30
0.0
 11
-55.122650114581489
 21
-12.100000242783011
 31
0.0
  0
LINE
  5
26A
100
AcDbEntity
  8
0
  6
CONTINUOUS
 62
               7
100
AcDbLine
 10
-42.900000419646382
 20
-9.1500002427830225
 30
0.0
 11
-43.947372486240504
 21
-9.1500002427830225
 31
0.0
  0
ARC
  5
26B
100
AcDbEntity
  8
0
  6
CONTINUOUS
 62
               7
100
AcDbCircle
 10
-51.551368822471289
 20
-6.7000002427830054
 30
0.0
 40
5.0
100
AcDbArc
 50
269.99999999999937
 51
299.99999999999932
  0
ARC
  5
26C
100
AcDbEntity
  8
0
  6
CONTINUOUS
 62
               7
100
AcDbCircle
 10
-51.765728176416182
 20
-5.9000002427830225
 30
0.0
 40
5.0
100
AcDbArc
 50
269.99999999999937
 51
299.99999999999932
  0
ARC
  5
26D
100
AcDbEntity
  8
0
  6
CONTINUOUS
 62
               7
100
AcDbCircle
 10
-51.551368822471289
 20
-9.9000002427830225
 30
0.0
 40
5.0
100
AcDbArc
 50
59.999999999999858
 51
89.999999999999815
  0
ARC
  5
26E
100
AcDbEntity
  8
0
  6
CONTINUOUS
 62
               7
100
AcDbCircle
 10
-51.765728176416182
 20
-10.700000242783005
 30
0.0
 40
5.0
100
AcDbArc
 50
59.999999999999858
 51
89.999999999999815
  0
LINE
  5
26F
100
AcDbEntity
  8
0
  6
CONTINUOUS
 62
               7
100
AcDbLine
 10
-46.473354270097694
 20
-8.6179494352141433
 30
0.0
 11
-49.265728176416182
 21
-10.230127261705206
 31
0.0
  0
LINE
  5
270
100
AcDbEntity
  8
0
  6
CONTINUOUS
 62
               7
100
AcDbLine
 10
-46.258994916152794
 20
-9.4179494352141262
 30
0.0
 11
-49.051368822471289
 21
-11.030127261705218
 31
0.0
  0
LINE
  5
271
100
AcDbEntity
  8
0
  6
CONTINUOUS
 62
               7
100
AcDbLine
 10
-46.473354270097694
 20
-7.9820510503518847
 30
0.0
 11
-49.265728176416182
 21
-6.3698732238608216
 31
0.0
  0
LINE
  5
272
100
AcDbEntity
  8
0
  6
CONTINUOUS
 62
               7
100
AcDbLine
 10
-46.258994916152794
 20
-7.1820510503519017
 30
0.0
 11
-49.051368822471289
 21
-5.5698732238608102
 31
0.0
  0
LINE
  5
273
100
AcDbEntity
  8
0
  6
CONTINUOUS
 62
               7
100
AcDbLine
 10
-55.122650114581489
 20
-10.900000242783022
 30
0.0
 11
-51.765728176416182
 21
-10.900000242783022
 31
0.0
  0
LINE
  5
274
100
AcDbEntity
  8
0
  6
CONTINUOUS
 62
               7
100
AcDbLine
 10
-55.122650114581489
 20
-11.700000242783005
 30
0.0
 11
-51.551368822471289
 21
-11.700000242783005
 31
0.0
  0
LINE
  5
275
100
AcDbEntity
  8
0
  6
CONTINUOUS
 62
               7
100
AcDbLine
 10
-55.122650114581489
 20
-4.9000002427830225
 30
0.0
 11
-51.551368822471289
 21
-4.9000002427830225
 31
0.0
  0
LINE
  5
276
100
AcDbEntity
  8
0
  6
CONTINUOUS
 62
               7
100
AcDbLine
 10
-55.122650114581489
 20
-5.7000002427830054
 30
0.0
 11
-51.765728176416182
 21
-5.7000002427830054
 31
0.0
  0
LINE
  5
277
100
AcDbEntity
  8
0
  6
CONTINUOUS
 62
               7
100
AcDbLine
 10
-44.871132871061178
 20
-9.1500002427830225
 30
0.0
 11
-45.258994916152794
 21
-9.1500002427830225
 31
0.0
  0
LINE
  5
278
100
AcDbEntity
  8
0
  6
CONTINUOUS
 62
               7
100
AcDbLine
 10
-45.333013086070231
 20
-8.3500002427830111
 30
0.0
 11
-45.473354270097687
 21
-8.3500002427830111
 31
0.0
  0
LINE
  5
279
100
AcDbEntity
  8
0
  6
CONTINUOUS
 62
               7
100
AcDbLine
 10
-45.390748112946362
 20
-8.2500002427830168
 30
0.0
 11
-45.473354270097687
 21
-8.2500002427830168
 31
0.0
  0
LINE
  5
27A
100
AcDbEntity
  8
0
  6
CONTINUOUS
 62
               7
100
AcDbLine
 10
-55.122650114581489
 20
-8.7000002427830054
 30
0.0
 11
-46.615470437609041
 21
-8.7000002427830054
 31
0.0
  0
LINE
  5
27B
100
AcDbEntity
  8
0
  6
CONTINUOUS
 62
               7
100
AcDbLine
 10
-55.122650114581489
 20
-7.9000002427830225
 30
0.0
 11
-46.615470437609041
 21
-7.9000002427830225
 31
0.0
  0
ARC
  5
27C
100
AcDbEntity
  8
0
  6
CONTINUOUS
 62
               7
100
AcDbCircle
 10
-45.258994916152794
 20
-11.150000242783022
 30
0.0
 40
2.0
100
AcDbArc
 50
89.999999999999815
 51
119.99999999999973
  0
ARC
  5
27D
100
AcDbEntity
  8
0
  6
CONTINUOUS
 62
               7
100
AcDbCircle
 10
-45.473354270097687
 20
-10.350000242783011
 30
0.0
 40
2.0
100
AcDbArc
 50
89.999999999999815
 51
119.99999999999973
  0
ARC
  5
27E
100
AcDbEntity
  8
0
  6
CONTINUOUS
 62
               7
100
AcDbCircle
 10
-45.473354270097687
 20
-6.2500002427830168
 30
0.0
 40
2.0
100
AcDbArc
 50
239.99999999999946
 51
269.99999999999937
  0
ARC
  5
27F
100
AcDbEntity
  8
0
  6
CONTINUOUS
 62
               7
100
AcDbCircle
 10
-45.258994916152794
 20
-5.4500002427830054
 30
0.0
 40
2.0
100
AcDbArc
 50
239.99999999999943
 51
250.79511110182787
  0
LINE
  5
280
100
AcDbEntity
  8
0
  6
PHANTOM
 62
               2
100
AcDbLine
 10
-44.495855196675087
 20
-9.8000002422482169
 30
0.0
 11
-46.227906002959038
 21
-6.8000002422482169
 31
0.0
  0
LINE
  5
281
100
AcDbEntity
  8
0
  6
CONTINUOUS
 62
               7
100
AcDbLine
 10
-42.900000419646382
 20
-8.3500002427830111
 30
0.0
 11
-44.409252700634831
 21
-8.3500002427830111
 31
0.0
  0
LINE
  5
282
100
AcDbEntity
  8
0
  6
CONTINUOUS
 62
               7
100
AcDbLine
 10
-42.900000419646382
 20
-8.2500002427830168
 30
0.0
 11
-44.466987727434116
 21
-8.2500002427830168
 31
0.0
  0
LINE
  5
283
100
AcDbEntity
  8
0
  6
CONTINUOUS
 62
               7
100
AcDbLine
 10
-42.900000419646382
 20
-7.4500002427830054
 30
0.0
 11
-44.92886794182845
 21
-7.4500002427830054
 31
0.0
  0
LINE
  5
284
100
AcDbEntity
  8
0
  6
PHANTOM
 62
               2
100
AcDbLine
 10
-43.572094812353875
 20
-9.8000002422482169
 30
0.0
 11
-45.304145633538987
 21
-6.8000002124458945
 31
0.0
  0
LINE
  5
285
100
AcDbEntity
  8
0
  6
CONTINUOUS
 62
               7
100
AcDbLine
 10
-42.900000419646382
 20
-9.6000002427830111
 30
0.0
 11
-42.900000419646382
 21
-7.0000002427830168
 31
0.0
  0
LINE
  5
286
100
AcDbEntity
  8
0
  6
CONTINUOUS
 62
               7
100
AcDbLine
 10
-41.362435969854069
 20
-7.0000002427830168
 30
0.0
 11
-42.900000419646382
 21
-7.0000002427830168
 31
0.0
  0
LINE
  5
287
100
AcDbEntity
  8
0
  6
PHANTOM
 62
               2
100
AcDbLine
 10
-39.514915108045358
 20
-10.200000248208681
 30
0.0
 11
-41.708846151193399
 21
-6.40000020648543
 31
0.0
  0
LINE
  5
288
100
AcDbEntity
  8
0
  6
CONTINUOUS
 62
               7
100
AcDbLine
 10
-39.861325269961043
 20
-9.6000002427830111
 30
0.0
 11
-42.900000419646382
 21
-9.6000002427830111
 31
0.0
  0
LINE
  5
289
100
AcDbEntity
  8
0
  6
CONTINUOUS
 62
               7
100
AcDbLine
 10
-32.900000419646382
 20
-10.050000242783028
 30
0.0
 11
-31.900000419646386
 21
-10.050000242783028
 31
0.0
  0
LINE
  5
28A
100
AcDbEntity
  8
0
  6
CONTINUOUS
 62
               7
100
AcDbLine
 10
-32.900000419646382
 20
-6.5500002427830282
 30
0.0
 11
-31.900000419646386
 21
-6.5500002427830282
 31
0.0
  0
LINE
  5
28B
100
AcDbEntity
  8
0
  6
CONTINUOUS
 62
               7
100
AcDbLine
 10
-35.400000419646382
 20
-10.050000242783028
 30
0.0
 11
-34.400000419646382
 21
-10.050000242783028
 31
0.0
  0
LINE
  5
28C
100
AcDbEntity
  8
0
  6
CONTINUOUS
 62
               7
100
AcDbLine
 10
-35.400000419646382
 20
-6.5500002427830282
 30
0.0
 11
-34.400000419646382
 21
-6.5500002427830282
 31
0.0
  0
LINE
  5
28D
100
AcDbEntity
  8
0
  6
CONTINUOUS
 62
               7
100
AcDbLine
 10
-34.400000419646382
 20
-10.728571671354445
 30
0.0
 11
-32.900000419646382
 21
-10.942857385640167
 31
0.0
  0
LINE
  5
28E
100
AcDbEntity
  8
0
  6
CONTINUOUS
 62
               7
100
AcDbLine
 10
-34.400000419646382
 20
-5.8714288142115834
 30
0.0
 11
-32.900000419646382
 21
-5.657143099925861
 31
0.0
  0
LINE
  5
28F
100
AcDbEntity
  8
0
  6
CONTINUOUS
 62
               7
100
AcDbLine
 10
-31.900000419646386
 20
-11.085714528497306
 30
0.0
 11
-31.900000419646386
 21
-5.5142859570687222
 31
0.0
  0
LINE
  5
290
100
AcDbEntity
  8
0
  6
CONTINUOUS
 62
               7
100
AcDbLine
 10
-32.900000419646382
 20
-10.942857385640167
 30
0.0
 11
-32.900000419646382
 21
-5.657143099925861
 31
0.0
  0
LINE
  5
291
100
AcDbEntity
  8
0
  6
CONTINUOUS
 62
               7
100
AcDbLine
 10
-34.400000419646382
 20
-10.728571671354445
 30
0.0
 11
-34.400000419646382
 21
-5.8714288142115834
 31
0.0
  0
LINE
  5
292
100
AcDbEntity
  8
0
  6
CONTINUOUS
 62
               7
100
AcDbLine
 10
-35.400000419646382
 20
-10.585714528497306
 30
0.0
 11
-35.400000419646382
 21
-6.0142859570687222
 31
0.0
  0
LINE
  5
293
100
AcDbEntity
  8
0
  6
CONTINUOUS
 62
               7
100
AcDbLine
 10
-37.400000419646382
 20
-10.300000242783028
 30
0.0
 11
-35.400000419646382
 21
-10.585714528497306
 31
0.0
  0
LINE
  5
294
100
AcDbEntity
  8
0
  6
CONTINUOUS
 62
               7
100
AcDbLine
 10
-37.400000419646382
 20
-6.3000002427830282
 30
0.0
 11
-35.400000419646382
 21
-6.0142859570687222
 31
0.0
  0
LINE
  5
295
100
AcDbEntity
  8
0
  6
CONTINUOUS
 62
               7
100
AcDbLine
 10
-37.400000419646382
 20
-10.300000242783028
 30
0.0
 11
-37.400000419646382
 21
-6.3000002427830282
 31
0.0
  0
LINE
  5
296
100
AcDbEntity
  8
0
  6
CONTINUOUS
 62
               7
100
AcDbLine
 10
-37.400000419646382
 20
-9.6000002427830111
 30
0.0
 11
-38.937564870738669
 21
-9.6000002427830111
 31
0.0
  0
LINE
  5
297
100
AcDbEntity
  8
0
  6
CONTINUOUS
 62
               7
100
AcDbLine
 10
-37.400000419646382
 20
-7.0000002427830168
 30
0.0
 11
-40.438675570631695
 21
-7.0000002427830168
 31
0.0
  0
LINE
  5
298
100
AcDbEntity
  8
0
  6
PHANTOM
 62
               2
100
AcDbLine
 10
-38.591154708822984
 20
-10.200000218406359
 30
0.0
 11
-40.785085737069863
 21
-6.40000020648543
 31
0.0
  0
LINE
  5
299
100
AcDbEntity
  8
0
  6
CONTINUOUS
 62
               7
100
AcDbLine
 10
-31.900000419646386
 20
-5.5142859570687222
 30
0.0
 11
-30.400000419646386
 21
-5.3000002427830282
 31
0.0
  0
LINE
  5
29A
100
AcDbEntity
  8
0
  6
CONTINUOUS
 62
               7
100
AcDbLine
 10
-31.900000419646386
 20
-11.085714528497306
 30
0.0
 11
-30.400000419646386
 21
-11.300000242783028
 31
0.0
  0
LINE
  5
29B
100
AcDbEntity
  8
0
  6
CENTER
 62
               2
100
AcDbLine
 10
-42.900000419646382
 20
-8.3000002427830282
 30
0.0
 11
-28.800000419646384
 21
-8.3000002427830282
 31
0.0
  0
LINE
  5
29C
100
AcDbEntity
  8
0
  6
CONTINUOUS
 62
               7
100
AcDbLine
 10
-28.900000398764039
 20
-9.0000002427830452
 30
0.0
 11
-28.800000419646398
 21
-9.0000002427830452
 31
0.0
  0
LINE
  5
29D
100
AcDbEntity
  8
0
  6
CONTINUOUS
 62
               7
100
AcDbLine
 10
-29.182320703746878
 20
-11.912668701942948
 30
0.0
 11
-29.504363687395585
 21
-11.908330053319304
 31
0.0
  0
ARC
  5
29E
100
AcDbEntity
  8
0
  6
CONTINUOUS
 62
               7
100
AcDbCircle
 10
-28.9000004196464
 20
-9.5000002427830452
 30
0.0
 40
0.5
100
AcDbArc
 50
89.999999999999815
 51
179.99999999999969
  0
ARC
  5
29F
100
AcDbEntity
  8
0
  6
CONTINUOUS
 62
               7
100
AcDbCircle
 10
-28.9000004196464
 20
-11.500000242783045
 30
0.0
 40
0.5
100
AcDbArc
 50
179.99999999999963
 51
269.99999999999937
  0
LINE
  5
2A0
100
AcDbEntity
  8
0
  6
CONTINUOUS
 62
               7
100
AcDbLine
 10
-28.800000419646398
 20
-12.000000242783045
 30
0.0
 11
-28.9000004196464
 21
-12.000000242783045
 31
0.0
  0
LINE
  5
2A1
100
AcDbEntity
  8
0
  6
CONTINUOUS
 62
               7
100
AcDbLine
 10
-29.4000004196464
 20
-11.500000242783045
 30
0.0
 11
-29.400000419646393
 21
-9.5000002427830452
 31
0.0
  0
LINE
  5
2A2
100
AcDbEntity
  8
0
  6
CONTINUOUS
 62
               7
100
AcDbLine
 10
-30.000000419646387
 20
-11.408349091787187
 30
0.0
 11
-30.000000419646387
 21
7.4083486062211534
 31
0.0
  0
LINE
  5
2A3
100
AcDbEntity
  8
0
  6
CONTINUOUS
 62
               7
100
AcDbLine
 10
-28.800000419646398
 20
-8.9000002427830225
 30
0.0
 11
-30.000000419646387
 21
-8.9000002427830225
 31
0.0
  0
LINE
  5
2A4
100
AcDbEntity
  8
0
  6
CONTINUOUS
 62
               7
100
AcDbLine
 10
-28.800000419646384
 20
-12.000000242783045
 30
0.0
 11
-28.800000419646398
 21
-8.9000002427830225
 31
0.0
  0
LINE
  5
2A5
100
AcDbEntity
  8
0
  6
CENTER
 62
               2
100
AcDbLine
 10
-28.195857406497485
 20
-10.500000242783045
 30
0.0
 11
-30.435449710706738
 21
-10.500000242783045
 31
0.0
  0
ARC
  5
2A6
100
AcDbEntity
  8
0
  6
CONTINUOUS
 62
               7
100
AcDbCircle
 10
-29.500000419646387
 20
-11.408349091787159
 30
0.0
 40
0.5
100
AcDbArc
 50
179.99999999999963
 51
269.49999999999915
  0
ARC
  5
2A7
100
AcDbEntity
  8
0
  6
CONTINUOUS
 62
               7
100
AcDbCircle
 10
-29.500000419646387
 20
7.4083486062211819
 30
0.0
 40
0.5
100
AcDbArc
 50
90.499999999999659
 51
179.99999999999963
  0
LINE
  5
2A8
100
AcDbEntity
  8
0
  6
CONTINUOUS
 62
               7
100
AcDbLine
 10
-27.523725403548386
 20
-11.935013738418832
 30
0.0
 11
-28.800000419646384
 21
-11.917819422370485
 31
0.0
  0
LINE
  5
2A9
100
AcDbEntity
  8
0
  6
CONTINUOUS
 62
               7
100
AcDbLine
 10
-28.936781305899519
 20
7.9159761883701663
 30
0.0
 11
-29.504363687395571
 21
7.9083295677532703
 31
0.0
  0
CIRCLE
  5
2AA
100
AcDbEntity
  8
0
  6
CONTINUOUS
 62
               4
100
AcDbCircle
 10
-13.350000035385531
 20
-23.122878731924914
 30
0.0
 40
3.0
  0
CIRCLE
  5
2AB
100
AcDbEntity
  8
0
  6
CONTINUOUS
 62
               4
100
AcDbCircle
 10
-13.349999780732769
 20
23.122877906732299
 30
0.0
 40
3.0
  0
CIRCLE
  5
2AC
100
AcDbEntity
  8
0
  6
CONTINUOUS
 62
               4
100
AcDbCircle
 10
26.700000025630867
 20
-0.0000002427830736
 30
0.0
 40
3.0
  0
ARC
  5
2AD
100
AcDbEntity
  8
0
  6
CONTINUOUS
 62
               7
100
AcDbCircle
 10
0.0000001155269551
 20
-0.0000002187599648
 30
0.0
 40
25.0
100
AcDbArc
 50
5.4838224868671492
 51
114.51617727486497
  0
ARC
  5
2AE
100
AcDbEntity
  8
0
  6
CONTINUOUS
 62
               7
100
AcDbCircle
 10
0.0000001155269551
 20
-0.0000002187599648
 30
0.0
 40
25.0
100
AcDbArc
 50
245.88629834955327
 51
354.51617740352231
  0
CIRCLE
  5
2AF
100
AcDbEntity
  8
0
  6
CENTER
 62
               2
100
AcDbCircle
 10
0.0000000256308716
 20
-0.0000004861082346
 30
0.0
 40
26.699999999999999
  0
LINE
  5
2B0
100
AcDbEntity
  8
0
  6
CENTER
 62
               2
100
AcDbLine
 10
-15.999999919159027
 20
-27.712813171415689
 30
0.0
 11
0.0000000704304419
 21
-0.0000002638564638
 31
0.0
  0
LINE
  5
2B1
100
AcDbEntity
  8
0
  6
CENTER
 62
               2
100
AcDbLine
 10
-15.999999866475463
 20
27.712812696386266
 30
0.0
 11
0.0000000915038676
 21
-0.0000001584893425
 31
0.0
  0
CIRCLE
  5
2B2
100
AcDbEntity
  8
0
  6
CONTINUOUS
 62
               7
100
AcDbCircle
 10
0.0000000000000036
 20
-0.0000005457128793
 30
0.0
 40
13.0
  0
CIRCLE
  5
2B3
100
AcDbEntity
  8
0
  6
CONTINUOUS
 62
               7
100
AcDbCircle
 10
0.0000000000000036
 20
-0.0000005457128509
 30
0.0
 40
15.672620946911177
  0
ARC
  5
2B4
100
AcDbEntity
  8
0
  6
CONTINUOUS
 62
               7
100
AcDbCircle
 10
0.0000001155269551
 20
-0.0000002187599648
 30
0.0
 40
25.0
100
AcDbArc
 50
125.48382267335117
 51
234.51617802401051
  0
CIRCLE
  5
2B5
100
AcDbEntity
  8
0
  6
CONTINUOUS
 62
               7
100
AcDbCircle
 10
0.0000000000000036
 20
-0.0000005457128793
 30
0.0
 40
30.0
  0
LINE
  5
2B6
100
AcDbEntity
  8
0
  6
CENTER
 62
               2
100
AcDbLine
 10
31.999999995828542
 20
-0.0000005457128793
 30
0.0
 11
-32.000000004171447
 21
-0.0000005457128793
 31
0.0
  0
LINE
  5
2B7
100
AcDbEntity
  8
0
  6
CENTER
 62
               2
100
AcDbLine
 10
0.0000000000000036
 20
-32.000000545712908
 30
0.0
 11
-0.0000000000000036
 21
31.999999454287121
 31
0.0
  0
ENDBLK
  5
2B8
100
AcDbEntity
  8
0
100
AcDbBlockEnd
  0
BLOCK
  5
2B9
100
AcDbEntity
  8
0
100
AcDbBlockBegin
  2
NCT60-5
 70
               0
 10
0.0
 20
0.0
 30
0.0
  3
NCT60-5
  1

  0
ARC
  5
2BA
100
AcDbEntity
  8
0
  6
CONTINUOUS
 62
               7
100
AcDbCircle
 10
21.213203435596427
 20
-7.0
 30
0.0
 40
4.0
100
AcDbArc
 50
301.26477035796779
 51
358.7352296420309
  0
ARC
  5
2BB
100
AcDbEntity
  8
0
  6
CONTINUOUS
 62
               7
100
AcDbCircle
 10
21.213203435596427
 20
-7.0
 30
0.0
 40
4.0
100
AcDbArc
 50
241.2647703579683
 51
298.73522964203056
  0
ARC
  5
2BC
100
AcDbEntity
  8
0
  6
CONTINUOUS
 62
               7
100
AcDbCircle
 10
21.213203435596427
 20
-7.0
 30
0.0
 40
4.0
100
AcDbArc
 50
181.26477035796773
 51
238.73522964203116
  0
ARC
  5
2BD
100
AcDbEntity
  8
0
  6
CONTINUOUS
 62
               7
100
AcDbCircle
 10
21.213203435596427
 20
-7.0
 30
0.0
 40
4.0
100
AcDbArc
 50
121.26477035796792
 51
178.73522964203138
  0
ARC
  5
2BE
100
AcDbEntity
  8
0
  6
CONTINUOUS
 62
               7
100
AcDbCircle
 10
21.213203435596427
 20
-7.0
 30
0.0
 40
4.0
100
AcDbArc
 50
61.264770357968032
 51
118.73522964203177
  0
ARC
  5
2BF
100
AcDbEntity
  8
0
  6
CONTINUOUS
 62
               7
100
AcDbCircle
 10
21.213203435596427
 20
-7.0
 30
0.0
 40
4.0
100
AcDbArc
 50
1.2647703579682756
 51
58.735229642031562
  0
LINE
  5
2C0
100
AcDbEntity
  8
0
  6
CENTER
 62
               2
100
AcDbLine
 10
0.0
 20
2.0
 30
0.0
 11
0.0
 21
-19.0
 31
0.0
  0
ARC
  5
2C1
100
AcDbEntity
  8
0
  6
CONTINUOUS
 62
               7
100
AcDbCircle
 10
21.213203435596427
 20
-7.0
 30
0.0
 40
3.5074028853269792
100
AcDbArc
 50
99.849847730174503
 51
260.15015226982462
  0
ARC
  5
2C2
100
AcDbEntity
  8
0
  6
CONTINUOUS
 62
               7
100
AcDbCircle
 10
21.213203435596427
 20
-7.0
 30
0.0
 40
3.5074028853269792
100
AcDbArc
 50
279.84984773017413
 51
80.150152269825071
  0
LINE
  5
2C3
100
AcDbEntity
  8
0
  6
CONTINUOUS
 62
               7
100
AcDbLine
 10
20.613203435596404
 20
-3.4925971146730319
 30
0.0
 11
20.613203435596404
 21
-10.507402885326997
 31
0.0
  0
LINE
  5
2C4
100
AcDbEntity
  8
0
  6
CONTINUOUS
 62
               7
100
AcDbLine
 10
21.813203435596449
 20
-3.4925971146730319
 30
0.0
 11
21.813203435596449
 21
-10.507402885326997
 31
0.0
  0
LINE
  5
2C5
100
AcDbEntity
  8
0
  6
CONTINUOUS
 62
               7
100
AcDbLine
 10
23.238203435596404
 20
-3.4925971146730319
 30
0.0
 11
19.188203435596392
 21
-3.4925971146730319
 31
0.0
  0
LINE
  5
2C6
100
AcDbEntity
  8
0
  6
CONTINUOUS
 62
               7
100
AcDbLine
 10
25.263203435596438
 20
-7.0
 30
0.0
 11
23.238203435596404
 21
-3.4925971146730319
 31
0.0
  0
LINE
  5
2C7
100
AcDbEntity
  8
0
  6
CONTINUOUS
 62
               7
100
AcDbLine
 10
23.238203435596404
 20
-10.507402885326997
 30
0.0
 11
25.263203435596438
 21
-7.0
 31
0.0
  0
LINE
  5
2C8
100
AcDbEntity
  8
0
  6
CONTINUOUS
 62
               7
100
AcDbLine
 10
19.188203435596449
 20
-10.507402885326997
 30
0.0
 11
23.238203435596404
 21
-10.507402885326997
 31
0.0
  0
LINE
  5
2C9
100
AcDbEntity
  8
0
  6
CONTINUOUS
 62
               7
100
AcDbLine
 10
17.163203435596415
 20
-7.0
 30
0.0
 11
19.188203435596449
 21
-10.507402885326997
 31
0.0
  0
LINE
  5
2CA
100
AcDbEntity
  8
0
  6
CONTINUOUS
 62
               7
100
AcDbLine
 10
19.188203435596392
 20
-3.4925971146730319
 30
0.0
 11
17.163203435596415
 21
-7.0
 31
0.0
  0
CIRCLE
  5
2CB
100
AcDbEntity
  8
0
  6
CONTINUOUS
 62
               7
100
AcDbCircle
 10
21.213203435596427
 20
-7.0
 30
0.0
 40
4.75
  0
LINE
  5
2CC
100
AcDbEntity
  8
0
  6
CENTER
 62
               2
100
AcDbLine
 10
21.213203435596427
 20
-0.799999999999983
 30
0.0
 11
21.213203435596427
 21
-13.199999999999989
 31
0.0
  0
LINE
  5
2CD
100
AcDbEntity
  8
0
  6
CONTINUOUS
 62
               7
100
AcDbLine
 10
29.0
 20
0.0
 30
0.0
 11
30.0
 21
-1.0
 31
0.0
  0
LINE
  5
2CE
100
AcDbEntity
  8
0
  6
CONTINUOUS
 62
               7
100
AcDbLine
 10
29.800000000000011
 20
-17.0
 30
0.0
 11
-29.799999999999983
 21
-17.0
 31
0.0
  0
LINE
  5
2CF
100
AcDbEntity
  8
0
  6
CENTER
 62
               2
100
AcDbLine
 10
27.413203435596415
 20
-7.0
 30
0.0
 11
15.013203435596438
 21
-7.0
 31
0.0
  0
LINE
  5
2D0
100
AcDbEntity
  8
0
  6
CONTINUOUS
 62
               7
100
AcDbLine
 10
30.0
 20
-1.0
 30
0.0
 11
30.0
 21
-16.799999999999983
 31
0.0
  0
LINE
  5
2D1
100
AcDbEntity
  8
0
  6
CONTINUOUS
 62
               7
100
AcDbLine
 10
29.0
 20
0.0
 30
0.0
 11
-18.999999999999972
 21
0.0
 31
0.0
  0
LINE
  5
2D2
100
AcDbEntity
  8
0
  6
CONTINUOUS
 62
               7
100
AcDbLine
 10
30.0
 20
-1.0
 30
0.0
 11
-18.999999999999972
 21
-1.0
 31
0.0
  0
LINE
  5
2D3
100
AcDbEntity
  8
0
  6
CONTINUOUS
 62
               7
100
AcDbLine
 10
-18.999999999999972
 20
-0.0000000091128811
 30
0.0
 11
-18.999999999999972
 21
-11.000000009112881
 31
0.0
  0
LINE
  5
2D4
100
AcDbEntity
  8
0
  6
CENTER
 62
               2
100
AcDbLine
 10
-28.195856986851084
 20
-2.0
 30
0.0
 11
-30.399999999999977
 21
-2.0
 31
0.0
  0
ARC
  5
2D5
100
AcDbEntity
  8
0
  6
CONTINUOUS
 62
               7
100
AcDbCircle
 10
-29.499999999999972
 20
-1.0916511509958582
 30
0.0
 40
0.5
100
AcDbArc
 50
90.500000000000171
 51
179.99999999999963
  0
LINE
  5
2D6
100
AcDbEntity
  8
0
  6
CONTINUOUS
 62
               7
100
AcDbLine
 10
-22.699999999999989
 20
-0.5
 30
0.0
 11
-18.999999999999972
 21
-0.532289410825797
 31
0.0
  0
LINE
  5
2D7
100
AcDbEntity
  8
0
  6
CONTINUOUS
 62
               7
100
AcDbLine
 10
-22.699999999999989
 20
-0.5
 30
0.0
 11
-28.799999999999983
 21
-0.5821808204125603
 31
0.0
  0
LINE
  5
2D8
100
AcDbEntity
  8
0
  6
CONTINUOUS
 62
               7
100
AcDbLine
 10
-28.799999999999983
 20
-3.6000000000000227
 30
0.0
 11
-29.999999999999972
 21
-3.6000000000000227
 31
0.0
  0
LINE
  5
2D9
100
AcDbEntity
  8
0
  6
CENTER
 62
               2
100
AcDbLine
 10
-17.855588219247181
 20
-5.5
 30
0.0
 11
-31.999999999999972
 21
-5.5
 31
0.0
  0
LINE
  5
2DA
100
AcDbEntity
  8
0
  6
CONTINUOUS
 62
               7
100
AcDbLine
 10
-22.699999999999989
 20
-10.500000001673413
 30
0.0
 11
-29.50436326774917
 21
-10.408329812209672
 31
0.0
  0
ARC
  5
2DB
100
AcDbEntity
  8
0
  6
CONTINUOUS
 62
               7
100
AcDbCircle
 10
-29.499999999999972
 20
-9.9083488506775552
 30
0.0
 40
0.5
100
AcDbArc
 50
179.99999999999963
 51
269.49999999999909
  0
LINE
  5
2DC
100
AcDbEntity
  8
0
  6
CONTINUOUS
 62
               7
100
AcDbLine
 10
-22.699999999999989
 20
-10.500000001673413
 30
0.0
 11
-18.999999999999972
 21
-10.467710590847616
 31
0.0
  0
LINE
  5
2DD
100
AcDbEntity
  8
0
  6
CONTINUOUS
 62
               7
100
AcDbLine
 10
-28.799999999999983
 20
-3.6000000000000227
 30
0.0
 11
-28.799999999999983
 21
-0.5
 31
0.0
  0
LINE
  5
2DE
100
AcDbEntity
  8
0
  6
CONTINUOUS
 62
               7
100
AcDbLine
 10
-29.999999999999972
 20
-9.9083488506775552
 30
0.0
 11
-29.999999999999972
 21
-1.0916511509958582
 31
0.0
  0
LINE
  5
2DF
100
AcDbEntity
  8
0
  6
CONTINUOUS
 62
               7
100
AcDbLine
 10
-22.699999999999989
 20
-10.500000001673413
 30
0.0
 11
-22.699999999999989
 21
-0.5
 31
0.0
  0
LINE
  5
2E0
100
AcDbEntity
  8
0
  6
CONTINUOUS
 62
               7
100
AcDbLine
 10
-30.0
 20
-11.0
 30
0.0
 11
-30.0
 21
-16.799999999999983
 31
0.0
  0
LINE
  5
2E1
100
AcDbEntity
  8
0
  6
CONTINUOUS
 62
               7
100
AcDbLine
 10
-30.0
 20
-11.0
 30
0.0
 11
-18.999999999999972
 21
-11.0
 31
0.0
  0
LINE
  5
2E2
100
AcDbEntity
  8
0
  6
CENTER
 62
             200
100
AcDbLine
 10
26.700000133660694
 20
-13.999999997392536
 30
0.0
 11
26.700000133660694
 21
-20.0
 31
0.0
  0
LINE
  5
2E3
100
AcDbEntity
  8
0
  6
CONTINUOUS
 62
               4
100
AcDbLine
 10
23.70000013295288
 20
-17.0
 30
0.0
 11
23.70000013295288
 21
-18.0
 31
0.0
  0
LINE
  5
2E4
100
AcDbEntity
  8
0
  6
CONTINUOUS
 62
               4
100
AcDbLine
 10
29.70000013295288
 20
-17.0
 30
0.0
 11
29.70000013295288
 21
-18.0
 31
0.0
  0
LINE
  5
2E5
100
AcDbEntity
  8
0
  6
CONTINUOUS
 62
               4
100
AcDbLine
 10
29.70000013295288
 20
-18.0
 30
0.0
 11
23.70000013295288
 21
-18.0
 31
0.0
  0
LINE
  5
2E6
100
AcDbEntity
  8
0
  6
CONTINUOUS
 62
               7
100
AcDbLine
 10
30.0
 20
-16.799999999999983
 30
0.0
 11
29.800000000000011
 21
-17.0
 31
0.0
  0
LINE
  5
2E7
100
AcDbEntity
  8
0
  6
CONTINUOUS
 62
               7
100
AcDbLine
 10
-30.0
 20
-16.799999999999983
 30
0.0
 11
-29.799999999999983
 21
-17.0
 31
0.0
  0
LINE
  5
2E8
100
AcDbEntity
  8
0
  6
CONTINUOUS
 62
               7
100
AcDbLine
 10
-30.0
 20
-16.799999999999983
 30
0.0
 11
30.0
 21
-16.799999999999983
 31
0.0
  0
LINE
  5
2E9
100
AcDbEntity
  8
0
  6
CENTER
 62
             200
100
AcDbLine
 10
-13.349999672702978
 20
-13.999999997392536
 30
0.0
 11
-13.349999672702978
 21
-20.0
 31
0.0
  0
LINE
  5
2EA
100
AcDbEntity
  8
0
  6
CONTINUOUS
 62
               4
100
AcDbLine
 10
-16.349999673410821
 20
-17.0
 30
0.0
 11
-16.349999673410821
 21
-18.0
 31
0.0
  0
LINE
  5
2EB
100
AcDbEntity
  8
0
  6
CONTINUOUS
 62
               4
100
AcDbLine
 10
-10.349999673410821
 20
-17.0
 30
0.0
 11
-10.349999673410821
 21
-18.0
 31
0.0
  0
LINE
  5
2EC
100
AcDbEntity
  8
0
  6
CONTINUOUS
 62
               4
100
AcDbLine
 10
-10.349999673410821
 20
-18.0
 30
0.0
 11
-16.349999673410821
 21
-18.0
 31
0.0
  0
LINE
  5
2ED
100
AcDbEntity
  8
0
  6
CENTER
 62
               2
100
AcDbLine
 10
-26.400000000000034
 20
-9.099999978533674
 30
0.0
 11
-26.400000000000034
 21
0.900000021466326
 31
0.0
  0
LINE
  5
2EE
100
AcDbEntity
  8
0
  6
CENTER
 62
               2
100
AcDbLine
 10
-31.399999971986688
 20
-4.1000000000000227
 30
0.0
 11
-21.399999971986688
 21
-4.0999999999999943
 31
0.0
  0
CIRCLE
  5
2EF
100
AcDbEntity
  8
0
  6
DASHED
 62
               2
100
AcDbCircle
 10
-26.400000000000034
 20
-4.1000000000000227
 30
0.0
 40
3.0
  0
LINE
  5
2F0
100
AcDbEntity
  8
0
  6
CONTINUOUS
 62
               7
100
AcDbLine
 10
-29.399999999999977
 20
-3.0
 30
0.0
 11
-29.399999999999977
 21
-1.0
 31
0.0
  0
LINE
  5
2F1
100
AcDbEntity
  8
0
  6
CONTINUOUS
 62
               7
100
AcDbLine
 10
-28.799999999999983
 20
-0.5
 30
0.0
 11
-28.899999999999977
 21
-0.5
 31
0.0
  0
ARC
  5
2F2
100
AcDbEntity
  8
0
  6
CONTINUOUS
 62
               7
100
AcDbCircle
 10
-28.899999999999977
 20
-1.0
 30
0.0
 40
0.5
100
AcDbArc
 50
89.999999999999815
 51
179.99999999999963
  0
ARC
  5
2F3
100
AcDbEntity
  8
0
  6
CONTINUOUS
 62
               7
100
AcDbCircle
 10
-28.899999999999977
 20
-3.0
 30
0.0
 40
0.5
100
AcDbArc
 50
179.99999999999963
 51
269.99999999999937
  0
LINE
  5
2F4
100
AcDbEntity
  8
0
  6
CONTINUOUS
 62
               7
100
AcDbLine
 10
-28.799999999999983
 20
-3.5
 30
0.0
 11
-28.899999999999977
 21
-3.5
 31
0.0
  0
LINE
  5
2F5
100
AcDbEntity
  8
0
  6
CONTINUOUS
 62
               7
100
AcDbLine
 10
-29.182320284100456
 20
-0.5873315408400686
 30
0.0
 11
-29.50436326774917
 21
-0.5916701894637413
 31
0.0
  0
ENDBLK
  5
2F6
100
AcDbEntity
  8
0
100
AcDbBlockEnd
  0
BLOCK
  5
2F7
100
AcDbEntity
  8
0
100
AcDbBlockBegin
  2
NCT60-6
 70
               0
 10
0.0
 20
0.0
 30
0.0
  3
NCT60-6
  1

  0
LINE
  5
2F8
100
AcDbEntity
  8
0
  6
DASHED
 62
               2
100
AcDbLine
 10
19.162593770155411
 20
19.869700551341992
 30
0.0
 11
19.869700551341964
 21
19.162593770155439
 31
0.0
  0
LINE
  5
2F9
100
AcDbEntity
  8
0
  6
DASHED
 62
               2
100
AcDbLine
 10
20.223253941935241
 20
20.930360723121822
 30
0.0
 11
19.162593770155411
 21
19.869700551341992
 31
0.0
  0
LINE
  5
2FA
100
AcDbEntity
  8
0
  6
DASHED
 62
               2
100
AcDbLine
 10
17.359471478129706
 20
23.087036405740776
 30
0.0
 11
18.066578259316259
 21
23.087036405740776
 31
0.0
  0
ARC
  5
2FB
100
AcDbEntity
  8
0
  6
DASHED
 62
               2
100
AcDbCircle
 10
12.194628908040841
 20
19.225717326111607
 30
0.0
 40
7.0277716396203269
100
AcDbArc
 50
20.2546208573625
 51
33.328410201475762
  0
LINE
  5
2FC
100
AcDbEntity
  8
0
  6
DASHED
 62
               2
100
AcDbLine
 10
18.787827176126541
 20
21.658680707743969
 30
0.0
 11
17.373613613753434
 21
20.244467145370862
 31
0.0
  0
LINE
  5
2FD
100
AcDbEntity
  8
0
  6
DASHED
 62
               2
100
AcDbLine
 10
18.066578259316259
 20
23.087036405740776
 30
0.0
 11
20.223253941935241
 21
20.930360723121822
 31
0.0
  0
ARC
  5
2FE
100
AcDbEntity
  8
0
  6
DASHED
 62
               2
100
AcDbCircle
 10
17.511603344245884
 20
17.484020166272472
 30
0.0
 40
4.3653794686807261
100
AcDbArc
 50
51.834711780667043
 51
73.001229803738639
  0
LINE
  5
2FF
100
AcDbEntity
  8
0
  6
DASHED
 62
               2
100
AcDbLine
 10
15.556349186104001
 20
21.213203435596427
 30
0.0
 11
15.980613254815921
 21
21.637467504308376
 31
0.0
  0
LINE
  5
300
100
AcDbEntity
  8
0
  6
DASHED
 62
               2
100
AcDbLine
 10
17.359471478129706
 20
23.087036405740776
 30
0.0
 11
15.945257915756599
 21
21.672822843367697
 31
0.0
  0
LINE
  5
301
100
AcDbEntity
  8
0
  6
DASHED
 62
               2
100
AcDbLine
 10
23.087036405740776
 20
17.359471478129763
 30
0.0
 11
21.672822843367669
 21
15.945257915756656
 31
0.0
  0
LINE
  5
302
100
AcDbEntity
  8
0
  6
DASHED
 62
               2
100
AcDbLine
 10
23.087036405740776
 20
18.066578259316316
 30
0.0
 11
23.087036405740776
 21
17.359471478129763
 31
0.0
  0
ARC
  5
303
100
AcDbEntity
  8
0
  6
DASHED
 62
               2
100
AcDbCircle
 10
19.22501270419508
 20
12.193233480323954
 30
0.0
 40
7.0293247160888015
100
AcDbArc
 50
56.673040373502339
 51
69.743928567659154
  0
LINE
  5
304
100
AcDbEntity
  8
0
  6
DASHED
 62
               2
100
AcDbLine
 10
21.65868070774394
 20
18.787827176126569
 30
0.0
 11
20.244467145370834
 21
17.373613613753491
 31
0.0
  0
LINE
  5
305
100
AcDbEntity
  8
0
  6
DASHED
 62
               2
100
AcDbLine
 10
20.930360723121794
 20
20.223253941935269
 30
0.0
 11
23.087036405740776
 21
18.066578259316316
 31
0.0
  0
LINE
  5
306
100
AcDbEntity
  8
0
  6
DASHED
 62
               2
100
AcDbLine
 10
15.945257915756599
 20
21.672822843367697
 30
0.0
 11
21.672822843367669
 21
15.945257915756656
 31
0.0
  0
LINE
  5
307
100
AcDbEntity
  8
0
  6
DASHED
 62
               2
100
AcDbLine
 10
15.026019100214114
 20
21.743533521486341
 30
0.0
 11
21.743533521486313
 21
15.026019100214143
 31
0.0
  0
LINE
  5
308
100
AcDbEntity
  8
0
  6
DASHED
 62
               2
100
AcDbLine
 10
21.213203435596427
 20
15.556349186104057
 30
0.0
 11
21.63746750430829
 21
15.980613254815978
 31
0.0
  0
LINE
  5
309
100
AcDbEntity
  8
0
  6
DASHED
 62
               2
100
AcDbLine
 10
20.930360723121794
 20
20.223253941935269
 30
0.0
 11
19.869700551341964
 21
19.162593770155439
 31
0.0
  0
ARC
  5
30A
100
AcDbEntity
  8
0
  6
DASHED
 62
               2
100
AcDbCircle
 10
17.485327518679696
 20
17.512286289533336
 30
0.0
 40
4.363929581700825
100
AcDbArc
 50
16.995213414137279
 51
38.168845001456681
  0
LINE
  5
30B
100
AcDbEntity
  8
0
  6
DASHED
 62
               2
100
AcDbLine
 10
16.899852070358463
 20
19.869700551341992
 30
0.0
 11
14.215883090639863
 21
17.185731571623421
 31
0.0
  0
LINE
  5
30C
100
AcDbEntity
  8
0
  6
DASHED
 62
               2
100
AcDbLine
 10
16.61700935788383
 20
20.152543263816625
 30
0.0
 11
14.25176420851534
 21
17.787298114448134
 31
0.0
  0
LINE
  5
30D
100
AcDbEntity
  8
0
  6
DASHED
 62
               2
100
AcDbLine
 10
19.869700551341964
 20
16.899852070358492
 30
0.0
 11
17.504455401973473
 21
14.534606920990029
 31
0.0
  0
LINE
  5
30E
100
AcDbEntity
  8
0
  6
DASHED
 62
               2
100
AcDbLine
 10
20.15254326381654
 20
16.617009357883887
 30
0.0
 11
17.966580269020028
 21
14.431046363087319
 31
0.0
  0
LINE
  5
30F
100
AcDbEntity
  8
0
  6
CENTER
 62
               2
100
AcDbLine
 10
0.0
 20
0.0
 30
0.0
 11
22.453549495869197
 21
22.453549495869225
 31
0.0
  0
ARC
  5
310
100
AcDbEntity
  8
0
  6
DASHED
 62
               2
100
AcDbCircle
 10
17.512286289533336
 20
-17.485327518679753
 30
0.0
 40
4.363929581700825
100
AcDbArc
 50
286.99521341413669
 51
308.16884500145608
  0
LINE
  5
311
100
AcDbEntity
  8
0
  6
DASHED
 62
               2
100
AcDbLine
 10
20.223253941935241
 20
-20.930360723121851
 30
0.0
 11
19.162593770155411
 21
-19.869700551342021
 31
0.0
  0
LINE
  5
312
100
AcDbEntity
  8
0
  6
DASHED
 62
               2
100
AcDbLine
 10
15.556349186104057
 20
-21.213203435596455
 30
0.0
 11
15.980613254815978
 21
-21.637467504308376
 31
0.0
  0
LINE
  5
313
100
AcDbEntity
  8
0
  6
DASHED
 62
               2
100
AcDbLine
 10
21.743533521486313
 20
-15.026019100214171
 30
0.0
 11
15.026019100214114
 21
-21.74353352148637
 31
0.0
  0
LINE
  5
314
100
AcDbEntity
  8
0
  6
DASHED
 62
               2
100
AcDbLine
 10
21.672822843367669
 20
-15.945257915756684
 30
0.0
 11
15.945257915756656
 21
-21.672822843367726
 31
0.0
  0
LINE
  5
315
100
AcDbEntity
  8
0
  6
DASHED
 62
               2
100
AcDbLine
 10
20.223253941935241
 20
-20.930360723121851
 30
0.0
 11
18.066578259316259
 21
-23.087036405740804
 31
0.0
  0
LINE
  5
316
100
AcDbEntity
  8
0
  6
DASHED
 62
               2
100
AcDbLine
 10
18.787827176126541
 20
-21.658680707743997
 30
0.0
 11
17.373613613753491
 21
-20.244467145370891
 31
0.0
  0
ARC
  5
317
100
AcDbEntity
  8
0
  6
DASHED
 62
               2
100
AcDbCircle
 10
12.193233480323954
 20
-19.225012704195166
 30
0.0
 40
7.0293247160888015
100
AcDbArc
 50
326.67304037350175
 51
339.74392856765854
  0
LINE
  5
318
100
AcDbEntity
  8
0
  6
DASHED
 62
               2
100
AcDbLine
 10
18.066578259316259
 20
-23.087036405740804
 30
0.0
 11
17.359471478129763
 21
-23.087036405740804
 31
0.0
  0
LINE
  5
319
100
AcDbEntity
  8
0
  6
DASHED
 62
               2
100
AcDbLine
 10
17.359471478129763
 20
-23.087036405740804
 30
0.0
 11
15.945257915756656
 21
-21.672822843367726
 31
0.0
  0
LINE
  5
31A
100
AcDbEntity
  8
0
  6
DASHED
 62
               2
100
AcDbLine
 10
23.087036405740776
 20
-17.359471478129791
 30
0.0
 11
21.672822843367669
 21
-15.945257915756684
 31
0.0
  0
LINE
  5
31B
100
AcDbEntity
  8
0
  6
DASHED
 62
               2
100
AcDbLine
 10
21.213203435596427
 20
-15.556349186104057
 30
0.0
 11
21.637467504308347
 21
-15.980613254816006
 31
0.0
  0
ARC
  5
31C
100
AcDbEntity
  8
0
  6
DASHED
 62
               2
100
AcDbCircle
 10
17.484020166272444
 20
-17.51160334424597
 30
0.0
 40
4.3653794686807261
100
AcDbArc
 50
321.83471178066645
 51
343.001229803738
  0
LINE
  5
31D
100
AcDbEntity
  8
0
  6
DASHED
 62
               2
100
AcDbLine
 10
23.087036405740776
 20
-18.066578259316316
 30
0.0
 11
20.930360723121794
 21
-20.223253941935297
 31
0.0
  0
LINE
  5
31E
100
AcDbEntity
  8
0
  6
DASHED
 62
               2
100
AcDbLine
 10
21.65868070774394
 20
-18.787827176126598
 30
0.0
 11
20.244467145370834
 21
-17.373613613753491
 31
0.0
  0
ARC
  5
31F
100
AcDbEntity
  8
0
  6
DASHED
 62
               2
100
AcDbCircle
 10
19.225717326111578
 20
-12.194628908040926
 30
0.0
 40
7.0277716396203269
100
AcDbArc
 50
290.25462085736189
 51
303.32841020147521
  0
LINE
  5
320
100
AcDbEntity
  8
0
  6
DASHED
 62
               2
100
AcDbLine
 10
23.087036405740776
 20
-17.359471478129791
 30
0.0
 11
23.087036405740776
 21
-18.066578259316316
 31
0.0
  0
LINE
  5
321
100
AcDbEntity
  8
0
  6
DASHED
 62
               2
100
AcDbLine
 10
20.930360723121794
 20
-20.223253941935297
 30
0.0
 11
19.869700551341964
 21
-19.162593770155468
 31
0.0
  0
LINE
  5
322
100
AcDbEntity
  8
0
  6
DASHED
 62
               2
100
AcDbLine
 10
19.869700551341964
 20
-19.162593770155468
 30
0.0
 11
19.162593770155411
 21
-19.869700551342021
 31
0.0
  0
LINE
  5
323
100
AcDbEntity
  8
0
  6
DASHED
 62
               2
100
AcDbLine
 10
19.869700551341964
 20
-16.89985207035852
 30
0.0
 11
17.185731571623421
 21
-14.215883090639949
 31
0.0
  0
LINE
  5
324
100
AcDbEntity
  8
0
  6
DASHED
 62
               2
100
AcDbLine
 10
20.152543263816597
 20
-16.617009357883887
 30
0.0
 11
17.787298114448106
 21
-14.251764208515425
 31
0.0
  0
LINE
  5
325
100
AcDbEntity
  8
0
  6
DASHED
 62
               2
100
AcDbLine
 10
16.899852070358463
 20
-19.869700551342021
 30
0.0
 11
14.534606920990029
 21
-17.50445540197353
 31
0.0
  0
LINE
  5
326
100
AcDbEntity
  8
0
  6
DASHED
 62
               2
100
AcDbLine
 10
16.617009357883887
 20
-20.152543263816625
 30
0.0
 11
14.431046363087319
 21
-17.966580269020085
 31
0.0
  0
LINE
  5
327
100
AcDbEntity
  8
0
  6
CENTER
 62
               2
100
AcDbLine
 10
0.0
 20
-0.0000000000000284
 30
0.0
 11
22.583036858937305
 21
-22.58303685893739
 31
0.0
  0
LINE
  5
328
100
AcDbEntity
  8
0
  6
CONTINUOUS
 62
               7
100
AcDbLine
 10
-22.700000000000045
 20
-8.0000000000000568
 30
0.0
 11
-22.700000000000045
 21
11.999999999999943
 31
0.0
  0
LINE
  5
329
100
AcDbEntity
  8
0
  6
CONTINUOUS
 62
               7
100
AcDbLine
 10
-30.000000000000028
 20
-7.4083488490043123
 30
0.0
 11
-30.000000000000028
 21
11.408348849004142
 31
0.0
  0
LINE
  5
32A
100
AcDbEntity
  8
0
  6
CENTER
 62
               2
100
AcDbLine
 10
-26.400000000000034
 20
10.805227088550907
 30
0.0
 11
-26.400000000000034
 21
31.5224922189729
 31
0.0
  0
LINE
  5
32B
100
AcDbEntity
  8
0
  6
CONTINUOUS
 62
               7
100
AcDbLine
 10
-28.80000000000004
 20
-4.9000000000000909
 30
0.0
 11
-30.000000000000028
 21
-4.9000000000000909
 31
0.0
  0
LINE
  5
32C
100
AcDbEntity
  8
0
  6
CONTINUOUS
 62
               7
100
AcDbLine
 10
-28.80000000000004
 20
-8.0000000000000568
 30
0.0
 11
-28.80000000000004
 21
-4.9000000000000909
 31
0.0
  0
LINE
  5
32D
100
AcDbEntity
  8
0
  6
CENTER
 62
               2
100
AcDbLine
 10
-28.19585698685114
 20
-6.5000000000000568
 30
0.0
 11
-30.435449291060394
 21
-6.5000000000000568
 31
0.0
  0
LINE
  5
32E
100
AcDbEntity
  8
0
  6
CONTINUOUS
 62
               7
100
AcDbLine
 10
-23.700000000000045
 20
-4.2000000000000171
 30
0.0
 11
-23.700000000000045
 21
-3.0000000000000568
 31
0.0
  0
LINE
  5
32F
100
AcDbEntity
  8
0
  6
CONTINUOUS
 62
               7
100
AcDbLine
 10
-24.600000000000051
 20
-4.2000000000000455
 30
0.0
 11
-24.600000000000051
 21
-3.0000000000000568
 31
0.0
  0
LINE
  5
330
100
AcDbEntity
  8
0
  6
CONTINUOUS
 62
               7
100
AcDbLine
 10
-23.700000000000045
 20
-4.1000000000000796
 30
0.0
 11
-24.55000000000004
 21
-4.1000000000000796
 31
0.0
  0
LINE
  5
331
100
AcDbEntity
  8
0
  6
CONTINUOUS
 62
               7
100
AcDbLine
 10
-23.700000000000045
 20
-3.1000000000000796
 30
0.0
 11
-24.55000000000004
 21
-3.1000000000000796
 31
0.0
  0
LINE
  5
332
100
AcDbEntity
  8
0
  6
CONTINUOUS
 62
               7
100
AcDbLine
 10
-24.55000000000004
 20
-4.1000000000000796
 30
0.0
 11
-24.55000000000004
 21
-3.1000000000000796
 31
0.0
  0
LINE
  5
333
100
AcDbEntity
  8
0
  6
CONTINUOUS
 62
               7
100
AcDbLine
 10
-23.850000000000023
 20
-4.1000000000000796
 30
0.0
 11
-23.850000000000051
 21
-3.1000000000000796
 31
0.0
  0
LINE
  5
334
100
AcDbEntity
  8
0
  6
CONTINUOUS
 62
               7
100
AcDbLine
 10
-23.700000000000045
 20
-3.0000000000000568
 30
0.0
 11
-24.600000000000051
 21
-3.0000000000000568
 31
0.0
  0
LINE
  5
335
100
AcDbEntity
  8
0
  6
CONTINUOUS
 62
               7
100
AcDbLine
 10
-23.700000000000045
 20
-4.2000000000000171
 30
0.0
 11
-24.600000000000051
 21
-4.2000000000000455
 31
0.0
  0
LINE
  5
336
100
AcDbEntity
  8
0
  6
CONTINUOUS
 62
               7
100
AcDbLine
 10
-23.700000000000045
 20
6.9999999999999432
 30
0.0
 11
-24.600000000000051
 21
6.9999999999999432
 31
0.0
  0
LINE
  5
337
100
AcDbEntity
  8
0
  6
CONTINUOUS
 62
               7
100
AcDbLine
 10
-23.700000000000045
 20
8.1999999999999318
 30
0.0
 11
-24.600000000000023
 21
8.1999999999999318
 31
0.0
  0
LINE
  5
338
100
AcDbEntity
  8
0
  6
CONTINUOUS
 62
               7
100
AcDbLine
 10
-23.850000000000051
 20
7.0999999999999091
 30
0.0
 11
-23.850000000000023
 21
8.0999999999999091
 31
0.0
  0
LINE
  5
339
100
AcDbEntity
  8
0
  6
CONTINUOUS
 62
               7
100
AcDbLine
 10
-24.55000000000004
 20
7.0999999999999091
 30
0.0
 11
-24.55000000000004
 21
8.0999999999999091
 31
0.0
  0
LINE
  5
33A
100
AcDbEntity
  8
0
  6
CONTINUOUS
 62
               7
100
AcDbLine
 10
-23.700000000000045
 20
8.0999999999999091
 30
0.0
 11
-24.55000000000004
 21
8.0999999999999091
 31
0.0
  0
LINE
  5
33B
100
AcDbEntity
  8
0
  6
CONTINUOUS
 62
               7
100
AcDbLine
 10
-23.700000000000045
 20
7.0999999999999091
 30
0.0
 11
-24.55000000000004
 21
7.0999999999999091
 31
0.0
  0
LINE
  5
33C
100
AcDbEntity
  8
0
  6
CONTINUOUS
 62
               7
100
AcDbLine
 10
-24.600000000000051
 20
6.9999999999999432
 30
0.0
 11
-24.600000000000023
 21
8.1999999999999318
 31
0.0
  0
LINE
  5
33D
100
AcDbEntity
  8
0
  6
CONTINUOUS
 62
               7
100
AcDbLine
 10
-23.700000000000045
 20
6.9999999999999432
 30
0.0
 11
-23.700000000000045
 21
8.1999999999999318
 31
0.0
  0
LINE
  5
33E
100
AcDbEntity
  8
0
  6
CONTINUOUS
 62
               7
100
AcDbLine
 10
-23.400000000000034
 20
12.399999999999977
 30
0.0
 11
-29.400000000000034
 21
12.399999999999977
 31
0.0
  0
LINE
  5
33F
100
AcDbEntity
  8
0
  6
CONTINUOUS
 62
               7
100
AcDbLine
 10
-24.400000000000063
 20
19.399999999999977
 30
0.0
 11
-28.400000000000034
 21
19.399999999999977
 31
0.0
  0
LINE
  5
340
100
AcDbEntity
  8
0
  6
CONTINUOUS
 62
               7
100
AcDbLine
 10
-28.400000000000034
 20
19.399999999999977
 30
0.0
 11
-28.685714285714312
 21
17.399999999999977
 31
0.0
  0
LINE
  5
341
100
AcDbEntity
  8
0
  6
CONTINUOUS
 62
               7
100
AcDbLine
 10
-24.400000000000063
 20
19.399999999999977
 30
0.0
 11
-24.114285714285757
 21
17.399999999999977
 31
0.0
  0
LINE
  5
342
100
AcDbEntity
  8
0
  6
CONTINUOUS
 62
               7
100
AcDbLine
 10
-24.114285714285757
 20
17.399999999999977
 30
0.0
 11
-28.685714285714312
 21
17.399999999999977
 31
0.0
  0
LINE
  5
343
100
AcDbEntity
  8
0
  6
CONTINUOUS
 62
               7
100
AcDbLine
 10
-23.971428571428618
 20
16.399999999999977
 30
0.0
 11
-28.828571428571479
 21
16.399999999999977
 31
0.0
  0
LINE
  5
344
100
AcDbEntity
  8
0
  6
CONTINUOUS
 62
               7
100
AcDbLine
 10
-23.757142857142895
 20
14.899999999999977
 30
0.0
 11
-29.042857142857173
 21
14.899999999999977
 31
0.0
  0
LINE
  5
345
100
AcDbEntity
  8
0
  6
CONTINUOUS
 62
               7
100
AcDbLine
 10
-23.614285714285757
 20
13.899999999999977
 30
0.0
 11
-29.18571428571434
 21
13.899999999999977
 31
0.0
  0
LINE
  5
346
100
AcDbEntity
  8
0
  6
CONTINUOUS
 62
               7
100
AcDbLine
 10
-28.828571428571479
 20
16.399999999999977
 30
0.0
 11
-29.042857142857173
 21
14.899999999999977
 31
0.0
  0
LINE
  5
347
100
AcDbEntity
  8
0
  6
CONTINUOUS
 62
               7
100
AcDbLine
 10
-29.18571428571434
 20
13.899999999999977
 30
0.0
 11
-29.400000000000034
 21
12.399999999999977
 31
0.0
  0
LINE
  5
348
100
AcDbEntity
  8
0
  6
CONTINUOUS
 62
               7
100
AcDbLine
 10
-23.971428571428618
 20
16.399999999999977
 30
0.0
 11
-23.757142857142895
 21
14.899999999999977
 31
0.0
  0
LINE
  5
349
100
AcDbEntity
  8
0
  6
CONTINUOUS
 62
               7
100
AcDbLine
 10
-23.614285714285757
 20
13.899999999999977
 30
0.0
 11
-23.400000000000034
 21
12.399999999999977
 31
0.0
  0
LINE
  5
34A
100
AcDbEntity
  8
0
  6
CONTINUOUS
 62
               7
100
AcDbLine
 10
-28.150000000000034
 20
17.399999999999977
 30
0.0
 11
-28.150000000000034
 21
16.399999999999977
 31
0.0
  0
LINE
  5
34B
100
AcDbEntity
  8
0
  6
CONTINUOUS
 62
               7
100
AcDbLine
 10
-24.650000000000034
 20
17.399999999999977
 30
0.0
 11
-24.650000000000034
 21
16.399999999999977
 31
0.0
  0
LINE
  5
34C
100
AcDbEntity
  8
0
  6
CONTINUOUS
 62
               7
100
AcDbLine
 10
-28.150000000000034
 20
14.899999999999977
 30
0.0
 11
-28.150000000000034
 21
13.899999999999977
 31
0.0
  0
LINE
  5
34D
100
AcDbEntity
  8
0
  6
CONTINUOUS
 62
               7
100
AcDbLine
 10
-24.650000000000034
 20
14.899999999999977
 30
0.0
 11
-24.650000000000034
 21
13.900000000000006
 31
0.0
  0
LINE
  5
34E
100
AcDbEntity
  8
0
  6
CONTINUOUS
 62
               7
100
AcDbLine
 10
-25.100000000000023
 20
24.899999999999977
 30
0.0
 11
-27.700000000000045
 21
24.899999999999977
 31
0.0
  0
LINE
  5
34F
100
AcDbEntity
  8
0
  6
CENTER
 62
               2
100
AcDbLine
 10
-25.950000000000045
 20
24.001543741441878
 30
0.0
 11
-25.950000000000045
 21
31.5224922189729
 31
0.0
  0
LINE
  5
350
100
AcDbEntity
  8
0
  6
CENTER
 62
               2
100
AcDbLine
 10
-26.850000000000023
 20
24.001543741441878
 30
0.0
 11
-26.850000000000023
 21
31.5224922189729
 31
0.0
  0
LINE
  5
351
100
AcDbEntity
  8
0
  6
CONTINUOUS
 62
               7
100
AcDbLine
 10
-25.700000000000045
 20
30.899999999999977
 30
0.0
 11
-26.200000000000045
 21
30.899999999999977
 31
0.0
  0
LINE
  5
352
100
AcDbEntity
  8
0
  6
CONTINUOUS
 62
               7
100
AcDbLine
 10
-26.600000000000051
 20
30.899999999999977
 30
0.0
 11
-27.100000000000051
 21
30.899999999999977
 31
0.0
  0
LINE
  5
353
100
AcDbEntity
  8
0
  6
CONTINUOUS
 62
               7
100
AcDbLine
 10
-25.500000000000057
 20
28.899999999999977
 30
0.0
 11
-27.30000000000004
 21
28.899999999999977
 31
0.0
  0
LINE
  5
354
100
AcDbEntity
  8
0
  6
CONTINUOUS
 62
               7
100
AcDbLine
 10
-27.30000000000004
 20
24.899999999999977
 30
0.0
 11
-27.30000000000004
 21
26.899999999999977
 31
0.0
  0
LINE
  5
355
100
AcDbEntity
  8
0
  6
CONTINUOUS
 62
               7
100
AcDbLine
 10
-27.30000000000004
 20
27.881495421747047
 30
0.0
 11
-27.30000000000004
 21
28.899999999999977
 31
0.0
  0
LINE
  5
356
100
AcDbEntity
  8
0
  6
CONTINUOUS
 62
               7
100
AcDbLine
 10
-25.500000000000057
 20
24.899999999999977
 30
0.0
 11
-25.500000000000057
 21
25.859999999999957
 31
0.0
  0
LINE
  5
357
100
AcDbEntity
  8
0
  6
CONTINUOUS
 62
               7
100
AcDbLine
 10
-25.500000000000028
 20
26.842264937976665
 30
0.0
 11
-25.500000000000057
 21
28.899999999999977
 31
0.0
  0
LINE
  5
358
100
AcDbEntity
  8
0
  6
CONTINUOUS
 62
               7
100
AcDbLine
 10
-25.700000000000045
 20
28.899999999999977
 30
0.0
 11
-25.700000000000045
 21
30.899999999999977
 31
0.0
  0
LINE
  5
359
100
AcDbEntity
  8
0
  6
CONTINUOUS
 62
               7
100
AcDbLine
 10
-26.200000000000045
 20
28.899999999999977
 30
0.0
 11
-26.200000000000045
 21
30.899999999999977
 31
0.0
  0
LINE
  5
35A
100
AcDbEntity
  8
0
  6
CONTINUOUS
 62
               7
100
AcDbLine
 10
-26.600000000000051
 20
28.899999999999977
 30
0.0
 11
-26.600000000000051
 21
30.899999999999977
 31
0.0
  0
LINE
  5
35B
100
AcDbEntity
  8
0
  6
CONTINUOUS
 62
               7
100
AcDbLine
 10
-27.100000000000051
 20
28.899999999999977
 30
0.0
 11
-27.100000000000051
 21
30.899999999999977
 31
0.0
  0
LINE
  5
35C
100
AcDbEntity
  8
0
  6
CONTINUOUS
 62
               7
100
AcDbLine
 10
-25.100000000000023
 20
19.399999999999977
 30
0.0
 11
-25.100000000000023
 21
20.937564451092271
 31
0.0
  0
LINE
  5
35D
100
AcDbEntity
  8
0
  6
CONTINUOUS
 62
               7
100
AcDbLine
 10
-27.700000000000045
 20
19.399999999999977
 30
0.0
 11
-27.700000000000045
 21
22.438675150985262
 31
0.0
  0
LINE
  5
35E
100
AcDbEntity
  8
0
  6
CONTINUOUS
 62
               7
100
AcDbLine
 10
-25.100000000000023
 20
21.861324850314645
 30
0.0
 11
-25.100000000000023
 21
24.899999999999977
 31
0.0
  0
LINE
  5
35F
100
AcDbEntity
  8
0
  6
CONTINUOUS
 62
               7
100
AcDbLine
 10
-27.700000000000045
 20
23.362435550207636
 30
0.0
 11
-27.700000000000045
 21
24.899999999999977
 31
0.0
  0
LINE
  5
360
100
AcDbEntity
  8
0
  6
PHANTOM
 62
               2
100
AcDbLine
 10
-24.900000000534817
 20
26.495854777028626
 30
0.0
 11
-27.900000000534845
 21
28.227905583312577
 31
0.0
  0
LINE
  5
361
100
AcDbEntity
  8
0
  6
PHANTOM
 62
               2
100
AcDbLine
 10
-24.900000000534817
 20
25.572094392707413
 30
0.0
 11
-27.900000030337139
 21
27.304145213892525
 31
0.0
  0
LINE
  5
362
100
AcDbEntity
  8
0
  6
PHANTOM
 62
               2
100
AcDbLine
 10
-24.499999994574381
 20
21.514914688398903
 30
0.0
 11
-28.300000036297632
 21
23.708845731546944
 31
0.0
  0
LINE
  5
363
100
AcDbEntity
  8
0
  6
PHANTOM
 62
               2
100
AcDbLine
 10
-24.500000024376675
 20
20.591154289176529
 30
0.0
 11
-28.300000036297632
 21
22.785085317423409
 31
0.0
  0
LINE
  5
364
100
AcDbEntity
  8
0
  6
CONTINUOUS
 62
               7
100
AcDbLine
 10
-23.400000000000034
 20
12.399999999999977
 30
0.0
 11
-23.400000000000034
 21
11.999999999999943
 31
0.0
  0
LINE
  5
365
100
AcDbEntity
  8
0
  6
CONTINUOUS
 62
               7
100
AcDbLine
 10
-29.400000000000034
 20
12.399999999999977
 30
0.0
 11
-29.400000000000034
 21
11.999999999999972
 31
0.0
  0
LINE
  5
366
100
AcDbEntity
  8
0
  6
CONTINUOUS
 62
               7
100
AcDbLine
 10
-22.700000000000045
 20
-8.0000000000000568
 30
0.0
 11
-28.80000000000004
 21
-7.917819179587525
 31
0.0
  0
LINE
  5
367
100
AcDbEntity
  8
0
  6
CONTINUOUS
 62
               7
100
AcDbLine
 10
-22.700000000000045
 20
11.999999999999943
 30
0.0
 11
-29.504363267749227
 21
11.908329810536287
 31
0.0
  0
ARC
  5
368
100
AcDbEntity
  8
0
  6
CONTINUOUS
 62
               7
100
AcDbCircle
 10
-29.500000000000028
 20
11.40834884900417
 30
0.0
 40
0.5
100
AcDbArc
 50
90.499999999999773
 51
179.99999999999963
  0
ARC
  5
369
100
AcDbEntity
  8
0
  6
CONTINUOUS
 62
               7
100
AcDbCircle
 10
-29.500000000000028
 20
-7.4083488490043123
 30
0.0
 40
0.5
100
AcDbArc
 50
179.99999999999963
 51
269.49999999999943
  0
LINE
  5
36A
100
AcDbEntity
  8
0
  6
CONTINUOUS
 62
               7
100
AcDbLine
 10
-22.700000000000045
 20
11.999999999999943
 30
0.0
 11
-19.000000000000028
 21
11.967710589174146
 31
0.0
  0
LINE
  5
36B
100
AcDbEntity
  8
0
  6
CONTINUOUS
 62
               7
100
AcDbLine
 10
-22.700000000000045
 20
-8.0000000000000568
 30
0.0
 11
-19.000000000000028
 21
-7.9677105891742599
 31
0.0
  0
LINE
  5
36C
100
AcDbEntity
  8
0
  6
CONTINUOUS
 62
               7
100
AcDbLine
 10
-19.000000000000028
 20
-23.216373532487808
 30
0.0
 11
-19.000000000000028
 21
23.216373532487751
 31
0.0
  0
ARC
  5
36D
100
AcDbEntity
  8
0
  6
CONTINUOUS
 62
               7
100
AcDbCircle
 10
0.0
 20
-0.0000000000000284
 30
0.0
 40
29.999999999999989
100
AcDbArc
 50
195.29957414477408
 51
143.66739000997686
  0
ARC
  5
36E
100
AcDbEntity
  8
0
  6
CONTINUOUS
 62
               7
100
AcDbCircle
 10
0.0
 20
-0.0000000000000284
 30
0.0
 40
28.999999999999989
100
AcDbArc
 50
229.06727542584358
 51
130.9327245741558
  0
CIRCLE
  5
36F
100
AcDbEntity
  8
0
  6
CONTINUOUS
 62
               2
100
AcDbCircle
 10
-0.0000000000001137
 20
22.5
 30
0.0
 40
2.0
  0
CIRCLE
  5
370
100
AcDbEntity
  8
0
  6
CONTINUOUS
 62
               7
100
AcDbCircle
 10
-0.0000000000001137
 20
22.5
 30
0.0
 40
1.6499999999999999
  0
CIRCLE
  5
371
100
AcDbEntity
  8
0
  6
CONTINUOUS
 62
               2
100
AcDbCircle
 10
22.499999999999943
 20
0.0000000000000568
 30
0.0
 40
2.0
  0
CIRCLE
  5
372
100
AcDbEntity
  8
0
  6
CONTINUOUS
 62
               7
100
AcDbCircle
 10
22.499999999999943
 20
0.0000000000000568
 30
0.0
 40
1.6499999999999999
  0
CIRCLE
  5
373
100
AcDbEntity
  8
0
  6
CONTINUOUS
 62
               2
100
AcDbCircle
 10
0.0
 20
-22.499999999999972
 30
0.0
 40
2.0
  0
CIRCLE
  5
374
100
AcDbEntity
  8
0
  6
CONTINUOUS
 62
               7
100
AcDbCircle
 10
0.0
 20
-22.499999999999972
 30
0.0
 40
1.6499999999999999
  0
CIRCLE
  5
375
100
AcDbEntity
  8
0
  6
CENTER
 62
               2
100
AcDbCircle
 10
0.0
 20
-0.0000000000000284
 30
0.0
 40
22.5
  0
CIRCLE
  5
376
100
AcDbEntity
  8
0
  6
CONTINUOUS
 62
               2
100
AcDbCircle
 10
-0.0000000000000568
 20
-0.0000000000000568
 30
0.0
 40
2.5
  0
CIRCLE
  5
377
100
AcDbEntity
  8
0
  6
CONTINUOUS
 62
               7
100
AcDbCircle
 10
-0.0000000000000568
 20
-0.0000000000000568
 30
0.0
 40
2.1000000000000001
  0
LINE
  5
378
100
AcDbEntity
  8
0
  6
CENTER
 62
               2
100
AcDbLine
 10
0.0
 20
-30.117590779949637
 30
0.0
 11
0.0
 21
25.473383693281022
 31
0.0
  0
LINE
  5
379
100
AcDbEntity
  8
0
  6
CENTER
 62
               2
100
AcDbLine
 10
-32.0
 20
-0.0000000000000568
 30
0.0
 11
32.000000103858383
 21
-0.0000000000000568
 31
0.0
  0
LINE
  5
37A
100
AcDbEntity
  8
0
  6
DASHED
 62
               2
100
AcDbLine
 10
24.304371310012527
 20
17.586856888740385
 30
0.0
 11
21.743533521486313
 21
15.026019100214143
 31
0.0
  0
LINE
  5
37B
100
AcDbEntity
  8
0
  6
DASHED
 62
               2
100
AcDbLine
 10
17.586856888740328
 20
24.304371310012584
 30
0.0
 11
15.026019100214114
 21
21.743533521486341
 31
0.0
  0
LINE
  5
37C
100
AcDbEntity
  8
0
  6
DASHED
 62
               2
100
AcDbLine
 10
24.304371310012584
 20
-17.586856888740414
 30
0.0
 11
21.743533521486313
 21
-15.026019100214171
 31
0.0
  0
LINE
  5
37D
100
AcDbEntity
  8
0
  6
DASHED
 62
               2
100
AcDbLine
 10
17.586856888740385
 20
-24.304371310012613
 30
0.0
 11
15.026019100214114
 21
-21.74353352148637
 31
0.0
  0
LINE
  5
37E
100
AcDbEntity
  8
0
  6
CONTINUOUS
 62
               7
100
AcDbLine
 10
-29.400000000000063
 20
-7.5000000000000568
 30
0.0
 11
-29.400000000000034
 21
-5.5000000000000568
 31
0.0
  0
LINE
  5
37F
100
AcDbEntity
  8
0
  6
CONTINUOUS
 62
               7
100
AcDbLine
 10
-28.80000000000004
 20
-5.0000000000000568
 30
0.0
 11
-28.900000000000063
 21
-5.0000000000000568
 31
0.0
  0
ARC
  5
380
100
AcDbEntity
  8
0
  6
CONTINUOUS
 62
               7
100
AcDbCircle
 10
-28.900000000000063
 20
-5.5000000000000568
 30
0.0
 40
0.5
100
AcDbArc
 50
89.999999999999815
 51
179.99999999999963
  0
ARC
  5
381
100
AcDbEntity
  8
0
  6
CONTINUOUS
 62
               7
100
AcDbCircle
 10
-28.900000000000063
 20
-7.5000000000000568
 30
0.0
 40
0.5
100
AcDbArc
 50
179.99999999999963
 51
269.99999999999937
  0
LINE
  5
382
100
AcDbEntity
  8
0
  6
CONTINUOUS
 62
               7
100
AcDbLine
 10
-28.80000000000004
 20
-8.0000000000000568
 30
0.0
 11
-28.900000000000063
 21
-8.0000000000000568
 31
0.0
  0
LINE
  5
383
100
AcDbEntity
  8
0
  6
CONTINUOUS
 62
               7
100
AcDbLine
 10
-29.182320284100456
 20
-7.9126684591600167
 30
0.0
 11
-29.504363267749227
 21
-7.9083298105363724
 31
0.0
  0
ENDBLK
  5
384
100
AcDbEntity
  8
0
100
AcDbBlockEnd
  0
BLOCK
  5
385
100
AcDbEntity
  8
0
100
AcDbBlockBegin
  2
NCT60-7
 70
               0
 10
0.0
 20
0.0
 30
0.0
  3
NCT60-7
  1

  0
LINE
  5
386
100
AcDbEntity
  8
0
  6
CENTER
 62
               2
100
AcDbLine
 10
0.0
 20
-32.00000054571278
 30
0.0
 11
0.0
 21
31.999999454287249
 31
0.0
  0
CIRCLE
  5
387
100
AcDbEntity
  8
0
  6
CENTER
 62
               2
100
AcDbCircle
 10
0.0000000256308113
 20
-0.0000004861081067
 30
0.0
 40
26.699999999999999
  0
LINE
  5
388
100
AcDbEntity
  8
0
  6
CENTER
 62
               2
100
AcDbLine
 10
-15.999999919159052
 20
-27.712813171415561
 30
0.0
 11
0.0000000704303602
 21
-0.0000002638563643
 31
0.0
  0
LINE
  5
389
100
AcDbEntity
  8
0
  6
CENTER
 62
               2
100
AcDbLine
 10
-15.999999866475491
 20
27.712812696386393
 30
0.0
 11
0.0000000915038072
 21
-0.0000001584892431
 31
0.0
  0
CIRCLE
  5
38A
100
AcDbEntity
  8
0
  6
CONTINUOUS
 62
               7
100
AcDbCircle
 10
0.0
 20
-0.0000005457127514
 30
0.0
 40
13.0
  0
CIRCLE
  5
38B
100
AcDbEntity
  8
0
  6
CONTINUOUS
 62
               7
100
AcDbCircle
 10
0.0
 20
-0.0000005457127514
 30
0.0
 40
15.672620946911177
  0
CIRCLE
  5
38C
100
AcDbEntity
  8
0
  6
CONTINUOUS
 62
               7
100
AcDbCircle
 10
0.0
 20
-0.0000005457127514
 30
0.0
 40
30.0
  0
LINE
  5
38D
100
AcDbEntity
  8
0
  6
CENTER
 62
               2
100
AcDbLine
 10
31.999999995828489
 20
-0.0000005457127514
 30
0.0
 11
-32.000000004171483
 21
-0.0000005457127514
 31
0.0
  0
CIRCLE
  5
38E
100
AcDbEntity
  8
0
  6
CONTINUOUS
 62
               4
100
AcDbCircle
 10
26.699999933331412
 20
-0.0000007884957967
 30
0.0
 40
3.0
  0
ARC
  5
38F
100
AcDbEntity
  8
0
  6
CONTINUOUS
 62
               7
100
AcDbCircle
 10
0.0000000232274715
 20
-0.0000007644727162
 30
0.0
 40
25.0
100
AcDbArc
 50
5.4838224868671492
 51
114.51617727486497
  0
ARC
  5
390
100
AcDbEntity
  8
0
  6
CONTINUOUS
 62
               7
100
AcDbCircle
 10
0.0000000232274715
 20
-0.0000007644727162
 30
0.0
 40
25.0
100
AcDbArc
 50
245.88629834955327
 51
354.51617740352231
  0
CIRCLE
  5
391
100
AcDbEntity
  8
0
  6
CONTINUOUS
 62
               4
100
AcDbCircle
 10
-13.350000127685007
 20
-23.122879277637665
 30
0.0
 40
3.0
  0
ARC
  5
392
100
AcDbEntity
  8
0
  6
CONTINUOUS
 62
               7
100
AcDbCircle
 10
0.0000000232274715
 20
-0.0000007644727162
 30
0.0
 40
25.0
100
AcDbArc
 50
125.48382267335117
 51
234.51617802401051
  0
CIRCLE
  5
393
100
AcDbEntity
  8
0
  6
CONTINUOUS
 62
               4
100
AcDbCircle
 10
-13.349999873032232
 20
23.122877361019547
 30
0.0
 40
3.0
  0
ARC
  5
394
100
AcDbEntity
  8
0
  6
CONTINUOUS
 62
               7
100
AcDbCircle
 10
-29.500000108029923
 20
7.4083483032914756
 30
0.0
 40
0.5
100
AcDbArc
 50
90.499999999999744
 51
179.99999999999963
  0
ARC
  5
395
100
AcDbEntity
  8
0
  6
CONTINUOUS
 62
               7
100
AcDbCircle
 10
-29.500000108029923
 20
-11.408349394716979
 30
0.0
 40
0.5
100
AcDbArc
 50
179.99999999999963
 51
269.49999999999943
  0
LINE
  5
396
100
AcDbEntity
  8
0
  6
CONTINUOUS
 62
               7
100
AcDbLine
 10
-27.523725273249283
 20
-11.935014038905862
 30
0.0
 11
-28.800000108029934
 21
-11.917819725300276
 31
0.0
  0
LINE
  5
397
100
AcDbEntity
  8
0
  6
CONTINUOUS
 62
               7
100
AcDbLine
 10
-28.936781390228617
 20
7.9159758801061599
 30
0.0
 11
-29.504363375779121
 21
7.9083292648235357
 31
0.0
  0
LINE
  5
398
100
AcDbEntity
  8
0
  6
CONTINUOUS
 62
               7
100
AcDbLine
 10
-29.400000108029928
 20
-12.400000545712814
 30
0.0
 11
-29.400000108029928
 21
-11.909736365915435
 31
0.0
  0
LINE
  5
399
100
AcDbEntity
  8
0
  6
PHANTOM
 62
               2
100
AcDbLine
 10
-28.300000083653259
 20
-20.591154834889366
 30
0.0
 11
-24.50000007173233
 21
-22.785085863136246
 31
0.0
  0
LINE
  5
39A
100
AcDbEntity
  8
0
  6
PHANTOM
 62
               2
100
AcDbLine
 10
-28.300000113455582
 20
-21.514915234111712
 30
0.0
 11
-24.50000007173233
 21
-23.708846277259781
 31
0.0
  0
LINE
  5
39B
100
AcDbEntity
  8
0
  6
PHANTOM
 62
               2
100
AcDbLine
 10
-27.900000107495146
 20
-25.57209493842025
 30
0.0
 11
-24.900000077692823
 21
-27.304145759605362
 31
0.0
  0
LINE
  5
39C
100
AcDbEntity
  8
0
  6
PHANTOM
 62
               2
100
AcDbLine
 10
-27.900000107495146
 20
-26.495855322741463
 30
0.0
 11
-24.900000107495146
 21
-28.227906129025413
 31
0.0
  0
LINE
  5
39D
100
AcDbEntity
  8
0
  6
CONTINUOUS
 62
               7
100
AcDbLine
 10
-25.100000108029917
 20
-23.362436095920444
 30
0.0
 11
-25.100000108029917
 21
-24.900000545712814
 31
0.0
  0
LINE
  5
39E
100
AcDbEntity
  8
0
  6
CONTINUOUS
 62
               7
100
AcDbLine
 10
-27.700000108029911
 20
-21.861325396027482
 30
0.0
 11
-27.70000010802994
 21
-24.900000545712814
 31
0.0
  0
LINE
  5
39F
100
AcDbEntity
  8
0
  6
CONTINUOUS
 62
               7
100
AcDbLine
 10
-25.100000108029917
 20
-19.400000545712814
 30
0.0
 11
-25.100000108029917
 21
-22.438675696698098
 31
0.0
  0
LINE
  5
3A0
100
AcDbEntity
  8
0
  6
CONTINUOUS
 62
               7
100
AcDbLine
 10
-27.700000108029911
 20
-19.400000545712814
 30
0.0
 11
-27.700000108029911
 21
-20.937564996805108
 31
0.0
  0
LINE
  5
3A1
100
AcDbEntity
  8
0
  6
CONTINUOUS
 62
               7
100
AcDbLine
 10
-25.70000010802994
 20
-28.900000545712814
 30
0.0
 11
-25.70000010802994
 21
-30.900000545712814
 31
0.0
  0
LINE
  5
3A2
100
AcDbEntity
  8
0
  6
CONTINUOUS
 62
               7
100
AcDbLine
 10
-26.20000010802994
 20
-28.900000545712814
 30
0.0
 11
-26.20000010802994
 21
-30.900000545712814
 31
0.0
  0
LINE
  5
3A3
100
AcDbEntity
  8
0
  6
CONTINUOUS
 62
               7
100
AcDbLine
 10
-26.600000108029917
 20
-28.900000545712814
 30
0.0
 11
-26.600000108029917
 21
-30.900000545712814
 31
0.0
  0
LINE
  5
3A4
100
AcDbEntity
  8
0
  6
CONTINUOUS
 62
               7
100
AcDbLine
 10
-27.100000108029917
 20
-28.900000545712814
 30
0.0
 11
-27.100000108029917
 21
-30.900000545712814
 31
0.0
  0
LINE
  5
3A5
100
AcDbEntity
  8
0
  6
CONTINUOUS
 62
               7
100
AcDbLine
 10
-27.300000108029934
 20
-26.842265483689474
 30
0.0
 11
-27.300000108029906
 21
-28.900000545712814
 31
0.0
  0
LINE
  5
3A6
100
AcDbEntity
  8
0
  6
CONTINUOUS
 62
               7
100
AcDbLine
 10
-27.300000108029906
 20
-24.900000545712814
 30
0.0
 11
-27.300000108029906
 21
-25.860000545712793
 31
0.0
  0
LINE
  5
3A7
100
AcDbEntity
  8
0
  6
CONTINUOUS
 62
               7
100
AcDbLine
 10
-25.500000108029923
 20
-27.881495967459884
 30
0.0
 11
-25.500000108029923
 21
-28.900000545712814
 31
0.0
  0
LINE
  5
3A8
100
AcDbEntity
  8
0
  6
CONTINUOUS
 62
               7
100
AcDbLine
 10
-25.500000108029923
 20
-24.900000545712814
 30
0.0
 11
-25.500000108029923
 21
-26.900000545712786
 31
0.0
  0
LINE
  5
3A9
100
AcDbEntity
  8
0
  6
CONTINUOUS
 62
               7
100
AcDbLine
 10
-27.300000108029906
 20
-28.900000545712814
 30
0.0
 11
-25.500000108029923
 21
-28.900000545712814
 31
0.0
  0
LINE
  5
3AA
100
AcDbEntity
  8
0
  6
CONTINUOUS
 62
               7
100
AcDbLine
 10
-26.600000108029917
 20
-30.900000545712814
 30
0.0
 11
-27.100000108029917
 21
-30.900000545712814
 31
0.0
  0
LINE
  5
3AB
100
AcDbEntity
  8
0
  6
CONTINUOUS
 62
               7
100
AcDbLine
 10
-25.700000108029911
 20
-30.900000545712814
 30
0.0
 11
-26.200000108029911
 21
-30.900000545712814
 31
0.0
  0
LINE
  5
3AC
100
AcDbEntity
  8
0
  6
CENTER
 62
               2
100
AcDbLine
 10
-25.95000010802994
 20
-24.001544287154715
 30
0.0
 11
-25.95000010802994
 21
-31.522492764685737
 31
0.0
  0
LINE
  5
3AD
100
AcDbEntity
  8
0
  6
CENTER
 62
               2
100
AcDbLine
 10
-26.850000108029917
 20
-24.001544287154715
 30
0.0
 11
-26.850000108029917
 21
-31.522492764685737
 31
0.0
  0
LINE
  5
3AE
100
AcDbEntity
  8
0
  6
CONTINUOUS
 62
               7
100
AcDbLine
 10
-27.70000010802994
 20
-24.900000545712814
 30
0.0
 11
-25.100000108029917
 21
-24.900000545712814
 31
0.0
  0
LINE
  5
3AF
100
AcDbEntity
  8
0
  6
CONTINUOUS
 62
               7
100
AcDbLine
 10
-28.150000108029928
 20
-14.900000545712814
 30
0.0
 11
-28.150000108029928
 21
-13.900000545712814
 31
0.0
  0
LINE
  5
3B0
100
AcDbEntity
  8
0
  6
CONTINUOUS
 62
               7
100
AcDbLine
 10
-28.150000108029928
 20
-17.400000545712814
 30
0.0
 11
-28.150000108029928
 21
-16.400000545712786
 31
0.0
  0
LINE
  5
3B1
100
AcDbEntity
  8
0
  6
CONTINUOUS
 62
               7
100
AcDbLine
 10
-29.185714393744206
 20
-13.900000545712814
 30
0.0
 11
-29.400000108029928
 21
-12.400000545712814
 31
0.0
  0
LINE
  5
3B2
100
AcDbEntity
  8
0
  6
CONTINUOUS
 62
               7
100
AcDbLine
 10
-28.828571536601345
 20
-16.400000545712814
 30
0.0
 11
-29.042857250887067
 21
-14.900000545712814
 31
0.0
  0
LINE
  5
3B3
100
AcDbEntity
  8
0
  6
CONTINUOUS
 62
               7
100
AcDbLine
 10
-26.58552237590979
 20
-13.900000545712814
 30
0.0
 11
-29.185714393744206
 21
-13.900000545712814
 31
0.0
  0
LINE
  5
3B4
100
AcDbEntity
  8
0
  6
CONTINUOUS
 62
               7
100
AcDbLine
 10
-26.038241108031855
 20
-14.900000545712814
 30
0.0
 11
-29.042857250887067
 21
-14.900000545712814
 31
0.0
  0
LINE
  5
3B5
100
AcDbEntity
  8
0
  6
CONTINUOUS
 62
               7
100
AcDbLine
 10
-25.120509548972137
 20
-16.400000545712814
 30
0.0
 11
-28.828571536601345
 21
-16.400000545712814
 31
0.0
  0
LINE
  5
3B6
100
AcDbEntity
  8
0
  6
CONTINUOUS
 62
               7
100
AcDbLine
 10
-24.438494225299564
 20
-17.400000545712814
 30
0.0
 11
-28.685714393744206
 21
-17.400000545712814
 31
0.0
  0
LINE
  5
3B7
100
AcDbEntity
  8
0
  6
CONTINUOUS
 62
               7
100
AcDbLine
 10
-28.400000108029928
 20
-19.400000545712814
 30
0.0
 11
-28.685714393744206
 21
-17.400000545712814
 31
0.0
  0
LINE
  5
3B8
100
AcDbEntity
  8
0
  6
CONTINUOUS
 62
               7
100
AcDbLine
 10
-24.400000108029928
 20
-19.400000545712814
 30
0.0
 11
-28.400000108029928
 21
-19.400000545712814
 31
0.0
  0
LINE
  5
3B9
100
AcDbEntity
  8
0
  6
CONTINUOUS
 62
               7
100
AcDbLine
 10
-27.317393726342203
 20
-12.400000545712814
 30
0.0
 11
-29.400000108029928
 21
-12.400000545712814
 31
0.0
  0
LINE
  5
3BA
100
AcDbEntity
  8
0
  6
CENTER
 62
               2
100
AcDbLine
 10
-28.542861141064378
 20
-10.500000545712751
 30
0.0
 11
-30.43544939909026
 21
-10.500000545712751
 31
0.0
  0
LINE
  5
3BB
100
AcDbEntity
  8
0
  6
CONTINUOUS
 62
               7
100
AcDbLine
 10
-28.800000108029934
 20
-12.000000545712751
 30
0.0
 11
-28.800000108029934
 21
-8.9000005457127855
 31
0.0
  0
LINE
  5
3BC
100
AcDbEntity
  8
0
  6
CONTINUOUS
 62
               7
100
AcDbLine
 10
-28.800000108029934
 20
-8.9000005457127855
 30
0.0
 11
-30.000000108029923
 21
-8.9000005457127855
 31
0.0
  0
LINE
  5
3BD
100
AcDbEntity
  8
0
  6
CENTER
 62
               2
100
AcDbLine
 10
-26.4000001080299
 20
-13.449816572714056
 30
0.0
 11
-26.400000108029928
 21
-31.522492764685737
 31
0.0
  0
LINE
  5
3BE
100
AcDbEntity
  8
0
  6
CONTINUOUS
 62
               7
100
AcDbLine
 10
-30.000000108029923
 20
7.4083483032914756
 30
0.0
 11
-30.000000108029923
 21
-11.408349394716979
 31
0.0
  0
LINE
  5
3BF
100
AcDbEntity
  8
0
  6
CONTINUOUS
 62
               7
100
AcDbLine
 10
-29.400000108029928
 20
-11.500000545712751
 30
0.0
 11
-29.400000108029928
 21
-9.5000005457127514
 31
0.0
  0
ARC
  5
3C0
100
AcDbEntity
  8
0
  6
CONTINUOUS
 62
               7
100
AcDbCircle
 10
-28.900000108029928
 20
-9.5000005457127514
 30
0.0
 40
0.5
100
AcDbArc
 50
89.999999999999815
 51
179.99999999999969
  0
ARC
  5
3C1
100
AcDbEntity
  8
0
  6
CONTINUOUS
 62
               7
100
AcDbCircle
 10
-28.900000108029928
 20
-11.500000545712751
 30
0.0
 40
0.5
100
AcDbArc
 50
179.99999999999963
 51
269.99999999999937
  0
LINE
  5
3C2
100
AcDbEntity
  8
0
  6
CONTINUOUS
 62
               7
100
AcDbLine
 10
-28.800000108029934
 20
-12.000000545712751
 30
0.0
 11
-28.900000108029928
 21
-12.000000545712751
 31
0.0
  0
LINE
  5
3C3
100
AcDbEntity
  8
0
  6
CONTINUOUS
 62
               7
100
AcDbLine
 10
-29.182320392130265
 20
-11.912669004872768
 30
0.0
 11
-29.504363375779121
 21
-11.908330356249095
 31
0.0
  0
LINE
  5
3C4
100
AcDbEntity
  8
0
  6
CONTINUOUS
 62
               7
100
AcDbLine
 10
-24.4000001080299
 20
-19.400000545712814
 30
0.0
 11
-24.167736283326519
 21
-17.774153772789006
 31
0.0
  0
LINE
  5
3C5
100
AcDbEntity
  8
0
  6
CONTINUOUS
 62
               7
100
AcDbLine
 10
-24.650000108029928
 20
-17.400000545712814
 30
0.0
 11
-24.6500001080299
 21
-17.099050071172556
 31
0.0
  0
LINE
  5
3C6
100
AcDbEntity
  8
0
  6
CONTINUOUS
 62
               7
100
AcDbLine
 10
-28.900000108029928
 20
-9.0000005457127514
 30
0.0
 11
-28.800000108029934
 21
-9.0000005457127514
 31
0.0
  0
ENDBLK
  5
3C7
100
AcDbEntity
  8
0
100
AcDbBlockEnd
  0
BLOCK
  5
3C8
100
AcDbEntity
  8
0
100
AcDbBlockBegin
  2
NCT60-8
 70
               0
 10
0.0
 20
0.0
 30
0.0
  3
NCT60-8
  1

  0
LINE
  5
3C9
100
AcDbEntity
  8
0
  6
CONTINUOUS
 62
               7
100
AcDbLine
 10
-29.182320284100456
 20
-0.5873315408400686
 30
0.0
 11
-29.50436326774917
 21
-0.5916701894637413
 31
0.0
  0
LINE
  5
3CA
100
AcDbEntity
  8
0
  6
CONTINUOUS
 62
               7
100
AcDbLine
 10
-28.799999999999983
 20
-3.5
 30
0.0
 11
-28.899999999999977
 21
-3.5
 31
0.0
  0
ARC
  5
3CB
100
AcDbEntity
  8
0
  6
CONTINUOUS
 62
               7
100
AcDbCircle
 10
-28.899999999999977
 20
-3.0
 30
0.0
 40
0.5
100
AcDbArc
 50
179.99999999999963
 51
269.99999999999937
  0
ARC
  5
3CC
100
AcDbEntity
  8
0
  6
CONTINUOUS
 62
               7
100
AcDbCircle
 10
-28.899999999999977
 20
-1.0
 30
0.0
 40
0.5
100
AcDbArc
 50
89.999999999999815
 51
179.99999999999963
  0
LINE
  5
3CD
100
AcDbEntity
  8
0
  6
CONTINUOUS
 62
               7
100
AcDbLine
 10
-28.799999999999983
 20
-0.5
 30
0.0
 11
-28.899999999999977
 21
-0.5
 31
0.0
  0
LINE
  5
3CE
100
AcDbEntity
  8
0
  6
CONTINUOUS
 62
               7
100
AcDbLine
 10
-29.399999999999977
 20
-3.0
 30
0.0
 11
-29.399999999999977
 21
-1.0
 31
0.0
  0
CIRCLE
  5
3CF
100
AcDbEntity
  8
0
  6
DASHED
 62
               2
100
AcDbCircle
 10
-26.400000000000034
 20
-4.1000000000000227
 30
0.0
 40
3.0
  0
LINE
  5
3D0
100
AcDbEntity
  8
0
  6
CENTER
 62
               2
100
AcDbLine
 10
-31.399999971986688
 20
-4.1000000000000227
 30
0.0
 11
-21.399999971986688
 21
-4.0999999999999943
 31
0.0
  0
LINE
  5
3D1
100
AcDbEntity
  8
0
  6
CENTER
 62
               2
100
AcDbLine
 10
-26.400000000000034
 20
-9.099999978533674
 30
0.0
 11
-26.400000000000034
 21
0.900000021466326
 31
0.0
  0
LINE
  5
3D2
100
AcDbEntity
  8
0
  6
CONTINUOUS
 62
               4
100
AcDbLine
 10
-10.349999673410821
 20
-18.0
 30
0.0
 11
-16.349999673410821
 21
-18.0
 31
0.0
  0
LINE
  5
3D3
100
AcDbEntity
  8
0
  6
CONTINUOUS
 62
               4
100
AcDbLine
 10
-10.349999673410821
 20
-17.0
 30
0.0
 11
-10.349999673410821
 21
-18.0
 31
0.0
  0
LINE
  5
3D4
100
AcDbEntity
  8
0
  6
CONTINUOUS
 62
               4
100
AcDbLine
 10
-16.349999673410821
 20
-17.0
 30
0.0
 11
-16.349999673410821
 21
-18.0
 31
0.0
  0
LINE
  5
3D5
100
AcDbEntity
  8
0
  6
CENTER
 62
             200
100
AcDbLine
 10
-13.349999672702978
 20
-13.999999997392536
 30
0.0
 11
-13.349999672702978
 21
-20.0
 31
0.0
  0
LINE
  5
3D6
100
AcDbEntity
  8
0
  6
CONTINUOUS
 62
               7
100
AcDbLine
 10
-30.0
 20
-16.799999999999983
 30
0.0
 11
30.0
 21
-16.799999999999983
 31
0.0
  0
LINE
  5
3D7
100
AcDbEntity
  8
0
  6
CONTINUOUS
 62
               7
100
AcDbLine
 10
-30.0
 20
-16.799999999999983
 30
0.0
 11
-29.799999999999983
 21
-17.0
 31
0.0
  0
LINE
  5
3D8
100
AcDbEntity
  8
0
  6
CONTINUOUS
 62
               7
100
AcDbLine
 10
30.0
 20
-16.799999999999983
 30
0.0
 11
29.800000000000011
 21
-17.0
 31
0.0
  0
LINE
  5
3D9
100
AcDbEntity
  8
0
  6
CONTINUOUS
 62
               4
100
AcDbLine
 10
29.70000013295288
 20
-18.0
 30
0.0
 11
23.70000013295288
 21
-18.0
 31
0.0
  0
LINE
  5
3DA
100
AcDbEntity
  8
0
  6
CONTINUOUS
 62
               4
100
AcDbLine
 10
29.70000013295288
 20
-17.0
 30
0.0
 11
29.70000013295288
 21
-18.0
 31
0.0
  0
LINE
  5
3DB
100
AcDbEntity
  8
0
  6
CONTINUOUS
 62
               4
100
AcDbLine
 10
23.70000013295288
 20
-17.0
 30
0.0
 11
23.70000013295288
 21
-18.0
 31
0.0
  0
LINE
  5
3DC
100
AcDbEntity
  8
0
  6
CENTER
 62
             200
100
AcDbLine
 10
26.700000133660694
 20
-13.999999997392536
 30
0.0
 11
26.700000133660694
 21
-20.0
 31
0.0
  0
LINE
  5
3DD
100
AcDbEntity
  8
0
  6
CONTINUOUS
 62
               7
100
AcDbLine
 10
-30.0
 20
-11.0
 30
0.0
 11
-18.999999999999972
 21
-11.0
 31
0.0
  0
LINE
  5
3DE
100
AcDbEntity
  8
0
  6
CONTINUOUS
 62
               7
100
AcDbLine
 10
-30.0
 20
-11.0
 30
0.0
 11
-30.0
 21
-16.799999999999983
 31
0.0
  0
LINE
  5
3DF
100
AcDbEntity
  8
0
  6
CONTINUOUS
 62
               7
100
AcDbLine
 10
-22.699999999999989
 20
-10.500000001673413
 30
0.0
 11
-22.699999999999989
 21
-0.5
 31
0.0
  0
LINE
  5
3E0
100
AcDbEntity
  8
0
  6
CONTINUOUS
 62
               7
100
AcDbLine
 10
-29.999999999999972
 20
-9.9083488506775552
 30
0.0
 11
-29.999999999999972
 21
-1.0916511509958582
 31
0.0
  0
LINE
  5
3E1
100
AcDbEntity
  8
0
  6
CONTINUOUS
 62
               7
100
AcDbLine
 10
-28.799999999999983
 20
-3.6000000000000227
 30
0.0
 11
-28.799999999999983
 21
-0.5
 31
0.0
  0
LINE
  5
3E2
100
AcDbEntity
  8
0
  6
CONTINUOUS
 62
               7
100
AcDbLine
 10
-22.699999999999989
 20
-10.500000001673413
 30
0.0
 11
-18.999999999999972
 21
-10.467710590847616
 31
0.0
  0
ARC
  5
3E3
100
AcDbEntity
  8
0
  6
CONTINUOUS
 62
               7
100
AcDbCircle
 10
-29.499999999999972
 20
-9.9083488506775552
 30
0.0
 40
0.5
100
AcDbArc
 50
179.99999999999963
 51
269.49999999999909
  0
LINE
  5
3E4
100
AcDbEntity
  8
0
  6
CONTINUOUS
 62
               7
100
AcDbLine
 10
-22.699999999999989
 20
-10.500000001673413
 30
0.0
 11
-29.50436326774917
 21
-10.408329812209672
 31
0.0
  0
LINE
  5
3E5
100
AcDbEntity
  8
0
  6
CENTER
 62
               2
100
AcDbLine
 10
-17.855588219247181
 20
-5.5
 30
0.0
 11
-31.999999999999972
 21
-5.5
 31
0.0
  0
LINE
  5
3E6
100
AcDbEntity
  8
0
  6
CONTINUOUS
 62
               7
100
AcDbLine
 10
-28.799999999999983
 20
-3.6000000000000227
 30
0.0
 11
-29.999999999999972
 21
-3.6000000000000227
 31
0.0
  0
LINE
  5
3E7
100
AcDbEntity
  8
0
  6
CONTINUOUS
 62
               7
100
AcDbLine
 10
-22.699999999999989
 20
-0.5
 30
0.0
 11
-28.799999999999983
 21
-0.5821808204125603
 31
0.0
  0
LINE
  5
3E8
100
AcDbEntity
  8
0
  6
CONTINUOUS
 62
               7
100
AcDbLine
 10
-22.699999999999989
 20
-0.5
 30
0.0
 11
-18.999999999999972
 21
-0.532289410825797
 31
0.0
  0
ARC
  5
3E9
100
AcDbEntity
  8
0
  6
CONTINUOUS
 62
               7
100
AcDbCircle
 10
-29.499999999999972
 20
-1.0916511509958582
 30
0.0
 40
0.5
100
AcDbArc
 50
90.500000000000171
 51
179.99999999999963
  0
LINE
  5
3EA
100
AcDbEntity
  8
0
  6
CENTER
 62
               2
100
AcDbLine
 10
-28.195856986851084
 20
-2.0
 30
0.0
 11
-30.399999999999977
 21
-2.0
 31
0.0
  0
LINE
  5
3EB
100
AcDbEntity
  8
0
  6
CONTINUOUS
 62
               7
100
AcDbLine
 10
-18.999999999999972
 20
-0.0000000091128811
 30
0.0
 11
-18.999999999999972
 21
-11.000000009112881
 31
0.0
  0
LINE
  5
3EC
100
AcDbEntity
  8
0
  6
CONTINUOUS
 62
               7
100
AcDbLine
 10
30.0
 20
-1.0
 30
0.0
 11
-18.999999999999972
 21
-1.0
 31
0.0
  0
LINE
  5
3ED
100
AcDbEntity
  8
0
  6
CONTINUOUS
 62
               7
100
AcDbLine
 10
29.0
 20
0.0
 30
0.0
 11
-18.999999999999972
 21
0.0
 31
0.0
  0
LINE
  5
3EE
100
AcDbEntity
  8
0
  6
CONTINUOUS
 62
               7
100
AcDbLine
 10
30.0
 20
-1.0
 30
0.0
 11
30.0
 21
-16.799999999999983
 31
0.0
  0
LINE
  5
3EF
100
AcDbEntity
  8
0
  6
CENTER
 62
               2
100
AcDbLine
 10
27.413203435596415
 20
-7.0
 30
0.0
 11
15.013203435596438
 21
-7.0
 31
0.0
  0
LINE
  5
3F0
100
AcDbEntity
  8
0
  6
CONTINUOUS
 62
               7
100
AcDbLine
 10
29.800000000000011
 20
-17.0
 30
0.0
 11
-29.799999999999983
 21
-17.0
 31
0.0
  0
LINE
  5
3F1
100
AcDbEntity
  8
0
  6
CONTINUOUS
 62
               7
100
AcDbLine
 10
29.0
 20
0.0
 30
0.0
 11
30.0
 21
-1.0
 31
0.0
  0
LINE
  5
3F2
100
AcDbEntity
  8
0
  6
CENTER
 62
               2
100
AcDbLine
 10
21.213203435596427
 20
-0.799999999999983
 30
0.0
 11
21.213203435596427
 21
-13.199999999999989
 31
0.0
  0
CIRCLE
  5
3F3
100
AcDbEntity
  8
0
  6
CONTINUOUS
 62
               7
100
AcDbCircle
 10
21.213203435596427
 20
-7.0
 30
0.0
 40
4.75
  0
LINE
  5
3F4
100
AcDbEntity
  8
0
  6
CONTINUOUS
 62
               7
100
AcDbLine
 10
19.188203435596392
 20
-3.4925971146730319
 30
0.0
 11
17.163203435596415
 21
-7.0
 31
0.0
  0
LINE
  5
3F5
100
AcDbEntity
  8
0
  6
CONTINUOUS
 62
               7
100
AcDbLine
 10
17.163203435596415
 20
-7.0
 30
0.0
 11
19.188203435596449
 21
-10.507402885326997
 31
0.0
  0
LINE
  5
3F6
100
AcDbEntity
  8
0
  6
CONTINUOUS
 62
               7
100
AcDbLine
 10
19.188203435596449
 20
-10.507402885326997
 30
0.0
 11
23.238203435596404
 21
-10.507402885326997
 31
0.0
  0
LINE
  5
3F7
100
AcDbEntity
  8
0
  6
CONTINUOUS
 62
               7
100
AcDbLine
 10
23.238203435596404
 20
-10.507402885326997
 30
0.0
 11
25.263203435596438
 21
-7.0
 31
0.0
  0
LINE
  5
3F8
100
AcDbEntity
  8
0
  6
CONTINUOUS
 62
               7
100
AcDbLine
 10
25.263203435596438
 20
-7.0
 30
0.0
 11
23.238203435596404
 21
-3.4925971146730319
 31
0.0
  0
LINE
  5
3F9
100
AcDbEntity
  8
0
  6
CONTINUOUS
 62
               7
100
AcDbLine
 10
23.238203435596404
 20
-3.4925971146730319
 30
0.0
 11
19.188203435596392
 21
-3.4925971146730319
 31
0.0
  0
LINE
  5
3FA
100
AcDbEntity
  8
0
  6
CONTINUOUS
 62
               7
100
AcDbLine
 10
21.813203435596449
 20
-3.4925971146730319
 30
0.0
 11
21.813203435596449
 21
-10.507402885326997
 31
0.0
  0
LINE
  5
3FB
100
AcDbEntity
  8
0
  6
CONTINUOUS
 62
               7
100
AcDbLine
 10
20.613203435596404
 20
-3.4925971146730319
 30
0.0
 11
20.613203435596404
 21
-10.507402885326997
 31
0.0
  0
ARC
  5
3FC
100
AcDbEntity
  8
0
  6
CONTINUOUS
 62
               7
100
AcDbCircle
 10
21.213203435596427
 20
-7.0
 30
0.0
 40
3.5074028853269792
100
AcDbArc
 50
279.84984773017413
 51
80.150152269825071
  0
ARC
  5
3FD
100
AcDbEntity
  8
0
  6
CONTINUOUS
 62
               7
100
AcDbCircle
 10
21.213203435596427
 20
-7.0
 30
0.0
 40
3.5074028853269792
100
AcDbArc
 50
99.849847730174503
 51
260.15015226982462
  0
LINE
  5
3FE
100
AcDbEntity
  8
0
  6
CENTER
 62
               2
100
AcDbLine
 10
0.0
 20
2.0
 30
0.0
 11
0.0
 21
-19.0
 31
0.0
  0
ARC
  5
3FF
100
AcDbEntity
  8
0
  6
CONTINUOUS
 62
               7
100
AcDbCircle
 10
21.213203435596427
 20
-7.0
 30
0.0
 40
4.0
100
AcDbArc
 50
1.2647703579682756
 51
58.735229642031562
  0
ARC
  5
400
100
AcDbEntity
  8
0
  6
CONTINUOUS
 62
               7
100
AcDbCircle
 10
21.213203435596427
 20
-7.0
 30
0.0
 40
4.0
100
AcDbArc
 50
61.264770357968032
 51
118.73522964203177
  0
ARC
  5
401
100
AcDbEntity
  8
0
  6
CONTINUOUS
 62
               7
100
AcDbCircle
 10
21.213203435596427
 20
-7.0
 30
0.0
 40
4.0
100
AcDbArc
 50
121.26477035796792
 51
178.73522964203138
  0
ARC
  5
402
100
AcDbEntity
  8
0
  6
CONTINUOUS
 62
               7
100
AcDbCircle
 10
21.213203435596427
 20
-7.0
 30
0.0
 40
4.0
100
AcDbArc
 50
181.26477035796773
 51
238.73522964203116
  0
ARC
  5
403
100
AcDbEntity
  8
0
  6
CONTINUOUS
 62
               7
100
AcDbCircle
 10
21.213203435596427
 20
-7.0
 30
0.0
 40
4.0
100
AcDbArc
 50
241.2647703579683
 51
298.73522964203056
  0
ARC
  5
404
100
AcDbEntity
  8
0
  6
CONTINUOUS
 62
               7
100
AcDbCircle
 10
21.213203435596427
 20
-7.0
 30
0.0
 40
4.0
100
AcDbArc
 50
301.26477035796779
 51
358.7352296420309
  0
ENDBLK
  5
405
100
AcDbEntity
  8
0
100
AcDbBlockEnd
  0
BLOCK
  5
406
100
AcDbEntity
  8
0
100
AcDbBlockBegin
  2
NCT60-9
 70
               0
 10
0.0
 20
0.0
 30
0.0
  3
NCT60-9
  1

  0
LINE
  5
407
100
AcDbEntity
  8
0
  6
CONTINUOUS
 62
               7
100
AcDbLine
 10
-29.400000000000034
 20
12.350152617126824
 30
0.0
 11
-29.400000000000034
 21
11.950152617126818
 31
0.0
  0
LINE
  5
408
100
AcDbEntity
  8
0
  6
CONTINUOUS
 62
               7
100
AcDbLine
 10
-24.650000000000034
 20
14.850152617126824
 30
0.0
 11
-24.650000000000034
 21
13.850152617126824
 31
0.0
  0
LINE
  5
409
100
AcDbEntity
  8
0
  6
CONTINUOUS
 62
               7
100
AcDbLine
 10
-29.400000000000034
 20
12.350152617126824
 30
0.0
 11
-23.400000000000034
 21
12.350152617126824
 31
0.0
  0
LINE
  5
40A
100
AcDbEntity
  8
0
  6
CONTINUOUS
 62
               7
100
AcDbLine
 10
-23.400000000000034
 20
12.350152617126824
 30
0.0
 11
-23.400000000000034
 21
11.950152617126818
 31
0.0
  0
LINE
  5
40B
100
AcDbEntity
  8
0
  6
CONTINUOUS
 62
               7
100
AcDbLine
 10
-23.614285714285757
 20
13.850152617126824
 30
0.0
 11
-23.400000000000034
 21
12.350152617126824
 31
0.0
  0
LINE
  5
40C
100
AcDbEntity
  8
0
  6
CONTINUOUS
 62
               7
100
AcDbLine
 10
-24.650000000000034
 20
17.350152617126824
 30
0.0
 11
-24.650000000000034
 21
16.350152617126824
 31
0.0
  0
LINE
  5
40D
100
AcDbEntity
  8
0
  6
CONTINUOUS
 62
               7
100
AcDbLine
 10
-23.971428571428618
 20
16.350152617126824
 30
0.0
 11
-23.757142857142895
 21
14.850152617126824
 31
0.0
  0
LINE
  5
40E
100
AcDbEntity
  8
0
  6
CONTINUOUS
 62
               7
100
AcDbLine
 10
-28.150000000000034
 20
14.850152617126824
 30
0.0
 11
-28.150000000000034
 21
13.850152617126824
 31
0.0
  0
LINE
  5
40F
100
AcDbEntity
  8
0
  6
CONTINUOUS
 62
               7
100
AcDbLine
 10
-28.150000000000034
 20
17.350152617126824
 30
0.0
 11
-28.150000000000034
 21
16.350152617126824
 31
0.0
  0
LINE
  5
410
100
AcDbEntity
  8
0
  6
CONTINUOUS
 62
               7
100
AcDbLine
 10
-28.828571428571479
 20
16.350152617126824
 30
0.0
 11
-29.042857142857173
 21
14.850152617126824
 31
0.0
  0
LINE
  5
411
100
AcDbEntity
  8
0
  6
CONTINUOUS
 62
               7
100
AcDbLine
 10
-28.685714285714312
 20
17.350152617126824
 30
0.0
 11
-24.114285714285757
 21
17.350152617126824
 31
0.0
  0
LINE
  5
412
100
AcDbEntity
  8
0
  6
CONTINUOUS
 62
               7
100
AcDbLine
 10
-28.828571428571479
 20
16.350152617126824
 30
0.0
 11
-23.971428571428618
 21
16.350152617126824
 31
0.0
  0
LINE
  5
413
100
AcDbEntity
  8
0
  6
CONTINUOUS
 62
               7
100
AcDbLine
 10
-29.042857142857173
 20
14.850152617126824
 30
0.0
 11
-23.757142857142895
 21
14.850152617126824
 31
0.0
  0
LINE
  5
414
100
AcDbEntity
  8
0
  6
CONTINUOUS
 62
               7
100
AcDbLine
 10
-29.185714285714312
 20
13.850152617126824
 30
0.0
 11
-23.614285714285757
 21
13.850152617126824
 31
0.0
  0
LINE
  5
415
100
AcDbEntity
  8
0
  6
CONTINUOUS
 62
               7
100
AcDbLine
 10
-29.185714285714312
 20
13.850152617126824
 30
0.0
 11
-29.400000000000034
 21
12.350152617126824
 31
0.0
  0
LINE
  5
416
100
AcDbEntity
  8
0
  6
PHANTOM
 62
               2
100
AcDbLine
 10
-28.299999975623393
 20
20.541306906303433
 30
0.0
 11
-24.499999963702464
 21
22.735237934550312
 31
0.0
  0
LINE
  5
417
100
AcDbEntity
  8
0
  6
PHANTOM
 62
               2
100
AcDbLine
 10
-28.300000005425716
 20
21.465067305525807
 30
0.0
 11
-24.499999963702464
 21
23.658998348673848
 31
0.0
  0
LINE
  5
418
100
AcDbEntity
  8
0
  6
CONTINUOUS
 62
               7
100
AcDbLine
 10
-25.100000000000023
 20
23.312588167334511
 30
0.0
 11
-25.100000000000023
 21
24.850152617126824
 31
0.0
  0
LINE
  5
419
100
AcDbEntity
  8
0
  6
CONTINUOUS
 62
               7
100
AcDbLine
 10
-27.700000000000045
 20
21.811477467441492
 30
0.0
 11
-27.700000000000045
 21
24.850152617126824
 31
0.0
  0
LINE
  5
41A
100
AcDbEntity
  8
0
  6
CONTINUOUS
 62
               7
100
AcDbLine
 10
-25.100000000000023
 20
19.350152617126824
 30
0.0
 11
-25.100000000000023
 21
22.388827768112137
 31
0.0
  0
LINE
  5
41B
100
AcDbEntity
  8
0
  6
CONTINUOUS
 62
               7
100
AcDbLine
 10
-27.700000000000045
 20
19.350152617126824
 30
0.0
 11
-27.700000000000045
 21
20.887717068219118
 31
0.0
  0
LINE
  5
41C
100
AcDbEntity
  8
0
  6
CONTINUOUS
 62
               7
100
AcDbLine
 10
-27.700000000000045
 20
24.850152617126824
 30
0.0
 11
-25.100000000000023
 21
24.850152617126824
 31
0.0
  0
LINE
  5
41D
100
AcDbEntity
  8
0
  6
CONTINUOUS
 62
               7
100
AcDbLine
 10
-28.400000000000034
 20
19.350152617126824
 30
0.0
 11
-24.400000000000034
 21
19.350152617126824
 31
0.0
  0
LINE
  5
41E
100
AcDbEntity
  8
0
  6
CONTINUOUS
 62
               7
100
AcDbLine
 10
-25.55000000000004
 20
24.850152617126824
 30
0.0
 11
-25.55000000000004
 21
26.879020139308878
 31
0.0
  0
LINE
  5
41F
100
AcDbEntity
  8
0
  6
CONTINUOUS
 62
               7
100
AcDbLine
 10
-26.350000000000051
 20
24.850152617126824
 30
0.0
 11
-26.350000000000051
 21
26.417139924914565
 31
0.0
  0
LINE
  5
420
100
AcDbEntity
  8
0
  6
CONTINUOUS
 62
               7
100
AcDbLine
 10
-26.450000000000045
 20
24.850152617126824
 30
0.0
 11
-26.450000000000045
 21
26.359404898115272
 31
0.0
  0
LINE
  5
421
100
AcDbEntity
  8
0
  6
CONTINUOUS
 62
               7
100
AcDbLine
 10
-27.250000000000057
 20
24.850152617126824
 30
0.0
 11
-27.250000000000057
 21
25.897524683720931
 31
0.0
  0
ARC
  5
422
100
AcDbEntity
  8
0
  6
CONTINUOUS
 62
               7
100
AcDbCircle
 10
-24.80000000000004
 20
33.501521019951738
 30
0.0
 40
5.0
100
AcDbArc
 50
179.99999999999963
 51
209.99999999999955
  0
ARC
  5
423
100
AcDbEntity
  8
0
  6
CONTINUOUS
 62
               7
100
AcDbCircle
 10
-24.000000000000028
 20
33.71588037389661
 30
0.0
 40
5.0
100
AcDbArc
 50
179.99999999999963
 51
209.99999999999955
  0
ARC
  5
424
100
AcDbEntity
  8
0
  6
CONTINUOUS
 62
               7
100
AcDbCircle
 10
-28.000000000000028
 20
33.501521019951738
 30
0.0
 40
5.0
100
AcDbArc
 50
329.99999999999926
 51
0.0
  0
ARC
  5
425
100
AcDbEntity
  8
0
  6
CONTINUOUS
 62
               7
100
AcDbCircle
 10
-28.80000000000004
 20
33.71588037389661
 30
0.0
 40
5.0
100
AcDbArc
 50
329.99999999999926
 51
0.0
  0
LINE
  5
426
100
AcDbEntity
  8
0
  6
CONTINUOUS
 62
               7
100
AcDbLine
 10
-26.717949192431178
 20
28.42350646757815
 30
0.0
 11
-28.330127018922241
 21
31.21588037389661
 31
0.0
  0
LINE
  5
427
100
AcDbEntity
  8
0
  6
CONTINUOUS
 62
               7
100
AcDbLine
 10
-27.517949192431161
 20
28.209147113633222
 30
0.0
 11
-29.130127018922252
 21
31.001521019951738
 31
0.0
  0
LINE
  5
428
100
AcDbEntity
  8
0
  6
CONTINUOUS
 62
               7
100
AcDbLine
 10
-26.082050807568919
 20
28.42350646757815
 30
0.0
 11
-24.469872981077856
 21
31.21588037389661
 31
0.0
  0
LINE
  5
429
100
AcDbEntity
  8
0
  6
CONTINUOUS
 62
               7
100
AcDbLine
 10
-25.282050807568908
 20
28.209147113633222
 30
0.0
 11
-23.669872981077845
 21
31.001521019951738
 31
0.0
  0
LINE
  5
42A
100
AcDbEntity
  8
0
  6
CONTINUOUS
 62
               7
100
AcDbLine
 10
-29.000000000000028
 20
37.072802312061938
 30
0.0
 11
-29.000000000000028
 21
33.71588037389661
 31
0.0
  0
LINE
  5
42B
100
AcDbEntity
  8
0
  6
CONTINUOUS
 62
               7
100
AcDbLine
 10
-29.80000000000004
 20
37.072802312061938
 30
0.0
 11
-29.80000000000004
 21
33.501521019951738
 31
0.0
  0
LINE
  5
42C
100
AcDbEntity
  8
0
  6
CONTINUOUS
 62
               7
100
AcDbLine
 10
-23.000000000000028
 20
37.072802312061938
 30
0.0
 11
-23.000000000000028
 21
33.501521019951738
 31
0.0
  0
LINE
  5
42D
100
AcDbEntity
  8
0
  6
CONTINUOUS
 62
               7
100
AcDbLine
 10
-23.80000000000004
 20
37.072802312061938
 30
0.0
 11
-23.80000000000004
 21
33.71588037389661
 31
0.0
  0
LINE
  5
42E
100
AcDbEntity
  8
0
  6
CONTINUOUS
 62
               7
100
AcDbLine
 10
-27.250000000000057
 20
26.821285068541627
 30
0.0
 11
-27.250000000000057
 21
27.209147113633222
 31
0.0
  0
LINE
  5
42F
100
AcDbEntity
  8
0
  6
CONTINUOUS
 62
               7
100
AcDbLine
 10
-26.450000000000045
 20
27.283165283550673
 30
0.0
 11
-26.450000000000045
 21
27.423506467578122
 31
0.0
  0
LINE
  5
430
100
AcDbEntity
  8
0
  6
CONTINUOUS
 62
               7
100
AcDbLine
 10
-26.350000000000051
 20
27.34090031042679
 30
0.0
 11
-26.350000000000051
 21
27.423506467578122
 31
0.0
  0
LINE
  5
431
100
AcDbEntity
  8
0
  6
CONTINUOUS
 62
               7
100
AcDbLine
 10
-26.80000000000004
 20
37.072802312061938
 30
0.0
 11
-26.80000000000004
 21
28.565622635089497
 31
0.0
  0
LINE
  5
432
100
AcDbEntity
  8
0
  6
CONTINUOUS
 62
               7
100
AcDbLine
 10
-26.000000000000028
 20
37.072802312061938
 30
0.0
 11
-26.000000000000028
 21
28.565622635089497
 31
0.0
  0
ARC
  5
433
100
AcDbEntity
  8
0
  6
CONTINUOUS
 62
               7
100
AcDbCircle
 10
-29.250000000000057
 20
27.209147113633222
 30
0.0
 40
2.0
100
AcDbArc
 50
0.0
 51
29.999999999999954
  0
ARC
  5
434
100
AcDbEntity
  8
0
  6
CONTINUOUS
 62
               7
100
AcDbCircle
 10
-28.450000000000045
 20
27.423506467578122
 30
0.0
 40
2.0
100
AcDbArc
 50
0.0
 51
29.999999999999954
  0
ARC
  5
435
100
AcDbEntity
  8
0
  6
CONTINUOUS
 62
               7
100
AcDbCircle
 10
-24.350000000000051
 20
27.423506467578122
 30
0.0
 40
2.0
100
AcDbArc
 50
149.99999999999966
 51
179.99999999999963
  0
ARC
  5
436
100
AcDbEntity
  8
0
  6
CONTINUOUS
 62
               7
100
AcDbCircle
 10
-23.55000000000004
 20
27.209147113633222
 30
0.0
 40
2.0
100
AcDbArc
 50
149.9999999999996
 51
160.79511110182807
  0
LINE
  5
437
100
AcDbEntity
  8
0
  6
PHANTOM
 62
               2
100
AcDbLine
 10
-27.899999999465251
 20
26.446007394155529
 30
0.0
 11
-24.899999999465251
 21
28.17805820043948
 31
0.0
  0
LINE
  5
438
100
AcDbEntity
  8
0
  6
PHANTOM
 62
               2
100
AcDbLine
 10
-27.899999999465251
 20
25.522247009834317
 30
0.0
 11
-24.899999969662929
 21
27.254297831019429
 31
0.0
  0
LINE
  5
439
100
AcDbEntity
  8
0
  6
CONTINUOUS
 62
               7
100
AcDbLine
 10
-30.200000000000045
 20
49.379786464893087
 30
0.0
 11
-30.200000000000045
 21
37.072802312061938
 31
0.0
  0
LINE
  5
43A
100
AcDbEntity
  8
0
  6
CONTINUOUS
 62
               7
100
AcDbLine
 10
-28.600000000000051
 20
49.379786464893087
 30
0.0
 11
-28.600000000000051
 21
37.072802312061938
 31
0.0
  0
LINE
  5
43B
100
AcDbEntity
  8
0
  6
CONTINUOUS
 62
               7
100
AcDbLine
 10
-27.200000000000045
 20
49.379786464893087
 30
0.0
 11
-27.200000000000045
 21
37.072802312061938
 31
0.0
  0
LINE
  5
43C
100
AcDbEntity
  8
0
  6
CONTINUOUS
 62
               7
100
AcDbLine
 10
-25.600000000000051
 20
49.379786464893087
 30
0.0
 11
-25.600000000000051
 21
37.072802312061938
 31
0.0
  0
LINE
  5
43D
100
AcDbEntity
  8
0
  6
CONTINUOUS
 62
               7
100
AcDbLine
 10
-24.200000000000045
 20
49.379786464893087
 30
0.0
 11
-24.200000000000045
 21
37.072802312061938
 31
0.0
  0
LINE
  5
43E
100
AcDbEntity
  8
0
  6
CONTINUOUS
 62
               7
100
AcDbLine
 10
-22.600000000000051
 20
49.379786464893087
 30
0.0
 11
-22.600000000000051
 21
37.072802312061938
 31
0.0
  0
LINE
  5
43F
100
AcDbEntity
  8
0
  6
CONTINUOUS
 62
               7
100
AcDbLine
 10
-30.20000000074387
 20
49.379786464893087
 30
0.0
 11
-28.600000000000051
 21
49.379786464893087
 31
0.0
  0
LINE
  5
440
100
AcDbEntity
  8
0
  6
CONTINUOUS
 62
               7
100
AcDbLine
 10
-29.70000000074387
 20
49.579786464893076
 30
0.0
 11
-29.100000000371949
 21
49.579786464893076
 31
0.0
  0
LINE
  5
441
100
AcDbEntity
  8
0
  6
CONTINUOUS
 62
               7
100
AcDbLine
 10
-29.700000000371944
 20
49.379786475611681
 30
0.0
 11
-29.700000000371944
 21
49.579786464893076
 31
0.0
  0
LINE
  5
442
100
AcDbEntity
  8
0
  6
CONTINUOUS
 62
               7
100
AcDbLine
 10
-29.100000000371949
 20
49.379786475611681
 30
0.0
 11
-29.100000000371949
 21
49.579786464893076
 31
0.0
  0
LINE
  5
443
100
AcDbEntity
  8
0
  6
CONTINUOUS
 62
               7
100
AcDbLine
 10
-26.100000000371949
 20
49.379786475611681
 30
0.0
 11
-26.100000000371949
 21
49.579786464893076
 31
0.0
  0
LINE
  5
444
100
AcDbEntity
  8
0
  6
CONTINUOUS
 62
               7
100
AcDbLine
 10
-26.700000000371944
 20
49.379786475611681
 30
0.0
 11
-26.700000000371944
 21
49.579786464893076
 31
0.0
  0
LINE
  5
445
100
AcDbEntity
  8
0
  6
CONTINUOUS
 62
               7
100
AcDbLine
 10
-26.70000000074387
 20
49.579786464893076
 30
0.0
 11
-26.100000000371949
 21
49.579786464893076
 31
0.0
  0
LINE
  5
446
100
AcDbEntity
  8
0
  6
CONTINUOUS
 62
               7
100
AcDbLine
 10
-27.20000000074387
 20
49.379786464893087
 30
0.0
 11
-25.600000000000051
 21
49.379786464893087
 31
0.0
  0
LINE
  5
447
100
AcDbEntity
  8
0
  6
CONTINUOUS
 62
               7
100
AcDbLine
 10
-23.100000000371949
 20
49.379786475611681
 30
0.0
 11
-23.100000000371949
 21
49.579786464893076
 31
0.0
  0
LINE
  5
448
100
AcDbEntity
  8
0
  6
CONTINUOUS
 62
               7
100
AcDbLine
 10
-23.700000000371944
 20
49.379786475611681
 30
0.0
 11
-23.700000000371944
 21
49.579786464893076
 31
0.0
  0
LINE
  5
449
100
AcDbEntity
  8
0
  6
CONTINUOUS
 62
               7
100
AcDbLine
 10
-23.70000000074387
 20
49.579786464893076
 30
0.0
 11
-23.100000000371949
 21
49.579786464893076
 31
0.0
  0
LINE
  5
44A
100
AcDbEntity
  8
0
  6
CONTINUOUS
 62
               7
100
AcDbLine
 10
-24.20000000074387
 20
49.379786464893087
 30
0.0
 11
-22.600000000000051
 21
49.379786464893087
 31
0.0
  0
LINE
  5
44B
100
AcDbEntity
  8
0
  6
CONTINUOUS
 62
               7
100
AcDbLine
 10
-28.600000000000051
 20
37.072802312061938
 30
0.0
 11
-30.200000000000045
 21
37.072802312061938
 31
0.0
  0
LINE
  5
44C
100
AcDbEntity
  8
0
  6
CONTINUOUS
 62
               7
100
AcDbLine
 10
-25.600000000000051
 20
37.072802312061938
 30
0.0
 11
-27.200000000000045
 21
37.072802312061938
 31
0.0
  0
LINE
  5
44D
100
AcDbEntity
  8
0
  6
CONTINUOUS
 62
               7
100
AcDbLine
 10
-22.600000000000051
 20
37.072802312061938
 30
0.0
 11
-24.200000000000045
 21
37.072802312061938
 31
0.0
  0
LINE
  5
44E
100
AcDbEntity
  8
0
  6
CONTINUOUS
 62
               7
100
AcDbLine
 10
-30.199999989288955
 20
45.248116431474514
 30
0.0
 11
-28.599999995249419
 21
45.248116431474514
 31
0.0
  0
LINE
  5
44F
100
AcDbEntity
  8
0
  6
CONTINUOUS
 62
               7
100
AcDbLine
 10
-30.199999989288955
 20
45.940936790467802
 30
0.0
 11
-28.599999995249419
 21
45.940936790467802
 31
0.0
  0
LINE
  5
450
100
AcDbEntity
  8
0
  6
CONTINUOUS
 62
               7
100
AcDbLine
 10
-30.000000000000028
 20
46.448116408349577
 30
0.0
 11
-29.400000000000034
 21
46.448116408349577
 31
0.0
  0
LINE
  5
451
100
AcDbEntity
  8
0
  6
CONTINUOUS
 62
               7
100
AcDbLine
 10
-30.000000000000028
 20
49.379786464893087
 30
0.0
 11
-30.000000000000028
 21
46.448116408349577
 31
0.0
  0
LINE
  5
452
100
AcDbEntity
  8
0
  6
CONTINUOUS
 62
               7
100
AcDbLine
 10
-29.200000000000045
 20
49.379786464893087
 30
0.0
 11
-29.400000000000034
 21
46.448116408349577
 31
0.0
  0
LINE
  5
453
100
AcDbEntity
  8
0
  6
CONTINUOUS
 62
               7
100
AcDbLine
 10
-27.199999989288955
 20
45.248116431474514
 30
0.0
 11
-25.599999995249419
 21
45.248116431474514
 31
0.0
  0
LINE
  5
454
100
AcDbEntity
  8
0
  6
CONTINUOUS
 62
               7
100
AcDbLine
 10
-27.199999989288955
 20
45.940936790467802
 30
0.0
 11
-25.599999995249419
 21
45.940936790467802
 31
0.0
  0
LINE
  5
455
100
AcDbEntity
  8
0
  6
CONTINUOUS
 62
               7
100
AcDbLine
 10
-27.000000000000028
 20
49.379786464893087
 30
0.0
 11
-27.000000000000028
 21
46.448116408349577
 31
0.0
  0
LINE
  5
456
100
AcDbEntity
  8
0
  6
CONTINUOUS
 62
               7
100
AcDbLine
 10
-26.200000000000045
 20
49.379786464893087
 30
0.0
 11
-26.400000000000034
 21
46.448116408349577
 31
0.0
  0
LINE
  5
457
100
AcDbEntity
  8
0
  6
CONTINUOUS
 62
               7
100
AcDbLine
 10
-27.000000000000028
 20
46.448116408349577
 30
0.0
 11
-26.400000000000034
 21
46.448116408349577
 31
0.0
  0
LINE
  5
458
100
AcDbEntity
  8
0
  6
CONTINUOUS
 62
               7
100
AcDbLine
 10
-24.199999989288955
 20
45.248116431474514
 30
0.0
 11
-22.599999995249419
 21
45.248116431474514
 31
0.0
  0
LINE
  5
459
100
AcDbEntity
  8
0
  6
CONTINUOUS
 62
               7
100
AcDbLine
 10
-24.199999989288955
 20
45.940936790467802
 30
0.0
 11
-22.599999995249419
 21
45.940936790467802
 31
0.0
  0
LINE
  5
45A
100
AcDbEntity
  8
0
  6
CONTINUOUS
 62
               7
100
AcDbLine
 10
-24.000000000000028
 20
49.379786464893087
 30
0.0
 11
-24.000000000000028
 21
46.448116408349577
 31
0.0
  0
LINE
  5
45B
100
AcDbEntity
  8
0
  6
CONTINUOUS
 62
               7
100
AcDbLine
 10
-23.200000000000045
 20
49.379786464893087
 30
0.0
 11
-23.400000000000034
 21
46.448116408349577
 31
0.0
  0
LINE
  5
45C
100
AcDbEntity
  8
0
  6
CONTINUOUS
 62
               7
100
AcDbLine
 10
-24.000000000000028
 20
46.448116408349577
 30
0.0
 11
-23.400000000000034
 21
46.448116408349577
 31
0.0
  0
LINE
  5
45D
100
AcDbEntity
  8
0
  6
CENTER
 62
               2
100
AcDbLine
 10
-26.400000000000063
 20
31.522492218972957
 30
0.0
 11
-26.400000000000034
 21
10.75015261712683
 31
0.0
  0
LINE
  5
45E
100
AcDbEntity
  8
0
  6
CONTINUOUS
 62
               7
100
AcDbLine
 10
-24.400000000000034
 20
19.350152617126824
 30
0.0
 11
-24.114285714285757
 21
17.350152617126824
 31
0.0
  0
LINE
  5
45F
100
AcDbEntity
  8
0
  6
CONTINUOUS
 62
               7
100
AcDbLine
 10
-28.400000000000034
 20
19.350152617126824
 30
0.0
 11
-28.685714285714312
 21
17.350152617126824
 31
0.0
  0
LINE
  5
460
100
AcDbEntity
  8
0
  6
CONTINUOUS
 62
               7
100
AcDbLine
 10
-29.182320284100456
 20
-7.9126684591599883
 30
0.0
 11
-29.504363267749227
 21
-7.908329810536344
 31
0.0
  0
LINE
  5
461
100
AcDbEntity
  8
0
  6
CONTINUOUS
 62
               7
100
AcDbLine
 10
-28.80000000000004
 20
-8.0000000000000284
 30
0.0
 11
-28.900000000000063
 21
-8.0000000000000284
 31
0.0
  0
ARC
  5
462
100
AcDbEntity
  8
0
  6
CONTINUOUS
 62
               7
100
AcDbCircle
 10
-28.900000000000063
 20
-7.5000000000000284
 30
0.0
 40
0.5
100
AcDbArc
 50
179.99999999999963
 51
269.99999999999937
  0
ARC
  5
463
100
AcDbEntity
  8
0
  6
CONTINUOUS
 62
               7
100
AcDbCircle
 10
-28.900000000000063
 20
-5.5000000000000284
 30
0.0
 40
0.5
100
AcDbArc
 50
89.999999999999815
 51
179.99999999999963
  0
LINE
  5
464
100
AcDbEntity
  8
0
  6
CONTINUOUS
 62
               7
100
AcDbLine
 10
-28.80000000000004
 20
-5.0000000000000284
 30
0.0
 11
-28.900000000000063
 21
-5.0000000000000284
 31
0.0
  0
LINE
  5
465
100
AcDbEntity
  8
0
  6
CONTINUOUS
 62
               7
100
AcDbLine
 10
-29.400000000000063
 20
-7.5000000000000284
 30
0.0
 11
-29.400000000000034
 21
-5.5000000000000284
 31
0.0
  0
LINE
  5
466
100
AcDbEntity
  8
0
  6
DASHED
 62
               2
100
AcDbLine
 10
17.586856888740385
 20
-24.304371310012584
 30
0.0
 11
15.026019100214114
 21
-21.743533521486341
 31
0.0
  0
LINE
  5
467
100
AcDbEntity
  8
0
  6
DASHED
 62
               2
100
AcDbLine
 10
24.304371310012584
 20
-17.586856888740385
 30
0.0
 11
21.743533521486313
 21
-15.026019100214143
 31
0.0
  0
LINE
  5
468
100
AcDbEntity
  8
0
  6
DASHED
 62
               2
100
AcDbLine
 10
17.586856888740328
 20
24.304371310012613
 30
0.0
 11
15.026019100214114
 21
21.74353352148637
 31
0.0
  0
LINE
  5
469
100
AcDbEntity
  8
0
  6
DASHED
 62
               2
100
AcDbLine
 10
24.304371310012527
 20
17.586856888740414
 30
0.0
 11
21.743533521486313
 21
15.026019100214171
 31
0.0
  0
LINE
  5
46A
100
AcDbEntity
  8
0
  6
CENTER
 62
               2
100
AcDbLine
 10
0.0
 20
0.0
 30
0.0
 11
22.453549495869197
 21
22.453549495869225
 31
0.0
  0
LINE
  5
46B
100
AcDbEntity
  8
0
  6
CENTER
 62
               2
100
AcDbLine
 10
-32.0
 20
-0.0000000000000284
 30
0.0
 11
32.000000103858383
 21
-0.0000000000000284
 31
0.0
  0
LINE
  5
46C
100
AcDbEntity
  8
0
  6
CENTER
 62
               2
100
AcDbLine
 10
0.0
 20
-33.970134427855911
 30
0.0
 11
0.0
 21
25.47338369328105
 31
0.0
  0
LINE
  5
46D
100
AcDbEntity
  8
0
  6
CENTER
 62
               2
100
AcDbLine
 10
0.0
 20
-0.0000000000000284
 30
0.0
 11
22.583036858937305
 21
-22.58303685893739
 31
0.0
  0
CIRCLE
  5
46E
100
AcDbEntity
  8
0
  6
CONTINUOUS
 62
               7
100
AcDbCircle
 10
-0.0000000000000568
 20
-0.0000000000000284
 30
0.0
 40
2.1000000000000001
  0
CIRCLE
  5
46F
100
AcDbEntity
  8
0
  6
CONTINUOUS
 62
               2
100
AcDbCircle
 10
-0.0000000000000568
 20
-0.0000000000000284
 30
0.0
 40
2.5
  0
CIRCLE
  5
470
100
AcDbEntity
  8
0
  6
CENTER
 62
               2
100
AcDbCircle
 10
0.0
 20
0.0
 30
0.0
 40
22.5
  0
CIRCLE
  5
471
100
AcDbEntity
  8
0
  6
CONTINUOUS
 62
               7
100
AcDbCircle
 10
0.0
 20
-22.499999999999943
 30
0.0
 40
1.6499999999999999
  0
CIRCLE
  5
472
100
AcDbEntity
  8
0
  6
CONTINUOUS
 62
               2
100
AcDbCircle
 10
0.0
 20
-22.499999999999943
 30
0.0
 40
2.0
  0
CIRCLE
  5
473
100
AcDbEntity
  8
0
  6
CONTINUOUS
 62
               7
100
AcDbCircle
 10
22.499999999999943
 20
0.0000000000000853
 30
0.0
 40
1.6499999999999999
  0
CIRCLE
  5
474
100
AcDbEntity
  8
0
  6
CONTINUOUS
 62
               2
100
AcDbCircle
 10
22.499999999999943
 20
0.0000000000000853
 30
0.0
 40
2.0
  0
CIRCLE
  5
475
100
AcDbEntity
  8
0
  6
CONTINUOUS
 62
               7
100
AcDbCircle
 10
-0.0000000000001137
 20
22.500000000000028
 30
0.0
 40
1.6499999999999999
  0
CIRCLE
  5
476
100
AcDbEntity
  8
0
  6
CONTINUOUS
 62
               2
100
AcDbCircle
 10
-0.0000000000001137
 20
22.500000000000028
 30
0.0
 40
2.0
  0
ARC
  5
477
100
AcDbEntity
  8
0
  6
CONTINUOUS
 62
               7
100
AcDbCircle
 10
0.0
 20
0.0
 30
0.0
 40
28.999999999999989
100
AcDbArc
 50
229.06727542584358
 51
130.9327245741558
  0
ARC
  5
478
100
AcDbEntity
  8
0
  6
CONTINUOUS
 62
               7
100
AcDbCircle
 10
0.0
 20
0.0
 30
0.0
 40
29.999999999999989
100
AcDbArc
 50
195.46563704915849
 51
143.66739000997686
  0
LINE
  5
479
100
AcDbEntity
  8
0
  6
CONTINUOUS
 62
               7
100
AcDbLine
 10
-19.000000000000028
 20
-23.216373532487779
 30
0.0
 11
-19.000000000000028
 21
23.216373532487779
 31
0.0
  0
LINE
  5
47A
100
AcDbEntity
  8
0
  6
CONTINUOUS
 62
               7
100
AcDbLine
 10
-22.700000000000045
 20
-8.0000000000000284
 30
0.0
 11
-19.000000000000028
 21
-7.9677105891742315
 31
0.0
  0
LINE
  5
47B
100
AcDbEntity
  8
0
  6
CONTINUOUS
 62
               7
100
AcDbLine
 10
-22.700000000000045
 20
11.999999999999972
 30
0.0
 11
-19.000000000000028
 21
11.967710589174175
 31
0.0
  0
ARC
  5
47C
100
AcDbEntity
  8
0
  6
CONTINUOUS
 62
               7
100
AcDbCircle
 10
-29.500000000000028
 20
-7.4083488490042839
 30
0.0
 40
0.5
100
AcDbArc
 50
179.99999999999963
 51
269.49999999999943
  0
ARC
  5
47D
100
AcDbEntity
  8
0
  6
CONTINUOUS
 62
               7
100
AcDbCircle
 10
-29.500000000000028
 20
11.408348849004199
 30
0.0
 40
0.5
100
AcDbArc
 50
90.499999999999773
 51
179.99999999999963
  0
LINE
  5
47E
100
AcDbEntity
  8
0
  6
CONTINUOUS
 62
               7
100
AcDbLine
 10
-22.700000000000045
 20
11.999999999999972
 30
0.0
 11
-29.504363267749227
 21
11.908329810536316
 31
0.0
  0
LINE
  5
47F
100
AcDbEntity
  8
0
  6
CONTINUOUS
 62
               7
100
AcDbLine
 10
-22.700000000000045
 20
-8.0000000000000284
 30
0.0
 11
-28.80000000000004
 21
-7.9178191795874966
 31
0.0
  0
LINE
  5
480
100
AcDbEntity
  8
0
  6
CONTINUOUS
 62
               7
100
AcDbLine
 10
-23.700000000000045
 20
6.9999999999999716
 30
0.0
 11
-23.700000000000045
 21
8.1999999999999602
 31
0.0
  0
LINE
  5
481
100
AcDbEntity
  8
0
  6
CONTINUOUS
 62
               7
100
AcDbLine
 10
-24.600000000000051
 20
6.9999999999999716
 30
0.0
 11
-24.600000000000023
 21
8.1999999999999602
 31
0.0
  0
LINE
  5
482
100
AcDbEntity
  8
0
  6
CONTINUOUS
 62
               7
100
AcDbLine
 10
-23.700000000000045
 20
7.0999999999999375
 30
0.0
 11
-24.55000000000004
 21
7.0999999999999375
 31
0.0
  0
LINE
  5
483
100
AcDbEntity
  8
0
  6
CONTINUOUS
 62
               7
100
AcDbLine
 10
-23.700000000000045
 20
8.0999999999999375
 30
0.0
 11
-24.55000000000004
 21
8.0999999999999375
 31
0.0
  0
LINE
  5
484
100
AcDbEntity
  8
0
  6
CONTINUOUS
 62
               7
100
AcDbLine
 10
-24.55000000000004
 20
7.0999999999999375
 30
0.0
 11
-24.55000000000004
 21
8.0999999999999375
 31
0.0
  0
LINE
  5
485
100
AcDbEntity
  8
0
  6
CONTINUOUS
 62
               7
100
AcDbLine
 10
-23.850000000000051
 20
7.0999999999999375
 30
0.0
 11
-23.850000000000023
 21
8.0999999999999375
 31
0.0
  0
LINE
  5
486
100
AcDbEntity
  8
0
  6
CONTINUOUS
 62
               7
100
AcDbLine
 10
-23.700000000000045
 20
8.1999999999999602
 30
0.0
 11
-24.600000000000023
 21
8.1999999999999602
 31
0.0
  0
LINE
  5
487
100
AcDbEntity
  8
0
  6
CONTINUOUS
 62
               7
100
AcDbLine
 10
-23.700000000000045
 20
6.9999999999999716
 30
0.0
 11
-24.600000000000051
 21
6.9999999999999716
 31
0.0
  0
LINE
  5
488
100
AcDbEntity
  8
0
  6
CONTINUOUS
 62
               7
100
AcDbLine
 10
-23.700000000000045
 20
-4.1999999999999886
 30
0.0
 11
-24.600000000000051
 21
-4.2000000000000171
 31
0.0
  0
LINE
  5
489
100
AcDbEntity
  8
0
  6
CONTINUOUS
 62
               7
100
AcDbLine
 10
-23.700000000000045
 20
-3.0000000000000284
 30
0.0
 11
-24.600000000000051
 21
-3.0000000000000284
 31
0.0
  0
LINE
  5
48A
100
AcDbEntity
  8
0
  6
CONTINUOUS
 62
               7
100
AcDbLine
 10
-23.850000000000023
 20
-4.1000000000000512
 30
0.0
 11
-23.850000000000051
 21
-3.1000000000000512
 31
0.0
  0
LINE
  5
48B
100
AcDbEntity
  8
0
  6
CONTINUOUS
 62
               7
100
AcDbLine
 10
-24.55000000000004
 20
-4.1000000000000512
 30
0.0
 11
-24.55000000000004
 21
-3.1000000000000512
 31
0.0
  0
LINE
  5
48C
100
AcDbEntity
  8
0
  6
CONTINUOUS
 62
               7
100
AcDbLine
 10
-23.700000000000045
 20
-3.1000000000000512
 30
0.0
 11
-24.55000000000004
 21
-3.1000000000000512
 31
0.0
  0
LINE
  5
48D
100
AcDbEntity
  8
0
  6
CONTINUOUS
 62
               7
100
AcDbLine
 10
-23.700000000000045
 20
-4.1000000000000512
 30
0.0
 11
-24.55000000000004
 21
-4.1000000000000512
 31
0.0
  0
LINE
  5
48E
100
AcDbEntity
  8
0
  6
CONTINUOUS
 62
               7
100
AcDbLine
 10
-24.600000000000051
 20
-4.2000000000000171
 30
0.0
 11
-24.600000000000051
 21
-3.0000000000000284
 31
0.0
  0
LINE
  5
48F
100
AcDbEntity
  8
0
  6
CONTINUOUS
 62
               7
100
AcDbLine
 10
-23.700000000000045
 20
-4.1999999999999886
 30
0.0
 11
-23.700000000000045
 21
-3.0000000000000284
 31
0.0
  0
LINE
  5
490
100
AcDbEntity
  8
0
  6
CENTER
 62
               2
100
AcDbLine
 10
-28.19585698685114
 20
-6.5000000000000284
 30
0.0
 11
-30.435449291060394
 21
-6.5000000000000284
 31
0.0
  0
LINE
  5
491
100
AcDbEntity
  8
0
  6
CONTINUOUS
 62
               7
100
AcDbLine
 10
-28.80000000000004
 20
-8.0000000000000284
 30
0.0
 11
-28.80000000000004
 21
-4.9000000000000625
 31
0.0
  0
LINE
  5
492
100
AcDbEntity
  8
0
  6
CONTINUOUS
 62
               7
100
AcDbLine
 10
-28.80000000000004
 20
-4.9000000000000625
 30
0.0
 11
-30.000000000000028
 21
-4.9000000000000625
 31
0.0
  0
LINE
  5
493
100
AcDbEntity
  8
0
  6
CONTINUOUS
 62
               7
100
AcDbLine
 10
-30.000000000000028
 20
-7.4083488490042839
 30
0.0
 11
-30.000000000000028
 21
11.40834884900417
 31
0.0
  0
LINE
  5
494
100
AcDbEntity
  8
0
  6
CONTINUOUS
 62
               7
100
AcDbLine
 10
-22.700000000000045
 20
-8.0000000000000284
 30
0.0
 11
-22.700000000000045
 21
11.999999999999972
 31
0.0
  0
LINE
  5
495
100
AcDbEntity
  8
0
  6
DASHED
 62
               2
100
AcDbLine
 10
16.617009357883887
 20
-20.152543263816597
 30
0.0
 11
14.431046363087319
 21
-17.966580269020056
 31
0.0
  0
LINE
  5
496
100
AcDbEntity
  8
0
  6
DASHED
 62
               2
100
AcDbLine
 10
16.899852070358463
 20
-19.869700551341992
 30
0.0
 11
14.534606920990029
 21
-17.504455401973502
 31
0.0
  0
LINE
  5
497
100
AcDbEntity
  8
0
  6
DASHED
 62
               2
100
AcDbLine
 10
20.152543263816597
 20
-16.617009357883859
 30
0.0
 11
17.787298114448106
 21
-14.251764208515397
 31
0.0
  0
LINE
  5
498
100
AcDbEntity
  8
0
  6
DASHED
 62
               2
100
AcDbLine
 10
19.869700551341964
 20
-16.899852070358492
 30
0.0
 11
17.185731571623421
 21
-14.21588309063992
 31
0.0
  0
LINE
  5
499
100
AcDbEntity
  8
0
  6
DASHED
 62
               2
100
AcDbLine
 10
19.869700551341964
 20
-19.162593770155439
 30
0.0
 11
19.162593770155411
 21
-19.869700551341992
 31
0.0
  0
LINE
  5
49A
100
AcDbEntity
  8
0
  6
DASHED
 62
               2
100
AcDbLine
 10
20.930360723121794
 20
-20.223253941935269
 30
0.0
 11
19.869700551341964
 21
-19.162593770155439
 31
0.0
  0
LINE
  5
49B
100
AcDbEntity
  8
0
  6
DASHED
 62
               2
100
AcDbLine
 10
23.087036405740776
 20
-17.359471478129763
 30
0.0
 11
23.087036405740776
 21
-18.066578259316287
 31
0.0
  0
ARC
  5
49C
100
AcDbEntity
  8
0
  6
DASHED
 62
               2
100
AcDbCircle
 10
19.225717326111578
 20
-12.194628908040897
 30
0.0
 40
7.0277716396203269
100
AcDbArc
 50
290.25462085736189
 51
303.32841020147521
  0
LINE
  5
49D
100
AcDbEntity
  8
0
  6
DASHED
 62
               2
100
AcDbLine
 10
21.65868070774394
 20
-18.787827176126569
 30
0.0
 11
20.244467145370834
 21
-17.373613613753463
 31
0.0
  0
LINE
  5
49E
100
AcDbEntity
  8
0
  6
DASHED
 62
               2
100
AcDbLine
 10
23.087036405740776
 20
-18.066578259316287
 30
0.0
 11
20.930360723121794
 21
-20.223253941935269
 31
0.0
  0
ARC
  5
49F
100
AcDbEntity
  8
0
  6
DASHED
 62
               2
100
AcDbCircle
 10
17.484020166272444
 20
-17.511603344245941
 30
0.0
 40
4.3653794686807261
100
AcDbArc
 50
321.83471178066645
 51
343.001229803738
  0
LINE
  5
4A0
100
AcDbEntity
  8
0
  6
DASHED
 62
               2
100
AcDbLine
 10
21.213203435596427
 20
-15.556349186104029
 30
0.0
 11
21.637467504308347
 21
-15.980613254815978
 31
0.0
  0
LINE
  5
4A1
100
AcDbEntity
  8
0
  6
DASHED
 62
               2
100
AcDbLine
 10
23.087036405740776
 20
-17.359471478129763
 30
0.0
 11
21.672822843367669
 21
-15.945257915756656
 31
0.0
  0
LINE
  5
4A2
100
AcDbEntity
  8
0
  6
DASHED
 62
               2
100
AcDbLine
 10
17.359471478129763
 20
-23.087036405740776
 30
0.0
 11
15.945257915756656
 21
-21.672822843367697
 31
0.0
  0
LINE
  5
4A3
100
AcDbEntity
  8
0
  6
DASHED
 62
               2
100
AcDbLine
 10
18.066578259316259
 20
-23.087036405740776
 30
0.0
 11
17.359471478129763
 21
-23.087036405740776
 31
0.0
  0
ARC
  5
4A4
100
AcDbEntity
  8
0
  6
DASHED
 62
               2
100
AcDbCircle
 10
12.193233480323954
 20
-19.225012704195137
 30
0.0
 40
7.0293247160888015
100
AcDbArc
 50
326.67304037350175
 51
339.74392856765854
  0
LINE
  5
4A5
100
AcDbEntity
  8
0
  6
DASHED
 62
               2
100
AcDbLine
 10
18.787827176126541
 20
-21.658680707743969
 30
0.0
 11
17.373613613753491
 21
-20.244467145370862
 31
0.0
  0
LINE
  5
4A6
100
AcDbEntity
  8
0
  6
DASHED
 62
               2
100
AcDbLine
 10
20.223253941935241
 20
-20.930360723121822
 30
0.0
 11
18.066578259316259
 21
-23.087036405740776
 31
0.0
  0
LINE
  5
4A7
100
AcDbEntity
  8
0
  6
DASHED
 62
               2
100
AcDbLine
 10
21.672822843367669
 20
-15.945257915756656
 30
0.0
 11
15.945257915756656
 21
-21.672822843367697
 31
0.0
  0
LINE
  5
4A8
100
AcDbEntity
  8
0
  6
DASHED
 62
               2
100
AcDbLine
 10
21.743533521486313
 20
-15.026019100214143
 30
0.0
 11
15.026019100214114
 21
-21.743533521486341
 31
0.0
  0
LINE
  5
4A9
100
AcDbEntity
  8
0
  6
DASHED
 62
               2
100
AcDbLine
 10
15.556349186104057
 20
-21.213203435596427
 30
0.0
 11
15.980613254815978
 21
-21.637467504308347
 31
0.0
  0
LINE
  5
4AA
100
AcDbEntity
  8
0
  6
DASHED
 62
               2
100
AcDbLine
 10
20.223253941935241
 20
-20.930360723121822
 30
0.0
 11
19.162593770155411
 21
-19.869700551341992
 31
0.0
  0
ARC
  5
4AB
100
AcDbEntity
  8
0
  6
DASHED
 62
               2
100
AcDbCircle
 10
17.512286289533336
 20
-17.485327518679725
 30
0.0
 40
4.363929581700825
100
AcDbArc
 50
286.99521341413669
 51
308.16884500145608
  0
LINE
  5
4AC
100
AcDbEntity
  8
0
  6
DASHED
 62
               2
100
AcDbLine
 10
20.15254326381654
 20
16.617009357883916
 30
0.0
 11
17.966580269020028
 21
14.431046363087347
 31
0.0
  0
LINE
  5
4AD
100
AcDbEntity
  8
0
  6
DASHED
 62
               2
100
AcDbLine
 10
19.869700551341964
 20
16.89985207035852
 30
0.0
 11
17.504455401973473
 21
14.534606920990058
 31
0.0
  0
LINE
  5
4AE
100
AcDbEntity
  8
0
  6
DASHED
 62
               2
100
AcDbLine
 10
16.61700935788383
 20
20.152543263816654
 30
0.0
 11
14.25176420851534
 21
17.787298114448163
 31
0.0
  0
LINE
  5
4AF
100
AcDbEntity
  8
0
  6
DASHED
 62
               2
100
AcDbLine
 10
16.899852070358463
 20
19.869700551342021
 30
0.0
 11
14.215883090639863
 21
17.18573157162345
 31
0.0
  0
ARC
  5
4B0
100
AcDbEntity
  8
0
  6
DASHED
 62
               2
100
AcDbCircle
 10
17.485327518679696
 20
17.512286289533364
 30
0.0
 40
4.363929581700825
100
AcDbArc
 50
16.995213414137279
 51
38.168845001456681
  0
LINE
  5
4B1
100
AcDbEntity
  8
0
  6
DASHED
 62
               2
100
AcDbLine
 10
20.930360723121794
 20
20.223253941935297
 30
0.0
 11
19.869700551341964
 21
19.162593770155468
 31
0.0
  0
LINE
  5
4B2
100
AcDbEntity
  8
0
  6
DASHED
 62
               2
100
AcDbLine
 10
21.213203435596427
 20
15.556349186104086
 30
0.0
 11
21.63746750430829
 21
15.980613254816006
 31
0.0
  0
LINE
  5
4B3
100
AcDbEntity
  8
0
  6
DASHED
 62
               2
100
AcDbLine
 10
15.026019100214114
 20
21.74353352148637
 30
0.0
 11
21.743533521486313
 21
15.026019100214171
 31
0.0
  0
LINE
  5
4B4
100
AcDbEntity
  8
0
  6
DASHED
 62
               2
100
AcDbLine
 10
15.945257915756599
 20
21.672822843367726
 30
0.0
 11
21.672822843367669
 21
15.945257915756684
 31
0.0
  0
LINE
  5
4B5
100
AcDbEntity
  8
0
  6
DASHED
 62
               2
100
AcDbLine
 10
20.930360723121794
 20
20.223253941935297
 30
0.0
 11
23.087036405740776
 21
18.066578259316344
 31
0.0
  0
LINE
  5
4B6
100
AcDbEntity
  8
0
  6
DASHED
 62
               2
100
AcDbLine
 10
21.65868070774394
 20
18.787827176126598
 30
0.0
 11
20.244467145370834
 21
17.37361361375352
 31
0.0
  0
ARC
  5
4B7
100
AcDbEntity
  8
0
  6
DASHED
 62
               2
100
AcDbCircle
 10
19.22501270419508
 20
12.193233480323983
 30
0.0
 40
7.0293247160888015
100
AcDbArc
 50
56.673040373502339
 51
69.743928567659154
  0
LINE
  5
4B8
100
AcDbEntity
  8
0
  6
DASHED
 62
               2
100
AcDbLine
 10
23.087036405740776
 20
18.066578259316344
 30
0.0
 11
23.087036405740776
 21
17.359471478129791
 31
0.0
  0
LINE
  5
4B9
100
AcDbEntity
  8
0
  6
DASHED
 62
               2
100
AcDbLine
 10
23.087036405740776
 20
17.359471478129791
 30
0.0
 11
21.672822843367669
 21
15.945257915756684
 31
0.0
  0
LINE
  5
4BA
100
AcDbEntity
  8
0
  6
DASHED
 62
               2
100
AcDbLine
 10
17.359471478129706
 20
23.087036405740804
 30
0.0
 11
15.945257915756599
 21
21.672822843367726
 31
0.0
  0
LINE
  5
4BB
100
AcDbEntity
  8
0
  6
DASHED
 62
               2
100
AcDbLine
 10
15.556349186104001
 20
21.213203435596455
 30
0.0
 11
15.980613254815921
 21
21.637467504308404
 31
0.0
  0
ARC
  5
4BC
100
AcDbEntity
  8
0
  6
DASHED
 62
               2
100
AcDbCircle
 10
17.511603344245884
 20
17.484020166272501
 30
0.0
 40
4.3653794686807261
100
AcDbArc
 50
51.834711780667043
 51
73.001229803738639
  0
LINE
  5
4BD
100
AcDbEntity
  8
0
  6
DASHED
 62
               2
100
AcDbLine
 10
18.066578259316259
 20
23.087036405740804
 30
0.0
 11
20.223253941935241
 21
20.930360723121851
 31
0.0
  0
LINE
  5
4BE
100
AcDbEntity
  8
0
  6
DASHED
 62
               2
100
AcDbLine
 10
18.787827176126541
 20
21.658680707743997
 30
0.0
 11
17.373613613753434
 21
20.244467145370891
 31
0.0
  0
ARC
  5
4BF
100
AcDbEntity
  8
0
  6
DASHED
 62
               2
100
AcDbCircle
 10
12.194628908040841
 20
19.225717326111635
 30
0.0
 40
7.0277716396203269
100
AcDbArc
 50
20.2546208573625
 51
33.328410201475762
  0
LINE
  5
4C0
100
AcDbEntity
  8
0
  6
DASHED
 62
               2
100
AcDbLine
 10
17.359471478129706
 20
23.087036405740804
 30
0.0
 11
18.066578259316259
 21
23.087036405740804
 31
0.0
  0
LINE
  5
4C1
100
AcDbEntity
  8
0
  6
DASHED
 62
               2
100
AcDbLine
 10
20.223253941935241
 20
20.930360723121851
 30
0.0
 11
19.162593770155411
 21
19.869700551342021
 31
0.0
  0
LINE
  5
4C2
100
AcDbEntity
  8
0
  6
DASHED
 62
               2
100
AcDbLine
 10
19.162593770155411
 20
19.869700551342021
 30
0.0
 11
19.869700551341964
 21
19.162593770155468
 31
0.0
  0
ENDBLK
  5
4C3
100
AcDbEntity
  8
0
100
AcDbBlockEnd
  0
BLOCK
  5
4C4
100
AcDbEntity
  8
0
100
AcDbBlockBegin
  2
NCT60-10
 70
               0
 10
0.0
 20
0.0
 30
0.0
  3
NCT60-10
  1

  0
LINE
  5
4C5
100
AcDbEntity
  8
0
  6
CONTINUOUS
 62
               7
100
AcDbLine
 10
-29.185714393744206
 20
-13.850153162839604
 30
0.0
 11
-29.4000001080299
 21
-12.350153162839604
 31
0.0
  0
LINE
  5
4C6
100
AcDbEntity
  8
0
  6
CONTINUOUS
 62
               7
100
AcDbLine
 10
-28.828571536601345
 20
-16.350153162839604
 30
0.0
 11
-29.042857250887067
 21
-14.850153162839604
 31
0.0
  0
LINE
  5
4C7
100
AcDbEntity
  8
0
  6
CONTINUOUS
 62
               7
100
AcDbLine
 10
-28.1500001080299
 20
-14.850153162839604
 30
0.0
 11
-28.1500001080299
 21
-13.850153162839604
 31
0.0
  0
LINE
  5
4C8
100
AcDbEntity
  8
0
  6
CONTINUOUS
 62
               7
100
AcDbLine
 10
-27.339965807105074
 20
-12.350153162839604
 30
0.0
 11
-29.4000001080299
 21
-12.350153162839604
 31
0.0
  0
LINE
  5
4C9
100
AcDbEntity
  8
0
  6
CONTINUOUS
 62
               7
100
AcDbLine
 10
-26.611525181437713
 20
-13.850153162839604
 30
0.0
 11
-29.185714393744206
 21
-13.850153162839604
 31
0.0
  0
LINE
  5
4CA
100
AcDbEntity
  8
0
  6
CONTINUOUS
 62
               7
100
AcDbLine
 10
-26.066702270291898
 20
-14.850153162839604
 30
0.0
 11
-29.042857250887067
 21
-14.850153162839604
 31
0.0
  0
LINE
  5
4CB
100
AcDbEntity
  8
0
  6
CONTINUOUS
 62
               7
100
AcDbLine
 10
-25.152982117368509
 20
-16.350153162839604
 30
0.0
 11
-28.828571536601345
 21
-16.350153162839604
 31
0.0
  0
LINE
  5
4CC
100
AcDbEntity
  8
0
  6
PHANTOM
 62
               2
100
AcDbLine
 10
-24.500000132406569
 20
-20.541307452016184
 30
0.0
 11
-28.300000144327498
 21
-22.735238480263064
 31
0.0
  0
LINE
  5
4CD
100
AcDbEntity
  8
0
  6
CONTINUOUS
 62
               7
100
AcDbLine
 10
-27.700000108029911
 20
-19.350153162839604
 30
0.0
 11
-27.700000108029911
 21
-22.388828313824916
 31
0.0
  0
LINE
  5
4CE
100
AcDbEntity
  8
0
  6
CONTINUOUS
 62
               7
100
AcDbLine
 10
-25.100000108029917
 20
-19.350153162839604
 30
0.0
 11
-25.100000108029917
 21
-20.887717613931869
 31
0.0
  0
LINE
  5
4CF
100
AcDbEntity
  8
0
  6
CONTINUOUS
 62
               7
100
AcDbLine
 10
-24.4000001080299
 20
-19.350153162839604
 30
0.0
 11
-28.4000001080299
 21
-19.350153162839604
 31
0.0
  0
LINE
  5
4D0
100
AcDbEntity
  8
0
  6
CONTINUOUS
 62
               7
100
AcDbLine
 10
-28.4000001080299
 20
-19.350153162839604
 30
0.0
 11
-28.685714393744206
 21
-17.350153162839604
 31
0.0
  0
LINE
  5
4D1
100
AcDbEntity
  8
0
  6
CONTINUOUS
 62
               7
100
AcDbLine
 10
-24.4000001080299
 20
-19.350153162839604
 30
0.0
 11
-24.173698753114621
 21
-17.766043678432652
 31
0.0
  0
LINE
  5
4D2
100
AcDbEntity
  8
0
  6
CONTINUOUS
 62
               7
100
AcDbLine
 10
-24.473908640885412
 20
-17.350153162839604
 30
0.0
 11
-28.685714393744206
 21
-17.350153162839604
 31
0.0
  0
LINE
  5
4D3
100
AcDbEntity
  8
0
  6
CONTINUOUS
 62
               7
100
AcDbLine
 10
-25.100000108029917
 20
-21.811478013154243
 30
0.0
 11
-25.100000108029917
 21
-24.850153162839604
 31
0.0
  0
LINE
  5
4D4
100
AcDbEntity
  8
0
  6
PHANTOM
 62
               2
100
AcDbLine
 10
-24.500000102604247
 20
-21.465067851238558
 30
0.0
 11
-28.300000144327498
 21
-23.658998894386599
 31
0.0
  0
LINE
  5
4D5
100
AcDbEntity
  8
0
  6
CONTINUOUS
 62
               7
100
AcDbLine
 10
-27.700000108029911
 20
-23.31258871304729
 30
0.0
 11
-27.700000108029911
 21
-24.850153162839604
 31
0.0
  0
LINE
  5
4D6
100
AcDbEntity
  8
0
  6
CONTINUOUS
 62
               7
100
AcDbLine
 10
-25.100000108029917
 20
-24.850153162839604
 30
0.0
 11
-27.700000108029911
 21
-24.850153162839604
 31
0.0
  0
LINE
  5
4D7
100
AcDbEntity
  8
0
  6
PHANTOM
 62
               2
100
AcDbLine
 10
-24.900000108564711
 20
-25.522247555547096
 30
0.0
 11
-27.900000138367034
 21
-27.254298376732208
 31
0.0
  0
LINE
  5
4D8
100
AcDbEntity
  8
0
  6
CONTINUOUS
 62
               7
100
AcDbLine
 10
-27.250000108029923
 20
-24.850153162839604
 30
0.0
 11
-27.250000108029923
 21
-26.879020685021658
 31
0.0
  0
LINE
  5
4D9
100
AcDbEntity
  8
0
  6
CONTINUOUS
 62
               7
100
AcDbLine
 10
-26.450000108029911
 20
-24.850153162839604
 30
0.0
 11
-26.450000108029911
 21
-26.417140470627345
 31
0.0
  0
LINE
  5
4DA
100
AcDbEntity
  8
0
  6
CONTINUOUS
 62
               7
100
AcDbLine
 10
-26.350000108029917
 20
-24.850153162839604
 30
0.0
 11
-26.350000108029917
 21
-26.359405443828052
 31
0.0
  0
LINE
  5
4DB
100
AcDbEntity
  8
0
  6
CONTINUOUS
 62
               7
100
AcDbLine
 10
-26.450000108029911
 20
-27.340900856139569
 30
0.0
 11
-26.450000108029911
 21
-27.423507013290902
 31
0.0
  0
LINE
  5
4DC
100
AcDbEntity
  8
0
  6
CONTINUOUS
 62
               7
100
AcDbLine
 10
-26.350000108029917
 20
-27.283165829263453
 30
0.0
 11
-26.350000108029917
 21
-27.423507013290902
 31
0.0
  0
LINE
  5
4DD
100
AcDbEntity
  8
0
  6
CONTINUOUS
 62
               7
100
AcDbLine
 10
-25.550000108029906
 20
-26.821285614254379
 30
0.0
 11
-25.550000108029906
 21
-27.209147659346002
 31
0.0
  0
LINE
  5
4DE
100
AcDbEntity
  8
0
  6
CONTINUOUS
 62
               7
100
AcDbLine
 10
-25.550000108029906
 20
-24.850153162839604
 30
0.0
 11
-25.550000108029906
 21
-25.897525229433711
 31
0.0
  0
LINE
  5
4DF
100
AcDbEntity
  8
0
  6
CONTINUOUS
 62
               7
100
AcDbLine
 10
-28.1500001080299
 20
-17.350153162839604
 30
0.0
 11
-28.1500001080299
 21
-16.350153162839604
 31
0.0
  0
LINE
  5
4E0
100
AcDbEntity
  8
0
  6
CONTINUOUS
 62
               7
100
AcDbLine
 10
-24.6500001080299
 20
-17.350153162839604
 30
0.0
 11
-24.6500001080299
 21
-17.099050071172513
 31
0.0
  0
LINE
  5
4E1
100
AcDbEntity
  8
0
  6
CONTINUOUS
 62
               7
100
AcDbLine
 10
-26.800000108029906
 20
-37.072802857774718
 30
0.0
 11
-26.800000108029906
 21
-28.565623180802277
 31
0.0
  0
LINE
  5
4E2
100
AcDbEntity
  8
0
  6
CONTINUOUS
 62
               7
100
AcDbLine
 10
-26.000000108029923
 20
-37.072802857774718
 30
0.0
 11
-26.000000108029923
 21
-28.565623180802277
 31
0.0
  0
LINE
  5
4E3
100
AcDbEntity
  8
0
  6
CONTINUOUS
 62
               7
100
AcDbLine
 10
-29.000000108029923
 20
-37.072802857774718
 30
0.0
 11
-29.000000108029923
 21
-33.71588091960939
 31
0.0
  0
LINE
  5
4E4
100
AcDbEntity
  8
0
  6
CONTINUOUS
 62
               7
100
AcDbLine
 10
-29.800000108029906
 20
-37.072802857774718
 30
0.0
 11
-29.800000108029906
 21
-33.501521565664461
 31
0.0
  0
LINE
  5
4E5
100
AcDbEntity
  8
0
  6
CONTINUOUS
 62
               7
100
AcDbLine
 10
-23.000000108029923
 20
-37.072802857774718
 30
0.0
 11
-23.000000108029923
 21
-33.501521565664461
 31
0.0
  0
LINE
  5
4E6
100
AcDbEntity
  8
0
  6
CONTINUOUS
 62
               7
100
AcDbLine
 10
-23.800000108029906
 20
-37.072802857774718
 30
0.0
 11
-23.800000108029906
 21
-33.71588091960939
 31
0.0
  0
LINE
  5
4E7
100
AcDbEntity
  8
0
  6
CONTINUOUS
 62
               7
100
AcDbLine
 10
-27.517949300461026
 20
-28.209147659346002
 30
0.0
 11
-29.130127126952118
 21
-31.001521565664461
 31
0.0
  0
LINE
  5
4E8
100
AcDbEntity
  8
0
  6
CONTINUOUS
 62
               7
100
AcDbLine
 10
-26.717949300461044
 20
-28.423507013290873
 30
0.0
 11
-28.330127126952107
 21
-31.21588091960939
 31
0.0
  0
LINE
  5
4E9
100
AcDbEntity
  8
0
  6
CONTINUOUS
 62
               7
100
AcDbLine
 10
-25.282050915598802
 20
-28.209147659346002
 30
0.0
 11
-23.66987308910771
 21
-31.001521565664461
 31
0.0
  0
LINE
  5
4EA
100
AcDbEntity
  8
0
  6
CONTINUOUS
 62
               7
100
AcDbLine
 10
-26.082050915598785
 20
-28.423507013290873
 30
0.0
 11
-24.469873089107722
 21
-31.21588091960939
 31
0.0
  0
ARC
  5
4EB
100
AcDbEntity
  8
0
  6
CONTINUOUS
 62
               7
100
AcDbCircle
 10
-24.000000108029923
 20
-33.71588091960939
 30
0.0
 40
5.0
100
AcDbArc
 50
149.99999999999966
 51
179.99999999999963
  0
ARC
  5
4EC
100
AcDbEntity
  8
0
  6
CONTINUOUS
 62
               7
100
AcDbCircle
 10
-24.800000108029906
 20
-33.501521565664461
 30
0.0
 40
5.0
100
AcDbArc
 50
149.99999999999966
 51
179.99999999999963
  0
ARC
  5
4ED
100
AcDbEntity
  8
0
  6
CONTINUOUS
 62
               7
100
AcDbCircle
 10
-28.800000108029906
 20
-33.71588091960939
 30
0.0
 40
5.0
100
AcDbArc
 50
0.0
 51
29.999999999999904
  0
ARC
  5
4EE
100
AcDbEntity
  8
0
  6
CONTINUOUS
 62
               7
100
AcDbCircle
 10
-28.000000108029923
 20
-33.501521565664461
 30
0.0
 40
5.0
100
AcDbArc
 50
0.0
 51
29.999999999999904
  0
LINE
  5
4EF
100
AcDbEntity
  8
0
  6
CONTINUOUS
 62
               7
100
AcDbLine
 10
-28.600000107286093
 20
-38.526096714346636
 30
0.0
 11
-30.200000108029911
 21
-38.526096714346636
 31
0.0
  0
LINE
  5
4F0
100
AcDbEntity
  8
0
  6
CONTINUOUS
 62
               7
100
AcDbLine
 10
-28.600000107286093
 20
-39.579787010605855
 30
0.0
 11
-30.200000108029911
 21
-39.579787010605855
 31
0.0
  0
LINE
  5
4F1
100
AcDbEntity
  8
0
  6
CONTINUOUS
 62
               7
100
AcDbLine
 10
-28.600000107286093
 20
-42.37978701060581
 30
0.0
 11
-30.200000108029911
 21
-42.37978701060581
 31
0.0
  0
LINE
  5
4F2
100
AcDbEntity
  8
0
  6
CONTINUOUS
 62
               7
100
AcDbLine
 10
-28.600000107286093
 20
-43.12978701060581
 30
0.0
 11
-30.200000108029911
 21
-43.12978701060581
 31
0.0
  0
LINE
  5
4F3
100
AcDbEntity
  8
0
  6
CONTINUOUS
 62
               7
100
AcDbLine
 10
-25.600000107286093
 20
-38.526096714346636
 30
0.0
 11
-27.200000108029911
 21
-38.526096714346636
 31
0.0
  0
LINE
  5
4F4
100
AcDbEntity
  8
0
  6
CONTINUOUS
 62
               7
100
AcDbLine
 10
-25.600000107286093
 20
-39.579787010605855
 30
0.0
 11
-27.200000108029911
 21
-39.579787010605855
 31
0.0
  0
LINE
  5
4F5
100
AcDbEntity
  8
0
  6
CONTINUOUS
 62
               7
100
AcDbLine
 10
-25.600000107286093
 20
-42.37978701060581
 30
0.0
 11
-27.200000108029911
 21
-42.37978701060581
 31
0.0
  0
LINE
  5
4F6
100
AcDbEntity
  8
0
  6
CONTINUOUS
 62
               7
100
AcDbLine
 10
-25.600000107286093
 20
-43.12978701060581
 30
0.0
 11
-27.200000108029911
 21
-43.12978701060581
 31
0.0
  0
LINE
  5
4F7
100
AcDbEntity
  8
0
  6
CONTINUOUS
 62
               7
100
AcDbLine
 10
-22.600000107286093
 20
-43.12978701060581
 30
0.0
 11
-24.200000108029911
 21
-43.12978701060581
 31
0.0
  0
LINE
  5
4F8
100
AcDbEntity
  8
0
  6
CONTINUOUS
 62
               7
100
AcDbLine
 10
-22.600000107286093
 20
-42.37978701060581
 30
0.0
 11
-24.200000108029911
 21
-42.37978701060581
 31
0.0
  0
LINE
  5
4F9
100
AcDbEntity
  8
0
  6
CONTINUOUS
 62
               7
100
AcDbLine
 10
-22.600000107286093
 20
-39.579787010605855
 30
0.0
 11
-24.200000108029911
 21
-39.579787010605855
 31
0.0
  0
LINE
  5
4FA
100
AcDbEntity
  8
0
  6
CONTINUOUS
 62
               7
100
AcDbLine
 10
-22.600000107286093
 20
-38.526096714346636
 30
0.0
 11
-24.200000108029911
 21
-38.526096714346636
 31
0.0
  0
LINE
  5
4FB
100
AcDbEntity
  8
0
  6
CONTINUOUS
 62
               7
100
AcDbLine
 10
-30.200000108029911
 20
-37.072802857774718
 30
0.0
 11
-28.600000108029917
 21
-37.072802857774718
 31
0.0
  0
LINE
  5
4FC
100
AcDbEntity
  8
0
  6
CONTINUOUS
 62
               7
100
AcDbLine
 10
-27.200000108029911
 20
-37.072802857774718
 30
0.0
 11
-25.600000108029917
 21
-37.072802857774718
 31
0.0
  0
LINE
  5
4FD
100
AcDbEntity
  8
0
  6
CONTINUOUS
 62
               7
100
AcDbLine
 10
-24.200000108029911
 20
-37.072802857774718
 30
0.0
 11
-22.600000108029917
 21
-37.072802857774718
 31
0.0
  0
LINE
  5
4FE
100
AcDbEntity
  8
0
  6
CENTER
 62
               2
100
AcDbLine
 10
-26.400000108029928
 20
-31.522492575882268
 30
0.0
 11
-26.4000001080299
 21
-10.750153162839609
 31
0.0
  0
ARC
  5
4FF
100
AcDbEntity
  8
0
  6
CONTINUOUS
 62
               7
100
AcDbCircle
 10
-23.550000108029906
 20
-27.209147659346002
 30
0.0
 40
2.0
100
AcDbArc
 50
179.99999999999963
 51
209.99999999999955
  0
ARC
  5
500
100
AcDbEntity
  8
0
  6
CONTINUOUS
 62
               7
100
AcDbCircle
 10
-24.350000108029917
 20
-27.423507013290902
 30
0.0
 40
2.0
100
AcDbArc
 50
179.99999999999963
 51
209.99999999999955
  0
ARC
  5
501
100
AcDbEntity
  8
0
  6
CONTINUOUS
 62
               7
100
AcDbCircle
 10
-28.450000108029911
 20
-27.423507013290902
 30
0.0
 40
2.0
100
AcDbArc
 50
329.99999999999926
 51
0.0
  0
ARC
  5
502
100
AcDbEntity
  8
0
  6
CONTINUOUS
 62
               7
100
AcDbCircle
 10
-29.250000108029923
 20
-27.209147659346002
 30
0.0
 40
2.0
100
AcDbArc
 50
329.9999999999992
 51
340.79511110182767
  0
LINE
  5
503
100
AcDbEntity
  8
0
  6
PHANTOM
 62
               2
100
AcDbLine
 10
-24.900000108564711
 20
-26.446007939868309
 30
0.0
 11
-27.900000108564711
 21
-28.17805874615226
 31
0.0
  0
LINE
  5
504
100
AcDbEntity
  8
0
  6
CONTINUOUS
 62
               7
100
AcDbLine
 10
-28.600000107286093
 20
-49.37978701060581
 30
0.0
 11
-30.200000108029911
 21
-49.37978701060581
 31
0.0
  0
LINE
  5
505
100
AcDbEntity
  8
0
  6
CONTINUOUS
 62
               7
100
AcDbLine
 10
-29.100000107286093
 20
-49.579787010605855
 30
0.0
 11
-29.700000107658013
 21
-49.579787010605855
 31
0.0
  0
LINE
  5
506
100
AcDbEntity
  8
0
  6
CONTINUOUS
 62
               7
100
AcDbLine
 10
-29.100000107658019
 20
-49.379787021324432
 30
0.0
 11
-29.100000107658019
 21
-49.579787010605855
 31
0.0
  0
LINE
  5
507
100
AcDbEntity
  8
0
  6
CONTINUOUS
 62
               7
100
AcDbLine
 10
-29.700000107658013
 20
-49.379787021324432
 30
0.0
 11
-29.700000107658013
 21
-49.579787010605855
 31
0.0
  0
LINE
  5
508
100
AcDbEntity
  8
0
  6
CONTINUOUS
 62
               7
100
AcDbLine
 10
-28.600000107286093
 20
-45.37978701060581
 30
0.0
 11
-30.200000108029911
 21
-45.37978701060581
 31
0.0
  0
LINE
  5
509
100
AcDbEntity
  8
0
  6
CONTINUOUS
 62
               7
100
AcDbLine
 10
-28.600000107286093
 20
-48.87978701060581
 30
0.0
 11
-30.200000108029911
 21
-48.87978701060581
 31
0.0
  0
LINE
  5
50A
100
AcDbEntity
  8
0
  6
CONTINUOUS
 62
               7
100
AcDbLine
 10
-25.600000107286093
 20
-49.37978701060581
 30
0.0
 11
-27.200000108029911
 21
-49.37978701060581
 31
0.0
  0
LINE
  5
50B
100
AcDbEntity
  8
0
  6
CONTINUOUS
 62
               7
100
AcDbLine
 10
-26.100000107286093
 20
-49.579787010605855
 30
0.0
 11
-26.700000107658013
 21
-49.579787010605855
 31
0.0
  0
LINE
  5
50C
100
AcDbEntity
  8
0
  6
CONTINUOUS
 62
               7
100
AcDbLine
 10
-26.100000107658019
 20
-49.379787021324432
 30
0.0
 11
-26.100000107658019
 21
-49.579787010605855
 31
0.0
  0
LINE
  5
50D
100
AcDbEntity
  8
0
  6
CONTINUOUS
 62
               7
100
AcDbLine
 10
-26.700000107658013
 20
-49.379787021324432
 30
0.0
 11
-26.700000107658013
 21
-49.579787010605855
 31
0.0
  0
LINE
  5
50E
100
AcDbEntity
  8
0
  6
CONTINUOUS
 62
               7
100
AcDbLine
 10
-25.600000107286093
 20
-45.37978701060581
 30
0.0
 11
-27.200000108029911
 21
-45.37978701060581
 31
0.0
  0
LINE
  5
50F
100
AcDbEntity
  8
0
  6
CONTINUOUS
 62
               7
100
AcDbLine
 10
-25.600000107286093
 20
-48.87978701060581
 30
0.0
 11
-27.200000108029911
 21
-48.87978701060581
 31
0.0
  0
LINE
  5
510
100
AcDbEntity
  8
0
  6
CONTINUOUS
 62
               7
100
AcDbLine
 10
-22.600000107286093
 20
-48.87978701060581
 30
0.0
 11
-24.200000108029911
 21
-48.87978701060581
 31
0.0
  0
LINE
  5
511
100
AcDbEntity
  8
0
  6
CONTINUOUS
 62
               7
100
AcDbLine
 10
-22.600000107286093
 20
-45.37978701060581
 30
0.0
 11
-24.200000108029911
 21
-45.37978701060581
 31
0.0
  0
LINE
  5
512
100
AcDbEntity
  8
0
  6
CONTINUOUS
 62
               7
100
AcDbLine
 10
-23.700000107658013
 20
-49.379787021324432
 30
0.0
 11
-23.700000107658013
 21
-49.579787010605855
 31
0.0
  0
LINE
  5
513
100
AcDbEntity
  8
0
  6
CONTINUOUS
 62
               7
100
AcDbLine
 10
-23.100000107658019
 20
-49.379787021324432
 30
0.0
 11
-23.100000107658019
 21
-49.579787010605855
 31
0.0
  0
LINE
  5
514
100
AcDbEntity
  8
0
  6
CONTINUOUS
 62
               7
100
AcDbLine
 10
-23.100000107286093
 20
-49.579787010605855
 30
0.0
 11
-23.700000107658013
 21
-49.579787010605855
 31
0.0
  0
LINE
  5
515
100
AcDbEntity
  8
0
  6
CONTINUOUS
 62
               7
100
AcDbLine
 10
-22.600000107286093
 20
-49.37978701060581
 30
0.0
 11
-24.200000108029911
 21
-49.37978701060581
 31
0.0
  0
LINE
  5
516
100
AcDbEntity
  8
0
  6
CONTINUOUS
 62
               7
100
AcDbLine
 10
-30.200000108029911
 20
-49.37978701060581
 30
0.0
 11
-30.200000108029911
 21
-37.072802857774718
 31
0.0
  0
LINE
  5
517
100
AcDbEntity
  8
0
  6
CONTINUOUS
 62
               7
100
AcDbLine
 10
-28.600000108029917
 20
-49.37978701060581
 30
0.0
 11
-28.600000108029917
 21
-37.072802857774718
 31
0.0
  0
LINE
  5
518
100
AcDbEntity
  8
0
  6
CONTINUOUS
 62
               7
100
AcDbLine
 10
-27.200000108029911
 20
-49.37978701060581
 30
0.0
 11
-27.200000108029911
 21
-37.072802857774718
 31
0.0
  0
LINE
  5
519
100
AcDbEntity
  8
0
  6
CONTINUOUS
 62
               7
100
AcDbLine
 10
-25.600000108029917
 20
-49.37978701060581
 30
0.0
 11
-25.600000108029917
 21
-37.072802857774718
 31
0.0
  0
LINE
  5
51A
100
AcDbEntity
  8
0
  6
CONTINUOUS
 62
               7
100
AcDbLine
 10
-24.200000108029911
 20
-49.37978701060581
 30
0.0
 11
-24.200000108029911
 21
-37.072802857774718
 31
0.0
  0
LINE
  5
51B
100
AcDbEntity
  8
0
  6
CONTINUOUS
 62
               7
100
AcDbLine
 10
-22.600000108029917
 20
-49.37978701060581
 30
0.0
 11
-22.600000108029917
 21
-37.072802857774718
 31
0.0
  0
LINE
  5
51C
100
AcDbEntity
  8
0
  6
CONTINUOUS
 62
               7
100
AcDbLine
 10
-28.900000108029928
 20
-9.0000005457127372
 30
0.0
 11
-28.800000108029934
 21
-9.0000005457127372
 31
0.0
  0
LINE
  5
51D
100
AcDbEntity
  8
0
  6
CONTINUOUS
 62
               7
100
AcDbLine
 10
-29.182320392130265
 20
-11.912669004872754
 30
0.0
 11
-29.504363375779121
 21
-11.908330356249081
 31
0.0
  0
LINE
  5
51E
100
AcDbEntity
  8
0
  6
CONTINUOUS
 62
               7
100
AcDbLine
 10
-28.800000108029934
 20
-12.000000545712737
 30
0.0
 11
-28.900000108029928
 21
-12.000000545712737
 31
0.0
  0
ARC
  5
51F
100
AcDbEntity
  8
0
  6
CONTINUOUS
 62
               7
100
AcDbCircle
 10
-28.900000108029928
 20
-11.500000545712737
 30
0.0
 40
0.5
100
AcDbArc
 50
179.99999999999963
 51
269.99999999999937
  0
ARC
  5
520
100
AcDbEntity
  8
0
  6
CONTINUOUS
 62
               7
100
AcDbCircle
 10
-28.900000108029928
 20
-9.5000005457127372
 30
0.0
 40
0.5
100
AcDbArc
 50
89.999999999999815
 51
179.99999999999969
  0
LINE
  5
521
100
AcDbEntity
  8
0
  6
CONTINUOUS
 62
               7
100
AcDbLine
 10
-29.400000108029928
 20
-11.500000545712737
 30
0.0
 11
-29.400000108029928
 21
-9.5000005457127372
 31
0.0
  0
LINE
  5
522
100
AcDbEntity
  8
0
  6
CONTINUOUS
 62
               7
100
AcDbLine
 10
-30.000000108029923
 20
7.4083483032914899
 30
0.0
 11
-30.000000108029923
 21
-11.408349394716964
 31
0.0
  0
LINE
  5
523
100
AcDbEntity
  8
0
  6
CONTINUOUS
 62
               7
100
AcDbLine
 10
-28.800000108029934
 20
-8.9000005457127713
 30
0.0
 11
-30.000000108029923
 21
-8.9000005457127713
 31
0.0
  0
LINE
  5
524
100
AcDbEntity
  8
0
  6
CONTINUOUS
 62
               7
100
AcDbLine
 10
-28.800000108029934
 20
-12.000000545712737
 30
0.0
 11
-28.800000108029934
 21
-8.9000005457127713
 31
0.0
  0
LINE
  5
525
100
AcDbEntity
  8
0
  6
CENTER
 62
               2
100
AcDbLine
 10
-28.542861141064378
 20
-10.500000545712737
 30
0.0
 11
-30.43544939909026
 21
-10.500000545712737
 31
0.0
  0
LINE
  5
526
100
AcDbEntity
  8
0
  6
CONTINUOUS
 62
               7
100
AcDbLine
 10
-29.400000108029928
 20
-12.4000005457128
 30
0.0
 11
-29.400000108029928
 21
-11.909736365915421
 31
0.0
  0
LINE
  5
527
100
AcDbEntity
  8
0
  6
CONTINUOUS
 62
               7
100
AcDbLine
 10
-28.936781390228617
 20
7.9159758801061741
 30
0.0
 11
-29.504363375779121
 21
7.9083292648235499
 31
0.0
  0
LINE
  5
528
100
AcDbEntity
  8
0
  6
CONTINUOUS
 62
               7
100
AcDbLine
 10
-27.523725273249283
 20
-11.935014038905848
 30
0.0
 11
-28.800000108029934
 21
-11.917819725300262
 31
0.0
  0
ARC
  5
529
100
AcDbEntity
  8
0
  6
CONTINUOUS
 62
               7
100
AcDbCircle
 10
-29.500000108029923
 20
-11.408349394716964
 30
0.0
 40
0.5
100
AcDbArc
 50
179.99999999999963
 51
269.49999999999943
  0
ARC
  5
52A
100
AcDbEntity
  8
0
  6
CONTINUOUS
 62
               7
100
AcDbCircle
 10
-29.500000108029923
 20
7.4083483032914899
 30
0.0
 40
0.5
100
AcDbArc
 50
90.499999999999744
 51
179.99999999999963
  0
CIRCLE
  5
52B
100
AcDbEntity
  8
0
  6
CONTINUOUS
 62
               4
100
AcDbCircle
 10
-13.349999873032232
 20
23.122877361019562
 30
0.0
 40
3.0
  0
ARC
  5
52C
100
AcDbEntity
  8
0
  6
CONTINUOUS
 62
               7
100
AcDbCircle
 10
0.0000000232274715
 20
-0.000000764472702
 30
0.0
 40
25.0
100
AcDbArc
 50
125.48382267335117
 51
234.51617802401051
  0
CIRCLE
  5
52D
100
AcDbEntity
  8
0
  6
CONTINUOUS
 62
               4
100
AcDbCircle
 10
-13.350000127685007
 20
-23.122879277637651
 30
0.0
 40
3.0
  0
ARC
  5
52E
100
AcDbEntity
  8
0
  6
CONTINUOUS
 62
               7
100
AcDbCircle
 10
0.0000000232274715
 20
-0.000000764472702
 30
0.0
 40
25.0
100
AcDbArc
 50
245.88629834955327
 51
354.51617740352231
  0
ARC
  5
52F
100
AcDbEntity
  8
0
  6
CONTINUOUS
 62
               7
100
AcDbCircle
 10
0.0000000232274715
 20
-0.000000764472702
 30
0.0
 40
25.0
100
AcDbArc
 50
5.4838224868671492
 51
114.51617727486497
  0
CIRCLE
  5
530
100
AcDbEntity
  8
0
  6
CONTINUOUS
 62
               4
100
AcDbCircle
 10
26.699999933331412
 20
-0.0000007884957824
 30
0.0
 40
3.0
  0
LINE
  5
531
100
AcDbEntity
  8
0
  6
CENTER
 62
               2
100
AcDbLine
 10
31.999999995828489
 20
-0.0000005457127372
 30
0.0
 11
-32.000000004171483
 21
-0.0000005457127372
 31
0.0
  0
CIRCLE
  5
532
100
AcDbEntity
  8
0
  6
CONTINUOUS
 62
               7
100
AcDbCircle
 10
0.0
 20
-0.0000005457127372
 30
0.0
 40
30.0
  0
CIRCLE
  5
533
100
AcDbEntity
  8
0
  6
CONTINUOUS
 62
               7
100
AcDbCircle
 10
0.0
 20
-0.0000005457127372
 30
0.0
 40
15.672620946911177
  0
CIRCLE
  5
534
100
AcDbEntity
  8
0
  6
CONTINUOUS
 62
               7
100
AcDbCircle
 10
0.0
 20
-0.0000005457127372
 30
0.0
 40
13.0
  0
LINE
  5
535
100
AcDbEntity
  8
0
  6
CENTER
 62
               2
100
AcDbLine
 10
-15.999999866475491
 20
27.712812696386408
 30
0.0
 11
0.0000000915038072
 21
-0.0000001584892289
 31
0.0
  0
LINE
  5
536
100
AcDbEntity
  8
0
  6
CENTER
 62
               2
100
AcDbLine
 10
-15.999999919159052
 20
-27.712813171415547
 30
0.0
 11
0.0000000704303602
 21
-0.0000002638563501
 31
0.0
  0
CIRCLE
  5
537
100
AcDbEntity
  8
0
  6
CENTER
 62
               2
100
AcDbCircle
 10
0.0000000256308113
 20
-0.0000004861080924
 30
0.0
 40
26.699999999999999
  0
LINE
  5
538
100
AcDbEntity
  8
0
  6
CENTER
 62
               2
100
AcDbLine
 10
0.0
 20
-32.000000545712766
 30
0.0
 11
0.0
 21
31.999999454287263
 31
0.0
  0
ENDBLK
  5
539
100
AcDbEntity
  8
0
100
AcDbBlockEnd
  0
BLOCK
  5
53A
100
AcDbEntity
  8
0
100
AcDbBlockBegin
  2
NCT60-11
 70
               0
 10
0.0
 20
0.0
 30
0.0
  3
NCT60-11
  1

  0
LINE
  5
53B
100
AcDbEntity
  8
0
  6
CENTER
 62
               2
100
AcDbLine
 10
0.0
 20
32.594751250088137
 30
0.0
 11
0.0
 21
-31.754114220473809
 31
0.0
  0
CIRCLE
  5
53C
100
AcDbEntity
  8
0
  6
CONTINUOUS
 62
               7
100
AcDbCircle
 10
15.909902576697277
 20
15.909902576697363
 30
0.0
 40
1.6499999999999999
  0
CIRCLE
  5
53D
100
AcDbEntity
  8
0
  6
CONTINUOUS
 62
               2
100
AcDbCircle
 10
15.909902576697277
 20
15.909902576697363
 30
0.0
 40
2.0
  0
LINE
  5
53E
100
AcDbEntity
  8
0
  6
CENTER
 62
               2
100
AcDbLine
 10
17.791162914302561
 20
17.791162914302589
 30
0.0
 11
-21.062466522934187
 21
-21.062466522934159
 31
0.0
  0
LINE
  5
53F
100
AcDbEntity
  8
0
  6
CENTER
 62
               2
100
AcDbLine
 10
-21.296352673503804
 20
21.296352673503833
 30
0.0
 11
18.012402349285821
 21
-18.012402349285821
 31
0.0
  0
LINE
  5
540
100
AcDbEntity
  8
0
  6
CENTER
 62
               2
100
AcDbLine
 10
32.097329663490882
 20
0.0000000000000284
 30
0.0
 11
-31.937237005480711
 21
0.0000000000000284
 31
0.0
  0
CIRCLE
  5
541
100
AcDbEntity
  8
0
  6
CONTINUOUS
 62
               7
100
AcDbCircle
 10
0.0
 20
0.0000000000000284
 30
0.0
 40
2.1000000000000001
  0
CIRCLE
  5
542
100
AcDbEntity
  8
0
  6
CONTINUOUS
 62
               2
100
AcDbCircle
 10
0.0
 20
0.0000000000000284
 30
0.0
 40
2.5
  0
CIRCLE
  5
543
100
AcDbEntity
  8
0
  6
CENTER
 62
               2
100
AcDbCircle
 10
0.0
 20
0.0000000000000284
 30
0.0
 40
22.5
  0
CIRCLE
  5
544
100
AcDbEntity
  8
0
  6
CONTINUOUS
 62
               7
100
AcDbCircle
 10
-15.909902576697334
 20
15.909902576697249
 30
0.0
 40
1.6499999999999999
  0
CIRCLE
  5
545
100
AcDbEntity
  8
0
  6
CONTINUOUS
 62
               2
100
AcDbCircle
 10
-15.909902576697334
 20
15.909902576697249
 30
0.0
 40
2.0
  0
CIRCLE
  5
546
100
AcDbEntity
  8
0
  6
CONTINUOUS
 62
               7
100
AcDbCircle
 10
-15.909902576697277
 20
-15.909902576697363
 30
0.0
 40
1.6499999999999999
  0
CIRCLE
  5
547
100
AcDbEntity
  8
0
  6
CONTINUOUS
 62
               2
100
AcDbCircle
 10
-15.909902576697277
 20
-15.909902576697363
 30
0.0
 40
2.0
  0
CIRCLE
  5
548
100
AcDbEntity
  8
0
  6
CONTINUOUS
 62
               7
100
AcDbCircle
 10
15.909902576697391
 20
-15.909902576697277
 30
0.0
 40
1.6499999999999999
  0
CIRCLE
  5
549
100
AcDbEntity
  8
0
  6
CONTINUOUS
 62
               2
100
AcDbCircle
 10
15.909902576697391
 20
-15.909902576697277
 30
0.0
 40
2.0
  0
CIRCLE
  5
54A
100
AcDbEntity
  8
0
  6
CONTINUOUS
 62
               7
100
AcDbCircle
 10
0.0
 20
0.0000000000000284
 30
0.0
 40
28.999999999999989
  0
CIRCLE
  5
54B
100
AcDbEntity
  8
0
  6
CONTINUOUS
 62
               7
100
AcDbCircle
 10
0.0
 20
0.0000000000000284
 30
0.0
 40
29.999999999999989
  0
ARC
  5
54C
100
AcDbEntity
  8
0
  6
DASHED
 62
               2
100
AcDbCircle
 10
0.0190627296830712
 20
-24.747050049135424
 30
0.0
 40
4.363929581700825
100
AcDbArc
 50
241.99521341413674
 51
263.16884500145613
  0
LINE
  5
54D
100
AcDbEntity
  8
0
  6
DASHED
 62
               2
100
AcDbLine
 10
-0.4999999999999432
 20
-29.100000000000023
 30
0.0
 11
-0.4999999999999432
 21
-27.600000000000023
 31
0.0
  0
LINE
  5
54E
100
AcDbEntity
  8
0
  6
DASHED
 62
               2
100
AcDbLine
 10
-4.0
 20
-26.000000000000028
 30
0.0
 11
-3.9999999999999432
 21
-26.600000000000023
 31
0.0
  0
LINE
  5
54F
100
AcDbEntity
  8
0
  6
DASHED
 62
               2
100
AcDbLine
 10
4.7500000000000568
 20
-26.000000000000028
 30
0.0
 11
-4.7499999999999432
 21
-26.000000000000028
 31
0.0
  0
LINE
  5
550
100
AcDbEntity
  8
0
  6
DASHED
 62
               2
100
AcDbLine
 10
4.0500000000000114
 20
-26.600000000000023
 30
0.0
 11
-4.0499999999999545
 21
-26.600000000000023
 31
0.0
  0
LINE
  5
551
100
AcDbEntity
  8
0
  6
DASHED
 62
               2
100
AcDbLine
 10
-0.4999999999999432
 20
-29.100000000000023
 30
0.0
 11
-3.5499999999999545
 21
-29.100000000000023
 31
0.0
  0
LINE
  5
552
100
AcDbEntity
  8
0
  6
DASHED
 62
               2
100
AcDbLine
 10
-2.0299999999999727
 20
-28.600000000000023
 30
0.0
 11
-2.0299999999999727
 21
-26.600000000000023
 31
0.0
  0
ARC
  5
553
100
AcDbEntity
  8
0
  6
DASHED
 62
               2
100
AcDbCircle
 10
-4.9722187730059773
 20
-22.21605493006183
 30
0.0
 40
7.0293247160888015
100
AcDbArc
 50
281.67304037350181
 51
294.74392856765866
  0
LINE
  5
554
100
AcDbEntity
  8
0
  6
DASHED
 62
               2
100
AcDbLine
 10
-3.5499999999999545
 20
-29.100000000000023
 30
0.0
 11
-4.0499999999999545
 21
-28.600000000000023
 31
0.0
  0
LINE
  5
555
100
AcDbEntity
  8
0
  6
DASHED
 62
               2
100
AcDbLine
 10
-4.0499999999999545
 20
-28.600000000000023
 30
0.0
 11
-4.0499999999999545
 21
-26.600000000000023
 31
0.0
  0
LINE
  5
556
100
AcDbEntity
  8
0
  6
DASHED
 62
               2
100
AcDbLine
 10
4.0500000000000114
 20
-28.600000000000023
 30
0.0
 11
4.0500000000000114
 21
-26.600000000000023
 31
0.0
  0
LINE
  5
557
100
AcDbEntity
  8
0
  6
DASHED
 62
               2
100
AcDbLine
 10
4.0000000000000568
 20
-26.000000000000028
 30
0.0
 11
4.0000000000000568
 21
-26.600000000000023
 31
0.0
  0
ARC
  5
558
100
AcDbEntity
  8
0
  6
DASHED
 62
               2
100
AcDbCircle
 10
-0.0195042521916662
 20
-24.745642696138958
 30
0.0
 40
4.3653794686807261
100
AcDbArc
 50
276.83471178066651
 51
298.00122980373817
  0
LINE
  5
559
100
AcDbEntity
  8
0
  6
DASHED
 62
               2
100
AcDbLine
 10
3.5500000000000114
 20
-29.100000000000023
 30
0.0
 11
0.5000000000000568
 21
-29.100000000000023
 31
0.0
  0
LINE
  5
55A
100
AcDbEntity
  8
0
  6
DASHED
 62
               2
100
AcDbLine
 10
2.0300000000000296
 20
-28.600000000000023
 30
0.0
 11
2.0300000000000296
 21
-26.600000000000023
 31
0.0
  0
ARC
  5
55B
100
AcDbEntity
  8
0
  6
DASHED
 62
               2
100
AcDbCircle
 10
4.9717302995400132
 20
-22.217539889398438
 30
0.0
 40
7.0277716396203269
100
AcDbArc
 50
245.25462085736197
 51
258.32841020147521
  0
LINE
  5
55C
100
AcDbEntity
  8
0
  6
DASHED
 62
               2
100
AcDbLine
 10
4.0500000000000114
 20
-28.600000000000023
 30
0.0
 11
3.5500000000000114
 21
-29.100000000000023
 31
0.0
  0
LINE
  5
55D
100
AcDbEntity
  8
0
  6
DASHED
 62
               2
100
AcDbLine
 10
0.5000000000000568
 20
-29.100000000000023
 30
0.0
 11
0.5000000000000568
 21
-27.600000000000023
 31
0.0
  0
LINE
  5
55E
100
AcDbEntity
  8
0
  6
DASHED
 62
               2
100
AcDbLine
 10
0.5000000000000568
 20
-27.600000000000023
 30
0.0
 11
-0.4999999999999432
 21
-27.600000000000023
 31
0.0
  0
LINE
  5
55F
100
AcDbEntity
  8
0
  6
DASHED
 62
               2
100
AcDbLine
 10
2.1000000000000227
 20
-26.000000000000028
 30
0.0
 11
2.1000000000000227
 21
-22.20429466789335
 31
0.0
  0
LINE
  5
560
100
AcDbEntity
  8
0
  6
DASHED
 62
               2
100
AcDbLine
 10
2.5000000000000568
 20
-26.000000000000028
 30
0.0
 11
2.5000000000000568
 21
-22.655038231425948
 31
0.0
  0
LINE
  5
561
100
AcDbEntity
  8
0
  6
DASHED
 62
               2
100
AcDbLine
 10
-2.0999999999999659
 20
-26.000000000000028
 30
0.0
 11
-2.0999999999999659
 21
-22.655038231425948
 31
0.0
  0
LINE
  5
562
100
AcDbEntity
  8
0
  6
DASHED
 62
               2
100
AcDbLine
 10
-2.4999999999999432
 20
-26.000000000000028
 30
0.0
 11
-2.4999999999999432
 21
-22.908581485913004
 31
0.0
  0
LINE
  5
563
100
AcDbEntity
  8
0
  6
DASHED
 62
               2
100
AcDbLine
 10
26.000000000000057
 20
4.7500000000000853
 30
0.0
 11
26.000000000000057
 21
-4.7499999999999147
 31
0.0
  0
LINE
  5
564
100
AcDbEntity
  8
0
  6
DASHED
 62
               2
100
AcDbLine
 10
26.60000000000008
 20
4.0500000000000966
 30
0.0
 11
26.60000000000008
 21
-4.0499999999999261
 31
0.0
  0
LINE
  5
565
100
AcDbEntity
  8
0
  6
DASHED
 62
               2
100
AcDbLine
 10
28.60000000000008
 20
4.0500000000000966
 30
0.0
 11
26.60000000000008
 21
4.0500000000000966
 31
0.0
  0
LINE
  5
566
100
AcDbEntity
  8
0
  6
DASHED
 62
               2
100
AcDbLine
 10
28.60000000000008
 20
2.0300000000001148
 30
0.0
 11
26.60000000000008
 21
2.0300000000001148
 31
0.0
  0
LINE
  5
567
100
AcDbEntity
  8
0
  6
DASHED
 62
               2
100
AcDbLine
 10
29.10000000000008
 20
0.5000000000000853
 30
0.0
 11
27.60000000000008
 21
0.5000000000000853
 31
0.0
  0
LINE
  5
568
100
AcDbEntity
  8
0
  6
DASHED
 62
               2
100
AcDbLine
 10
27.60000000000008
 20
0.5000000000000853
 30
0.0
 11
27.60000000000008
 21
-0.4999999999999147
 31
0.0
  0
LINE
  5
569
100
AcDbEntity
  8
0
  6
DASHED
 62
               2
100
AcDbLine
 10
26.000000000000057
 20
2.100000000000108
 30
0.0
 11
22.204294667893407
 21
2.100000000000108
 31
0.0
  0
LINE
  5
56A
100
AcDbEntity
  8
0
  6
DASHED
 62
               2
100
AcDbLine
 10
26.000000000000057
 20
2.5000000000000853
 30
0.0
 11
22.655038231425976
 21
2.5000000000000853
 31
0.0
  0
LINE
  5
56B
100
AcDbEntity
  8
0
  6
DASHED
 62
               2
100
AcDbLine
 10
26.000000000000057
 20
4.0000000000000853
 30
0.0
 11
26.60000000000008
 21
4.0000000000000853
 31
0.0
  0
LINE
  5
56C
100
AcDbEntity
  8
0
  6
DASHED
 62
               2
100
AcDbLine
 10
29.10000000000008
 20
-0.4999999999999147
 30
0.0
 11
27.60000000000008
 21
-0.4999999999999147
 31
0.0
  0
LINE
  5
56D
100
AcDbEntity
  8
0
  6
DASHED
 62
               2
100
AcDbLine
 10
28.60000000000008
 20
-2.0299999999998875
 30
0.0
 11
26.60000000000008
 21
-2.0299999999998875
 31
0.0
  0
LINE
  5
56E
100
AcDbEntity
  8
0
  6
DASHED
 62
               2
100
AcDbLine
 10
28.60000000000008
 20
-4.0499999999999261
 30
0.0
 11
26.60000000000008
 21
-4.0499999999999261
 31
0.0
  0
LINE
  5
56F
100
AcDbEntity
  8
0
  6
DASHED
 62
               2
100
AcDbLine
 10
26.000000000000057
 20
-2.0999999999999091
 30
0.0
 11
22.655038231425976
 21
-2.0999999999999091
 31
0.0
  0
LINE
  5
570
100
AcDbEntity
  8
0
  6
DASHED
 62
               2
100
AcDbLine
 10
26.000000000000057
 20
-2.4999999999999147
 30
0.0
 11
22.908581485913089
 21
-2.4999999999999147
 31
0.0
  0
LINE
  5
571
100
AcDbEntity
  8
0
  6
DASHED
 62
               2
100
AcDbLine
 10
26.000000000000057
 20
-3.9999999999999147
 30
0.0
 11
26.60000000000008
 21
-3.9999999999999147
 31
0.0
  0
LINE
  5
572
100
AcDbEntity
  8
0
  6
DASHED
 62
               2
100
AcDbLine
 10
29.10000000000008
 20
-0.4999999999999147
 30
0.0
 11
29.10000000000008
 21
-3.5499999999999261
 31
0.0
  0
ARC
  5
573
100
AcDbEntity
  8
0
  6
DASHED
 62
               2
100
AcDbCircle
 10
22.216054930061887
 20
-4.972218773005892
 30
0.0
 40
7.0293247160888015
100
AcDbArc
 50
11.673040373502431
 51
24.74392856765925
  0
LINE
  5
574
100
AcDbEntity
  8
0
  6
DASHED
 62
               2
100
AcDbLine
 10
29.10000000000008
 20
-3.5499999999999261
 30
0.0
 11
28.60000000000008
 21
-4.0499999999999261
 31
0.0
  0
ARC
  5
575
100
AcDbEntity
  8
0
  6
DASHED
 62
               2
100
AcDbCircle
 10
24.747050049135453
 20
0.0190627296830996
 30
0.0
 40
4.363929581700825
100
AcDbArc
 50
331.99521341413663
 51
353.16884500145596
  0
ARC
  5
576
100
AcDbEntity
  8
0
  6
DASHED
 62
               2
100
AcDbCircle
 10
24.745642696138987
 20
-0.0195042521916378
 30
0.0
 40
4.3653794686807261
100
AcDbArc
 50
6.8347117806671411
 51
28.001229803738738
  0
ARC
  5
577
100
AcDbEntity
  8
0
  6
DASHED
 62
               2
100
AcDbCircle
 10
22.217539889398495
 20
4.9717302995400701
 30
0.0
 40
7.0277716396203269
100
AcDbArc
 50
335.25462085736177
 51
348.32841020147504
  0
LINE
  5
578
100
AcDbEntity
  8
0
  6
DASHED
 62
               2
100
AcDbLine
 10
29.10000000000008
 20
3.5500000000000966
 30
0.0
 11
29.10000000000008
 21
0.5000000000000853
 31
0.0
  0
LINE
  5
579
100
AcDbEntity
  8
0
  6
DASHED
 62
               2
100
AcDbLine
 10
28.60000000000008
 20
4.0500000000000966
 30
0.0
 11
29.10000000000008
 21
3.5500000000000966
 31
0.0
  0
LINE
  5
57A
100
AcDbEntity
  8
0
  6
DASHED
 62
               2
100
AcDbLine
 10
29.621571531571391
 20
-4.7499999999999147
 30
0.0
 11
26.000000000000057
 21
-4.7499999999999147
 31
0.0
  0
LINE
  5
57B
100
AcDbEntity
  8
0
  6
DASHED
 62
               2
100
AcDbLine
 10
29.621571531571362
 20
4.7500000000000853
 30
0.0
 11
26.000000000000057
 21
4.7500000000000853
 31
0.0
  0
LINE
  5
57C
100
AcDbEntity
  8
0
  6
DASHED
 62
               2
100
AcDbLine
 10
4.7500000000000568
 20
-29.621571531571334
 30
0.0
 11
4.7500000000000568
 21
-26.000000000000028
 31
0.0
  0
LINE
  5
57D
100
AcDbEntity
  8
0
  6
DASHED
 62
               2
100
AcDbLine
 10
-4.7499999999999432
 20
-29.621571531571362
 30
0.0
 11
-4.7499999999999432
 21
-26.000000000000028
 31
0.0
  0
ENDBLK
  5
57E
100
AcDbEntity
  8
0
100
AcDbBlockEnd
  0
BLOCK
  5
57F
100
AcDbEntity
  8
0
100
AcDbBlockBegin
  2
NCT60-12
 70
               0
 10
0.0
 20
0.0
 30
0.0
  3
NCT60-12
  1

  0
LINE
  5
580
100
AcDbEntity
  8
0
  6
CENTER
 62
               2
100
AcDbLine
 10
-0.0000002628475499
 20
32.0
 30
0.0
 11
-0.0000002628475499
 21
-32.0
 31
0.0
  0
LINE
  5
581
100
AcDbEntity
  8
0
  6
CENTER
 62
               2
100
AcDbLine
 10
-32.000000258676096
 20
0.0
 30
0.0
 11
31.999999741323904
 21
0.0
 31
0.0
  0
CIRCLE
  5
582
100
AcDbEntity
  8
0
  6
CONTINUOUS
 62
               7
100
AcDbCircle
 10
-0.0000002628475499
 20
0.0
 30
0.0
 40
30.0
  0
ARC
  5
583
100
AcDbEntity
  8
0
  6
CONTINUOUS
 62
               7
100
AcDbCircle
 10
-0.0000004917212664
 20
0.0
 30
0.0
 40
25.0
100
AcDbArc
 50
50.483821951936271
 51
159.51617845501627
  0
CIRCLE
  5
584
100
AcDbEntity
  8
0
  6
CONTINUOUS
 62
               7
100
AcDbCircle
 10
-0.0000002628475499
 20
-0.0000000000000142
 30
0.0
 40
15.672620946911177
  0
CIRCLE
  5
585
100
AcDbEntity
  8
0
  6
CONTINUOUS
 62
               7
100
AcDbCircle
 10
-0.0000002628475499
 20
0.0
 30
0.0
 40
13.0
  0
LINE
  5
586
100
AcDbEntity
  8
0
  6
CENTER
 62
               2
100
AcDbLine
 10
22.627416502255215
 20
22.627416502255244
 30
0.0
 11
-0.0000004660903983
 21
-0.0000004660903983
 31
0.0
  0
LINE
  5
587
100
AcDbEntity
  8
0
  6
CENTER
 62
               2
100
AcDbLine
 10
-30.909626950007635
 20
8.2822089600742288
 30
0.0
 11
-0.0000005852996878
 21
-0.0000004660903983
 31
0.0
  0
LINE
  5
588
100
AcDbEntity
  8
0
  6
CENTER
 62
               2
100
AcDbLine
 10
8.2822089153707452
 20
-30.909626979809957
 30
0.0
 11
-0.0000005256950431
 21
-0.0000005554973654
 31
0.0
  0
CIRCLE
  5
589
100
AcDbEntity
  8
0
  6
CENTER
 62
               2
100
AcDbCircle
 10
-0.000000288478418
 20
-0.0000000596046448
 30
0.0
 40
26.699999999999999
  0
ARC
  5
58A
100
AcDbEntity
  8
0
  6
CONTINUOUS
 62
               7
100
AcDbCircle
 10
-0.0000004917212664
 20
0.0
 30
0.0
 40
25.0
100
AcDbArc
 50
170.48382356940689
 51
279.51617769483488
  0
ARC
  5
58B
100
AcDbEntity
  8
0
  6
CONTINUOUS
 62
               7
100
AcDbCircle
 10
-0.0000004917212664
 20
0.0
 30
0.0
 40
25.0
100
AcDbArc
 50
290.4838215553109
 51
39.516176555800484
  0
CIRCLE
  5
58C
100
AcDbEntity
  8
0
  6
CONTINUOUS
 62
               4
100
AcDbCircle
 10
18.879750680396398
 20
18.879750680396427
 30
0.0
 40
3.0
  0
CIRCLE
  5
58D
100
AcDbEntity
  8
0
  6
CONTINUOUS
 62
               4
100
AcDbCircle
 10
-25.79022007968922
 20
6.9104680228840323
 30
0.0
 40
3.0
  0
CIRCLE
  5
58E
100
AcDbEntity
  8
0
  6
CONTINUOUS
 62
               4
100
AcDbCircle
 10
6.9104679175890737
 20
-25.790219882699887
 30
0.0
 40
3.0
  0
ENDBLK
  5
58F
100
AcDbEntity
  8
0
100
AcDbBlockEnd
  0
BLOCK
  5
590
100
AcDbEntity
  8
0
100
AcDbBlockBegin
  2
NCT60-13
 70
               0
 10
0.0
 20
0.0
 30
0.0
  3
NCT60-13
  1

  0
LINE
  5
591
100
AcDbEntity
  8
0
  6
CONTINUOUS
 62
               7
100
AcDbLine
 10
-30.0
 20
-4.0
 30
0.0
 11
-30.0
 21
-16.800000000000011
 31
0.0
  0
LINE
  5
592
100
AcDbEntity
  8
0
  6
CONTINUOUS
 62
               7
100
AcDbLine
 10
-20.0
 20
-4.0
 30
0.0
 11
-30.0
 21
-4.0
 31
0.0
  0
LINE
  5
593
100
AcDbEntity
  8
0
  6
CONTINUOUS
 62
               7
100
AcDbLine
 10
-20.0
 20
0.0000000095367341
 30
0.0
 11
-20.0
 21
-3.9999999904632659
 31
0.0
  0
LINE
  5
594
100
AcDbEntity
  8
0
  6
CENTER
 62
               2
100
AcDbLine
 10
0.0
 20
1.9304725800595861
 30
0.0
 11
0.0
 21
-18.520916669976998
 31
0.0
  0
LINE
  5
595
100
AcDbEntity
  8
0
  6
CONTINUOUS
 62
               7
100
AcDbLine
 10
29.0
 20
0.0
 30
0.0
 11
30.0
 21
-1.0
 31
0.0
  0
LINE
  5
596
100
AcDbEntity
  8
0
  6
CENTER
 62
               2
100
AcDbLine
 10
33.648374754458047
 20
-7.0
 30
0.0
 11
15.213203435596427
 21
-7.0
 31
0.0
  0
LINE
  5
597
100
AcDbEntity
  8
0
  6
CONTINUOUS
 62
               7
100
AcDbLine
 10
29.0
 20
0.0
 30
0.0
 11
-20.0
 21
0.0
 31
0.0
  0
LINE
  5
598
100
AcDbEntity
  8
0
  6
CENTER
 62
               2
100
AcDbLine
 10
21.213203435596427
 20
-0.9999999758755962
 30
0.0
 11
21.213203435596427
 21
-13.0
 31
0.0
  0
LINE
  5
599
100
AcDbEntity
  8
0
  6
CONTINUOUS
 62
               7
100
AcDbLine
 10
-26.500000017317177
 20
1.0
 30
0.0
 11
-26.500000017317177
 21
6.0
 31
0.0
  0
LINE
  5
59A
100
AcDbEntity
  8
0
  6
CONTINUOUS
 62
               7
100
AcDbLine
 10
-23.500000017317177
 20
1.0
 30
0.0
 11
-23.500000017317177
 21
6.0
 31
0.0
  0
LINE
  5
59B
100
AcDbEntity
  8
0
  6
CONTINUOUS
 62
               7
100
AcDbLine
 10
-26.300000017317188
 20
6.0
 30
0.0
 11
-26.300000017317188
 21
8.4552839088967744
 31
0.0
  0
LINE
  5
59C
100
AcDbEntity
  8
0
  6
CONTINUOUS
 62
               7
100
AcDbLine
 10
-23.700000017317166
 20
6.0
 30
0.0
 11
-23.700000017317166
 21
8.4552839088967744
 31
0.0
  0
ARC
  5
59D
100
AcDbEntity
  8
0
  6
CONTINUOUS
 62
               7
100
AcDbCircle
 10
-27.325000010245731
 20
-3.6015624725981752
 30
0.0
 40
1.6015624725981965
100
AcDbArc
 50
61.059411546888256
 51
118.94058903127132
  0
ARC
  5
59E
100
AcDbEntity
  8
0
  6
CONTINUOUS
 62
               7
100
AcDbCircle
 10
-22.675000024388623
 20
-3.6015624725981752
 30
0.0
 40
1.6015624725981965
100
AcDbArc
 50
61.059410968728308
 51
118.94058845311135
  0
LINE
  5
59F
100
AcDbEntity
  8
0
  6
CONTINUOUS
 62
               7
100
AcDbLine
 10
-27.325000010245731
 20
-2.0
 30
0.0
 11
-22.675000024388623
 21
-2.0
 31
0.0
  0
ARC
  5
5A0
100
AcDbEntity
  8
0
  6
CONTINUOUS
 62
               7
100
AcDbCircle
 10
-25.000000017317177
 20
-8.1062500000000455
 30
0.0
 40
6.1062500000000233
100
AcDbArc
 50
75.295241280215237
 51
104.70475871978446
  0
LINE
  5
5A1
100
AcDbEntity
  8
0
  6
CONTINUOUS
 62
               7
100
AcDbLine
 10
-26.550000017317188
 20
-3.5
 30
0.0
 11
-26.550000017317188
 21
-2.1999999999999886
 31
0.0
  0
LINE
  5
5A2
100
AcDbEntity
  8
0
  6
CONTINUOUS
 62
               7
100
AcDbLine
 10
-23.450000017317166
 20
-3.5
 30
0.0
 11
-23.450000017317166
 21
-2.1999999999999886
 31
0.0
  0
LINE
  5
5A3
100
AcDbEntity
  8
0
  6
CONTINUOUS
 62
               7
100
AcDbLine
 10
-26.500000017317177
 20
-2.0
 30
0.0
 11
-26.500000017317177
 21
1.0
 31
0.0
  0
LINE
  5
5A4
100
AcDbEntity
  8
0
  6
CONTINUOUS
 62
               7
100
AcDbLine
 10
-26.250000017317177
 20
-2.0
 30
0.0
 11
-26.250000017317177
 21
1.0
 31
0.0
  0
LINE
  5
5A5
100
AcDbEntity
  8
0
  6
CONTINUOUS
 62
               7
100
AcDbLine
 10
-23.500000017317177
 20
-2.0
 30
0.0
 11
-23.500000017317177
 21
1.0
 31
0.0
  0
LINE
  5
5A6
100
AcDbEntity
  8
0
  6
CONTINUOUS
 62
               7
100
AcDbLine
 10
-23.750000017317177
 20
-2.0
 30
0.0
 11
-23.750000017317177
 21
1.0
 31
0.0
  0
LINE
  5
5A7
100
AcDbEntity
  8
0
  6
CONTINUOUS
 62
               7
100
AcDbLine
 10
-28.1000000173172
 20
-3.5
 30
0.0
 11
-28.1000000173172
 21
-2.1999999999999886
 31
0.0
  0
LINE
  5
5A8
100
AcDbEntity
  8
0
  6
CONTINUOUS
 62
               7
100
AcDbLine
 10
-21.900000017317154
 20
-3.5
 30
0.0
 11
-21.900000017317154
 21
-2.1999999999999886
 31
0.0
  0
LINE
  5
5A9
100
AcDbEntity
  8
0
  6
CONTINUOUS
 62
               7
100
AcDbLine
 10
-28.200000017317166
 20
-4.0
 30
0.0
 11
-28.200000017317166
 21
-3.500000011812233
 31
0.0
  0
LINE
  5
5AA
100
AcDbEntity
  8
0
  6
CONTINUOUS
 62
               7
100
AcDbLine
 10
-21.800000017317188
 20
-4.0
 30
0.0
 11
-21.800000017317188
 21
-3.5
 31
0.0
  0
LINE
  5
5AB
100
AcDbEntity
  8
0
  6
CONTINUOUS
 62
               7
100
AcDbLine
 10
-28.200000013578631
 20
-3.5
 30
0.0
 11
-21.800000007618166
 21
-3.5
 31
0.0
  0
LINE
  5
5AC
100
AcDbEntity
  8
0
  6
CONTINUOUS
 62
               7
100
AcDbLine
 10
-26.50000002549956
 20
6.0
 30
0.0
 11
-23.50000002549956
 21
6.0
 31
0.0
  0
LINE
  5
5AD
100
AcDbEntity
  8
0
  6
CONTINUOUS
 62
               7
100
AcDbLine
 10
-26.50000002549956
 20
1.0
 30
0.0
 11
-23.50000002549956
 21
1.0
 31
0.0
  0
LINE
  5
5AE
100
AcDbEntity
  8
0
  6
CENTER
 62
               2
100
AcDbLine
 10
-25.000000017317177
 20
-17.683248141778336
 30
0.0
 11
-25.000000017317177
 21
10.109501817215232
 31
0.0
  0
CIRCLE
  5
5AF
100
AcDbEntity
  8
0
  6
CONTINUOUS
 62
               7
100
AcDbCircle
 10
21.213203435596427
 20
-7.0
 30
0.0
 40
4.75
  0
LINE
  5
5B0
100
AcDbEntity
  8
0
  6
CONTINUOUS
 62
               7
100
AcDbLine
 10
19.188203435596449
 20
-3.4925971146730035
 30
0.0
 11
17.163203435596472
 21
-7.0
 31
0.0
  0
LINE
  5
5B1
100
AcDbEntity
  8
0
  6
CONTINUOUS
 62
               7
100
AcDbLine
 10
17.163203435596472
 20
-7.0
 30
0.0
 11
19.188203435596449
 21
-10.507402885326997
 31
0.0
  0
LINE
  5
5B2
100
AcDbEntity
  8
0
  6
CONTINUOUS
 62
               7
100
AcDbLine
 10
19.188203435596449
 20
-10.507402885326997
 30
0.0
 11
23.238203435596404
 21
-10.507402885326997
 31
0.0
  0
LINE
  5
5B3
100
AcDbEntity
  8
0
  6
CONTINUOUS
 62
               7
100
AcDbLine
 10
23.238203435596404
 20
-10.507402885326997
 30
0.0
 11
25.263203435596438
 21
-7.0
 31
0.0
  0
LINE
  5
5B4
100
AcDbEntity
  8
0
  6
CONTINUOUS
 62
               7
100
AcDbLine
 10
25.263203435596438
 20
-7.0
 30
0.0
 11
23.238203435596461
 21
-3.4925971146730035
 31
0.0
  0
LINE
  5
5B5
100
AcDbEntity
  8
0
  6
CONTINUOUS
 62
               7
100
AcDbLine
 10
23.238203435596461
 20
-3.4925971146730035
 30
0.0
 11
19.188203435596449
 21
-3.4925971146730035
 31
0.0
  0
LINE
  5
5B6
100
AcDbEntity
  8
0
  6
CONTINUOUS
 62
               7
100
AcDbLine
 10
21.813203435596449
 20
-3.4925971146730035
 30
0.0
 11
21.813203435596449
 21
-10.507402885326997
 31
0.0
  0
LINE
  5
5B7
100
AcDbEntity
  8
0
  6
CONTINUOUS
 62
               7
100
AcDbLine
 10
20.613203435596404
 20
-3.4925971146730035
 30
0.0
 11
20.613203435596404
 21
-10.507402885326997
 31
0.0
  0
ARC
  5
5B8
100
AcDbEntity
  8
0
  6
CONTINUOUS
 62
               7
100
AcDbCircle
 10
21.213203435596427
 20
-7.0
 30
0.0
 40
3.5074028853269792
100
AcDbArc
 50
279.84984773017413
 51
80.150152269825071
  0
ARC
  5
5B9
100
AcDbEntity
  8
0
  6
CONTINUOUS
 62
               7
100
AcDbCircle
 10
21.213203435596427
 20
-7.0
 30
0.0
 40
3.5074028853269792
100
AcDbArc
 50
99.849847730174503
 51
260.15015226982462
  0
ARC
  5
5BA
100
AcDbEntity
  8
0
  6
CONTINUOUS
 62
               7
100
AcDbCircle
 10
21.213203435596427
 20
-7.0
 30
0.0
 40
4.0
100
AcDbArc
 50
1.2647703579682756
 51
58.735229642031562
  0
ARC
  5
5BB
100
AcDbEntity
  8
0
  6
CONTINUOUS
 62
               7
100
AcDbCircle
 10
21.213203435596427
 20
-7.0
 30
0.0
 40
4.0
100
AcDbArc
 50
61.264770357968032
 51
118.73522964203177
  0
ARC
  5
5BC
100
AcDbEntity
  8
0
  6
CONTINUOUS
 62
               7
100
AcDbCircle
 10
21.213203435596427
 20
-7.0
 30
0.0
 40
4.0
100
AcDbArc
 50
121.26477035796792
 51
178.73522964203138
  0
ARC
  5
5BD
100
AcDbEntity
  8
0
  6
CONTINUOUS
 62
               7
100
AcDbCircle
 10
21.213203435596427
 20
-7.0
 30
0.0
 40
4.0
100
AcDbArc
 50
181.26477035796773
 51
238.73522964203116
  0
ARC
  5
5BE
100
AcDbEntity
  8
0
  6
CONTINUOUS
 62
               7
100
AcDbCircle
 10
21.213203435596427
 20
-7.0
 30
0.0
 40
4.0
100
AcDbArc
 50
241.2647703579683
 51
298.73522964203056
  0
ARC
  5
5BF
100
AcDbEntity
  8
0
  6
CONTINUOUS
 62
               7
100
AcDbCircle
 10
21.213203435596427
 20
-7.0
 30
0.0
 40
4.0
100
AcDbArc
 50
301.26477035796779
 51
358.7352296420309
  0
LINE
  5
5C0
100
AcDbEntity
  8
0
  6
CONTINUOUS
 62
               7
100
AcDbLine
 10
29.800000000000011
 20
-17.0
 30
0.0
 11
-29.800000000000011
 21
-17.0
 31
0.0
  0
LINE
  5
5C1
100
AcDbEntity
  8
0
  6
CONTINUOUS
 62
               4
100
AcDbLine
 10
29.700000118547791
 20
-18.0
 30
0.0
 11
23.700000118547791
 21
-18.0
 31
0.0
  0
LINE
  5
5C2
100
AcDbEntity
  8
0
  6
CONTINUOUS
 62
               4
100
AcDbLine
 10
29.700000118547791
 20
-17.0
 30
0.0
 11
29.700000118547791
 21
-18.0
 31
0.0
  0
LINE
  5
5C3
100
AcDbEntity
  8
0
  6
CONTINUOUS
 62
               4
100
AcDbLine
 10
23.700000118547791
 20
-17.0
 30
0.0
 11
23.700000118547791
 21
-18.0
 31
0.0
  0
LINE
  5
5C4
100
AcDbEntity
  8
0
  6
CENTER
 62
             200
100
AcDbLine
 10
26.700000119255606
 20
-13.999999997392536
 30
0.0
 11
26.700000119255606
 21
-20.0
 31
0.0
  0
LINE
  5
5C5
100
AcDbEntity
  8
0
  6
CONTINUOUS
 62
               7
100
AcDbLine
 10
30.0
 20
-1.0
 30
0.0
 11
30.0
 21
-16.799999999999955
 31
0.0
  0
LINE
  5
5C6
100
AcDbEntity
  8
0
  6
CONTINUOUS
 62
               7
100
AcDbLine
 10
30.0
 20
-16.799999999999955
 30
0.0
 11
29.800000000000011
 21
-17.0
 31
0.0
  0
LINE
  5
5C7
100
AcDbEntity
  8
0
  6
CONTINUOUS
 62
               7
100
AcDbLine
 10
-30.0
 20
-16.800000000000011
 30
0.0
 11
-29.800000000000011
 21
-17.0
 31
0.0
  0
LINE
  5
5C8
100
AcDbEntity
  8
0
  6
CONTINUOUS
 62
               4
100
AcDbLine
 10
-10.349999551903977
 20
-18.0
 30
0.0
 11
-16.349999551903977
 21
-18.0
 31
0.0
  0
LINE
  5
5C9
100
AcDbEntity
  8
0
  6
CONTINUOUS
 62
               4
100
AcDbLine
 10
-10.349999551903977
 20
-17.0
 30
0.0
 11
-10.349999551903977
 21
-18.0
 31
0.0
  0
LINE
  5
5CA
100
AcDbEntity
  8
0
  6
CONTINUOUS
 62
               4
100
AcDbLine
 10
-16.349999551903977
 20
-17.0
 30
0.0
 11
-16.349999551903977
 21
-18.0
 31
0.0
  0
LINE
  5
5CB
100
AcDbEntity
  8
0
  6
CENTER
 62
             200
100
AcDbLine
 10
-13.349999551196163
 20
-13.999999997392536
 30
0.0
 11
-13.349999551196163
 21
-20.0
 31
0.0
  0
LINE
  5
5CC
100
AcDbEntity
  8
0
  6
CONTINUOUS
 62
               7
100
AcDbLine
 10
30.0
 20
-1.0
 30
0.0
 11
-20.0
 21
-1.0
 31
0.0
  0
LINE
  5
5CD
100
AcDbEntity
  8
0
  6
CONTINUOUS
 62
               7
100
AcDbLine
 10
30.0
 20
-16.799999999999955
 30
0.0
 11
-30.0
 21
-16.800000000000011
 31
0.0
  0
ARC
  5
5CE
100
AcDbEntity
  8
0
  6
CONTINUOUS
 62
               7
100
AcDbCircle
 10
-24.3500000173172
 20
9.0777788887962174
 30
0.0
 40
0.9
100
AcDbArc
 50
223.76174269267875
 51
316.23825730732005
  0
ARC
  5
5CF
100
AcDbEntity
  8
0
  6
CONTINUOUS
 62
               7
100
AcDbCircle
 10
-24.3500000173172
 20
7.8327889289973314
 30
0.0
 40
0.9
100
AcDbArc
 50
43.761742692679185
 51
136.23825730732042
  0
ARC
  5
5D0
100
AcDbEntity
  8
0
  6
CONTINUOUS
 62
               7
100
AcDbCircle
 10
-25.650000017317154
 20
7.8327889289973314
 30
0.0
 40
0.9
100
AcDbArc
 50
43.761742692679157
 51
136.23825730732042
  0
ENDBLK
  5
5D1
100
AcDbEntity
  8
0
100
AcDbBlockEnd
  0
BLOCK
  5
5D2
100
AcDbEntity
  8
0
100
AcDbBlockBegin
  2
NCT60-14
 70
               0
 10
0.0
 20
0.0
 30
0.0
  3
NCT60-14
  1

  0
CIRCLE
  5
5D3
100
AcDbEntity
  8
0
  6
CONTINUOUS
 62
               7
100
AcDbCircle
 10
0.0000000000001137
 20
-0.0000000000000142
 30
0.0
 40
30.0
  0
LINE
  5
5D4
100
AcDbEntity
  8
0
  6
CENTER
 62
               2
100
AcDbLine
 10
0.0000000000001137
 20
31.999999999999964
 30
0.0
 11
0.0000000000000568
 21
-31.999999999999986
 31
0.0
  0
ARC
  5
5D5
100
AcDbEntity
  8
0
  6
CONTINUOUS
 62
               7
100
AcDbCircle
 10
0.0000000000001137
 20
-0.0000000000000142
 30
0.0
 40
29.0
100
AcDbArc
 50
226.39718102237146
 51
133.60281897762775
  0
LINE
  5
5D6
100
AcDbEntity
  8
0
  6
CONTINUOUS
 62
               7
100
AcDbLine
 10
-19.999999976447896
 20
22.360679741260142
 30
0.0
 11
-19.999999976447896
 21
-22.360679761008996
 31
0.0
  0
LINE
  5
5D7
100
AcDbEntity
  8
0
  6
CENTER
 62
               2
100
AcDbLine
 10
-25.000000017317063
 20
5.1999999999999744
 30
0.0
 11
-25.000000017317063
 21
-4.8782997594137356
 31
0.0
  0
CIRCLE
  5
5D8
100
AcDbEntity
  8
0
  6
CONTINUOUS
 62
               7
100
AcDbCircle
 10
0.0000000000001137
 20
-22.499999999999986
 30
0.0
 40
1.6499999999999999
  0
CIRCLE
  5
5D9
100
AcDbEntity
  8
0
  6
CONTINUOUS
 62
               7
100
AcDbCircle
 10
0.0000000000001137
 20
22.500000000000014
 30
0.0
 40
1.6499999999999999
  0
CIRCLE
  5
5DA
100
AcDbEntity
  8
0
  6
CONTINUOUS
 62
               7
100
AcDbCircle
 10
22.500000000000171
 20
-0.0000000000000142
 30
0.0
 40
1.6499999999999999
  0
CIRCLE
  5
5DB
100
AcDbEntity
  8
0
  6
CONTINUOUS
 62
               2
100
AcDbCircle
 10
0.0000000000001137
 20
-22.499999999999986
 30
0.0
 40
2.0
  0
CIRCLE
  5
5DC
100
AcDbEntity
  8
0
  6
CONTINUOUS
 62
               2
100
AcDbCircle
 10
0.0000000000001137
 20
22.500000000000014
 30
0.0
 40
2.0
  0
CIRCLE
  5
5DD
100
AcDbEntity
  8
0
  6
CONTINUOUS
 62
               2
100
AcDbCircle
 10
22.500000000000171
 20
-0.0000000000000142
 30
0.0
 40
2.0
  0
CIRCLE
  5
5DE
100
AcDbEntity
  8
0
  6
CONTINUOUS
 62
               2
100
AcDbCircle
 10
0.0000000000001137
 20
-0.0000000000000142
 30
0.0
 40
2.5
  0
CIRCLE
  5
5DF
100
AcDbEntity
  8
0
  6
CONTINUOUS
 62
               7
100
AcDbCircle
 10
0.0000000000001137
 20
-0.0000000000000142
 30
0.0
 40
2.1000000000000001
  0
LINE
  5
5E0
100
AcDbEntity
  8
0
  6
CENTER
 62
               2
100
AcDbLine
 10
32.000000000000057
 20
0.0000000000000142
 30
0.0
 11
-31.999999999999943
 21
-0.0000000000000142
 31
0.0
  0
CIRCLE
  5
5E1
100
AcDbEntity
  8
0
  6
CONTINUOUS
 62
               7
100
AcDbCircle
 10
-25.000000017317063
 20
-0.0000000000000142
 30
0.0
 40
3.2000000000000002
  0
LINE
  5
5E2
100
AcDbEntity
  8
0
  6
CONTINUOUS
 62
               7
100
AcDbLine
 10
-23.458845739847561
 20
-2.7000000000000313
 30
0.0
 11
-26.541154287178472
 21
-2.7000000000000313
 31
0.0
  0
LINE
  5
5E3
100
AcDbEntity
  8
0
  6
CONTINUOUS
 62
               7
100
AcDbLine
 10
-23.458845725697131
 20
2.6999999999999744
 30
0.0
 11
-26.541154303742815
 21
2.6999999999999744
 31
0.0
  0
LINE
  5
5E4
100
AcDbEntity
  8
0
  6
CONTINUOUS
 62
               7
100
AcDbLine
 10
-23.458845704793816
 20
2.6999999547978035
 30
0.0
 11
-21.90000000855747
 21
0.0000000077563271
 31
0.0
  0
LINE
  5
5E5
100
AcDbEntity
  8
0
  6
CONTINUOUS
 62
               7
100
AcDbLine
 10
-21.899999946355706
 20
0.0000001455326668
 30
0.0
 11
-23.458845794200784
 21
-2.7000000809649833
 31
0.0
  0
LINE
  5
5E6
100
AcDbEntity
  8
0
  6
CONTINUOUS
 62
               7
100
AcDbLine
 10
-28.100000088278421
 20
0.0000001455326668
 30
0.0
 11
-26.541154240433343
 21
-2.7000000809649833
 31
0.0
  0
LINE
  5
5E7
100
AcDbEntity
  8
0
  6
CONTINUOUS
 62
               7
100
AcDbLine
 10
-26.54115432984031
 20
2.6999999547978035
 30
0.0
 11
-28.100000026076657
 21
0.0000000077563271
 31
0.0
  0
CIRCLE
  5
5E8
100
AcDbEntity
  8
0
  6
CONTINUOUS
 62
               7
100
AcDbCircle
 10
-25.000000017317063
 20
-0.0000000000000142
 30
0.0
 40
1.5
  0
CIRCLE
  5
5E9
100
AcDbEntity
  8
0
  6
CONTINUOUS
 62
               7
100
AcDbCircle
 10
-25.000000017317063
 20
-0.0000000000000142
 30
0.0
 40
0.65
  0
CIRCLE
  5
5EA
100
AcDbEntity
  8
0
  6
CENTER
 62
               2
100
AcDbCircle
 10
0.0000000000001137
 20
-0.0000000000000995
 30
0.0
 40
22.5
  0
LINE
  5
5EB
100
AcDbEntity
  8
0
  6
CENTER
 62
               2
100
AcDbLine
 10
22.627416997969647
 20
-22.627416997969632
 30
0.0
 11
0.0000000000001137
 21
-0.0000000000000995
 31
0.0
  0
LINE
  5
5EC
100
AcDbEntity
  8
0
  6
DASHED
 62
               2
100
AcDbLine
 10
21.74353352148654
 20
-15.026019100214299
 30
0.0
 11
15.026019100214285
 21
-21.743533521486498
 31
0.0
  0
LINE
  5
5ED
100
AcDbEntity
  8
0
  6
DASHED
 62
               2
100
AcDbLine
 10
21.67282284336784
 20
-15.945257915756812
 30
0.0
 11
15.945257915756827
 21
-21.672822843367854
 31
0.0
  0
LINE
  5
5EE
100
AcDbEntity
  8
0
  6
DASHED
 62
               2
100
AcDbLine
 10
23.087036405740946
 20
-17.359471478129919
 30
0.0
 11
21.67282284336784
 21
-15.945257915756812
 31
0.0
  0
LINE
  5
5EF
100
AcDbEntity
  8
0
  6
DASHED
 62
               2
100
AcDbLine
 10
19.869700551342191
 20
-16.899852070358648
 30
0.0
 11
17.185731571623592
 21
-14.215883090640077
 31
0.0
  0
LINE
  5
5F0
100
AcDbEntity
  8
0
  6
DASHED
 62
               2
100
AcDbLine
 10
20.152543263816767
 20
-16.617009357884044
 30
0.0
 11
17.787298114448333
 21
-14.251764208515553
 31
0.0
  0
ARC
  5
5F1
100
AcDbEntity
  8
0
  6
DASHED
 62
               2
100
AcDbCircle
 10
17.484020166272614
 20
-17.511603344246097
 30
0.0
 40
4.3653794686807261
100
AcDbArc
 50
321.83471178066645
 51
343.001229803738
  0
LINE
  5
5F2
100
AcDbEntity
  8
0
  6
DASHED
 62
               2
100
AcDbLine
 10
23.087036405740946
 20
-17.359471478129919
 30
0.0
 11
23.087036405740946
 21
-18.066578259316472
 31
0.0
  0
ARC
  5
5F3
100
AcDbEntity
  8
0
  6
DASHED
 62
               2
100
AcDbCircle
 10
19.225717326111749
 20
-12.194628908041054
 30
0.0
 40
7.0277716396203269
100
AcDbArc
 50
290.25462085736189
 51
303.32841020147521
  0
LINE
  5
5F4
100
AcDbEntity
  8
0
  6
DASHED
 62
               2
100
AcDbLine
 10
23.087036405740946
 20
-18.066578259316472
 30
0.0
 11
20.930360723121964
 21
-20.223253941935425
 31
0.0
  0
LINE
  5
5F5
100
AcDbEntity
  8
0
  6
DASHED
 62
               2
100
AcDbLine
 10
21.658680707744111
 20
-18.787827176126726
 30
0.0
 11
20.244467145371061
 21
-17.373613613753648
 31
0.0
  0
LINE
  5
5F6
100
AcDbEntity
  8
0
  6
DASHED
 62
               2
100
AcDbLine
 10
19.869700551342191
 20
-19.162593770155596
 30
0.0
 11
19.162593770155638
 21
-19.869700551342149
 31
0.0
  0
LINE
  5
5F7
100
AcDbEntity
  8
0
  6
DASHED
 62
               2
100
AcDbLine
 10
20.930360723121964
 20
-20.223253941935425
 30
0.0
 11
19.869700551342191
 21
-19.162593770155596
 31
0.0
  0
LINE
  5
5F8
100
AcDbEntity
  8
0
  6
DASHED
 62
               2
100
AcDbLine
 10
20.223253941935411
 20
-20.930360723121979
 30
0.0
 11
19.162593770155638
 21
-19.869700551342149
 31
0.0
  0
LINE
  5
5F9
100
AcDbEntity
  8
0
  6
DASHED
 62
               2
100
AcDbLine
 10
18.066578259316486
 20
-23.087036405740932
 30
0.0
 11
17.359471478129933
 21
-23.087036405740932
 31
0.0
  0
LINE
  5
5FA
100
AcDbEntity
  8
0
  6
DASHED
 62
               2
100
AcDbLine
 10
18.787827176126768
 20
-21.658680707744125
 30
0.0
 11
17.373613613753662
 21
-20.244467145371019
 31
0.0
  0
LINE
  5
5FB
100
AcDbEntity
  8
0
  6
DASHED
 62
               2
100
AcDbLine
 10
20.223253941935411
 20
-20.930360723121979
 30
0.0
 11
18.066578259316486
 21
-23.087036405740932
 31
0.0
  0
ARC
  5
5FC
100
AcDbEntity
  8
0
  6
DASHED
 62
               2
100
AcDbCircle
 10
17.512286289533506
 20
-17.48532751867991
 30
0.0
 40
4.363929581700825
100
AcDbArc
 50
286.99521341413669
 51
308.16884500145608
  0
ARC
  5
5FD
100
AcDbEntity
  8
0
  6
DASHED
 62
               2
100
AcDbCircle
 10
12.193233480324125
 20
-19.225012704195294
 30
0.0
 40
7.0293247160888015
100
AcDbArc
 50
326.67304037350175
 51
339.74392856765854
  0
LINE
  5
5FE
100
AcDbEntity
  8
0
  6
DASHED
 62
               2
100
AcDbLine
 10
15.556349186104228
 20
-21.213203435596583
 30
0.0
 11
15.980613254816149
 21
-21.637467504308503
 31
0.0
  0
LINE
  5
5FF
100
AcDbEntity
  8
0
  6
DASHED
 62
               2
100
AcDbLine
 10
16.617009357884058
 20
-20.152543263816753
 30
0.0
 11
14.431046363087489
 21
-17.966580269020213
 31
0.0
  0
LINE
  5
600
100
AcDbEntity
  8
0
  6
DASHED
 62
               2
100
AcDbLine
 10
16.899852070358691
 20
-19.869700551342149
 30
0.0
 11
14.5346069209902
 21
-17.504455401973686
 31
0.0
  0
LINE
  5
601
100
AcDbEntity
  8
0
  6
DASHED
 62
               2
100
AcDbLine
 10
17.359471478129933
 20
-23.087036405740932
 30
0.0
 11
15.945257915756827
 21
-21.672822843367854
 31
0.0
  0
LINE
  5
602
100
AcDbEntity
  8
0
  6
CENTER
 62
               2
100
AcDbLine
 10
0.0000000000001137
 20
-0.0000000000000995
 30
0.0
 11
22.62741699796959
 21
22.627416997969405
 31
0.0
  0
LINE
  5
603
100
AcDbEntity
  8
0
  6
DASHED
 62
               2
100
AcDbLine
 10
16.899852070358634
 20
19.869700551341865
 30
0.0
 11
14.215883090640034
 21
17.185731571623293
 31
0.0
  0
LINE
  5
604
100
AcDbEntity
  8
0
  6
DASHED
 62
               2
100
AcDbLine
 10
16.617009357884001
 20
20.152543263816469
 30
0.0
 11
14.25176420851551
 21
17.787298114448006
 31
0.0
  0
LINE
  5
605
100
AcDbEntity
  8
0
  6
DASHED
 62
               2
100
AcDbLine
 10
17.359471478129876
 20
23.087036405740648
 30
0.0
 11
18.066578259316429
 21
23.087036405740648
 31
0.0
  0
ARC
  5
606
100
AcDbEntity
  8
0
  6
DASHED
 62
               2
100
AcDbCircle
 10
12.194628908041068
 20
19.22571732611145
 30
0.0
 40
7.0277716396203269
100
AcDbArc
 50
20.2546208573625
 51
33.328410201475762
  0
LINE
  5
607
100
AcDbEntity
  8
0
  6
DASHED
 62
               2
100
AcDbLine
 10
18.787827176126711
 20
21.658680707743812
 30
0.0
 11
17.373613613753605
 21
20.244467145370734
 31
0.0
  0
LINE
  5
608
100
AcDbEntity
  8
0
  6
DASHED
 62
               2
100
AcDbLine
 10
15.556349186104171
 20
21.213203435596299
 30
0.0
 11
15.980613254816092
 21
21.637467504308219
 31
0.0
  0
LINE
  5
609
100
AcDbEntity
  8
0
  6
DASHED
 62
               2
100
AcDbLine
 10
17.359471478129876
 20
23.087036405740648
 30
0.0
 11
15.94525791575677
 21
21.672822843367541
 31
0.0
  0
ARC
  5
60A
100
AcDbEntity
  8
0
  6
DASHED
 62
               2
100
AcDbCircle
 10
17.511603344246055
 20
17.484020166272344
 30
0.0
 40
4.3653794686807261
100
AcDbArc
 50
51.834711780667043
 51
73.001229803738639
  0
LINE
  5
60B
100
AcDbEntity
  8
0
  6
DASHED
 62
               2
100
AcDbLine
 10
18.066578259316429
 20
23.087036405740648
 30
0.0
 11
20.223253941935411
 21
20.930360723121666
 31
0.0
  0
LINE
  5
60C
100
AcDbEntity
  8
0
  6
DASHED
 62
               2
100
AcDbLine
 10
23.087036405740946
 20
17.359471478129635
 30
0.0
 11
21.67282284336784
 21
15.945257915756528
 31
0.0
  0
LINE
  5
60D
100
AcDbEntity
  8
0
  6
DASHED
 62
               2
100
AcDbLine
 10
23.087036405740889
 20
18.066578259316159
 30
0.0
 11
23.087036405740946
 21
17.359471478129635
 31
0.0
  0
ARC
  5
60E
100
AcDbEntity
  8
0
  6
DASHED
 62
               2
100
AcDbCircle
 10
19.225012704195308
 20
12.193233480323826
 30
0.0
 40
7.0293247160888015
100
AcDbArc
 50
56.673040373502339
 51
69.743928567659154
  0
LINE
  5
60F
100
AcDbEntity
  8
0
  6
DASHED
 62
               2
100
AcDbLine
 10
20.930360723121964
 20
20.223253941935141
 30
0.0
 11
23.087036405740889
 21
18.066578259316159
 31
0.0
  0
ARC
  5
610
100
AcDbEntity
  8
0
  6
DASHED
 62
               2
100
AcDbCircle
 10
17.485327518679867
 20
17.512286289533208
 30
0.0
 40
4.363929581700825
100
AcDbArc
 50
16.995213414137279
 51
38.168845001456681
  0
LINE
  5
611
100
AcDbEntity
  8
0
  6
DASHED
 62
               2
100
AcDbLine
 10
19.162593770155581
 20
19.869700551341865
 30
0.0
 11
19.869700551342135
 21
19.162593770155311
 31
0.0
  0
LINE
  5
612
100
AcDbEntity
  8
0
  6
DASHED
 62
               2
100
AcDbLine
 10
20.930360723121964
 20
20.223253941935141
 30
0.0
 11
19.869700551342135
 21
19.162593770155311
 31
0.0
  0
LINE
  5
613
100
AcDbEntity
  8
0
  6
DASHED
 62
               2
100
AcDbLine
 10
20.223253941935411
 20
20.930360723121666
 30
0.0
 11
19.162593770155581
 21
19.869700551341865
 31
0.0
  0
LINE
  5
614
100
AcDbEntity
  8
0
  6
DASHED
 62
               2
100
AcDbLine
 10
20.152543263816767
 20
16.617009357883731
 30
0.0
 11
17.966580269020199
 21
14.431046363087191
 31
0.0
  0
LINE
  5
615
100
AcDbEntity
  8
0
  6
DASHED
 62
               2
100
AcDbLine
 10
19.869700551342135
 20
16.899852070358364
 30
0.0
 11
17.504455401973644
 21
14.534606920989873
 31
0.0
  0
LINE
  5
616
100
AcDbEntity
  8
0
  6
DASHED
 62
               2
100
AcDbLine
 10
21.213203435596597
 20
15.556349186103901
 30
0.0
 11
21.637467504308518
 21
15.98061325481585
 31
0.0
  0
LINE
  5
617
100
AcDbEntity
  8
0
  6
DASHED
 62
               2
100
AcDbLine
 10
15.026019100214285
 20
21.743533521486214
 30
0.0
 11
21.743533521486484
 21
15.026019100214015
 31
0.0
  0
LINE
  5
618
100
AcDbEntity
  8
0
  6
DASHED
 62
               2
100
AcDbLine
 10
15.94525791575677
 20
21.672822843367541
 30
0.0
 11
21.67282284336784
 21
15.945257915756528
 31
0.0
  0
LINE
  5
619
100
AcDbEntity
  8
0
  6
DASHED
 62
               2
100
AcDbLine
 10
21.658680707744111
 20
18.787827176126441
 30
0.0
 11
20.244467145371004
 21
17.373613613753363
 31
0.0
  0
LINE
  5
61A
100
AcDbEntity
  8
0
  6
DASHED
 62
               2
100
AcDbLine
 10
24.304371310012755
 20
17.586856888740314
 30
0.0
 11
21.743533521486484
 21
15.026019100214015
 31
0.0
  0
LINE
  5
61B
100
AcDbEntity
  8
0
  6
DASHED
 62
               2
100
AcDbLine
 10
17.586856888740613
 20
24.304371310012542
 30
0.0
 11
15.026019100214285
 21
21.743533521486214
 31
0.0
  0
LINE
  5
61C
100
AcDbEntity
  8
0
  6
DASHED
 62
               2
100
AcDbLine
 10
24.304371310012698
 20
-17.586856888740485
 30
0.0
 11
21.74353352148654
 21
-15.026019100214299
 31
0.0
  0
LINE
  5
61D
100
AcDbEntity
  8
0
  6
DASHED
 62
               2
100
AcDbLine
 10
17.586856888740442
 20
-24.304371310012655
 30
0.0
 11
15.026019100214285
 21
-21.743533521486498
 31
0.0
  0
LINE
  5
61E
100
AcDbEntity
  8
0
  6
DASHED
 62
               2
100
AcDbLine
 10
21.213203435596483
 20
-15.556349186104129
 30
0.0
 11
21.637467504308404
 21
-15.980613254816049
 31
0.0
  0
ENDBLK
  5
61F
100
AcDbEntity
  8
0
100
AcDbBlockEnd
  0
BLOCK
  5
620
100
AcDbEntity
  8
0
100
AcDbBlockBegin
  2
NCT60-15
 70
               0
 10
0.0
 20
0.0
 30
0.0
  3
NCT60-15
  1

  0
CIRCLE
  5
621
100
AcDbEntity
  8
0
  6
CONTINUOUS
 62
               2
100
AcDbCircle
 10
-25.000000109616622
 20
-0.0000005457128509
 30
0.0
 40
1.0
  0
CIRCLE
  5
622
100
AcDbEntity
  8
0
  6
CONTINUOUS
 62
               7
100
AcDbCircle
 10
-25.000000109616622
 20
-0.0000005457128509
 30
0.0
 40
1.5
  0
LINE
  5
623
100
AcDbEntity
  8
0
  6
CENTER
 62
               2
100
AcDbLine
 10
-25.000000109616622
 20
-3.5000005180853577
 30
0.0
 11
-25.000000109616622
 21
3.4999994464084239
 31
0.0
  0
LINE
  5
624
100
AcDbEntity
  8
0
  6
CENTER
 62
               2
100
AcDbLine
 10
0.0
 20
-32.000000545712851
 30
0.0
 11
0.0
 21
31.999999454287149
 31
0.0
  0
LINE
  5
625
100
AcDbEntity
  8
0
  6
CENTER
 62
               2
100
AcDbLine
 10
31.999999995828546
 20
-0.0000005457128509
 30
0.0
 11
-32.000000004171454
 21
-0.0000005457128509
 31
0.0
  0
CIRCLE
  5
626
100
AcDbEntity
  8
0
  6
CONTINUOUS
 62
               7
100
AcDbCircle
 10
0.0
 20
-0.0000005457128509
 30
0.0
 40
30.0
  0
CIRCLE
  5
627
100
AcDbEntity
  8
0
  6
CONTINUOUS
 62
               7
100
AcDbCircle
 10
0.0
 20
-0.0000005457128509
 30
0.0
 40
15.672620946911177
  0
CIRCLE
  5
628
100
AcDbEntity
  8
0
  6
CONTINUOUS
 62
               7
100
AcDbCircle
 10
0.0
 20
-0.0000005457128509
 30
0.0
 40
13.0
  0
LINE
  5
629
100
AcDbEntity
  8
0
  6
CENTER
 62
               2
100
AcDbLine
 10
-15.999999866475491
 20
27.712812696386322
 30
0.0
 11
0.000000091503864
 21
-0.0000001584893425
 31
0.0
  0
LINE
  5
62A
100
AcDbEntity
  8
0
  6
CENTER
 62
               2
100
AcDbLine
 10
-15.999999919159052
 20
-27.712813171415632
 30
0.0
 11
0.0000000704304171
 21
-0.0000002638564638
 31
0.0
  0
CIRCLE
  5
62B
100
AcDbEntity
  8
0
  6
CENTER
 62
               2
100
AcDbCircle
 10
0.0000000256308681
 20
-0.0000004861082061
 30
0.0
 40
26.699999999999999
  0
ARC
  5
62C
100
AcDbEntity
  8
0
  6
CONTINUOUS
 62
               7
100
AcDbCircle
 10
0.0000008938112046
 20
-0.0000014460508169
 30
0.0
 40
25.0
100
AcDbArc
 50
245.88629834955327
 51
354.51617740352231
  0
CIRCLE
  5
62D
100
AcDbEntity
  8
0
  6
CONTINUOUS
 62
               4
100
AcDbCircle
 10
26.700000803915088
 20
-0.0000014700739257
 30
0.0
 40
3.0
  0
ARC
  5
62E
100
AcDbEntity
  8
0
  6
CONTINUOUS
 62
               7
100
AcDbCircle
 10
0.0000008938112046
 20
-0.0000014460508169
 30
0.0
 40
25.0
100
AcDbArc
 50
5.4838224868671492
 51
114.51617727486497
  0
CIRCLE
  5
62F
100
AcDbEntity
  8
0
  6
CONTINUOUS
 62
               4
100
AcDbCircle
 10
-13.349999002448556
 20
23.122876679441447
 30
0.0
 40
3.0
  0
ARC
  5
630
100
AcDbEntity
  8
0
  6
CONTINUOUS
 62
               7
100
AcDbCircle
 10
0.0000008938112046
 20
-0.0000014460508169
 30
0.0
 40
25.0
100
AcDbArc
 50
125.48382267335117
 51
234.51617802401051
  0
CIRCLE
  5
631
100
AcDbEntity
  8
0
  6
CONTINUOUS
 62
               4
100
AcDbCircle
 10
-13.349999257101274
 20
-23.122879959215766
 30
0.0
 40
3.0
  0
ENDBLK
  5
632
100
AcDbEntity
  8
0
100
AcDbBlockEnd
  0
BLOCK
  5
633
100
AcDbEntity
  8
0
100
AcDbBlockBegin
  2
NCT60-16
 70
               0
 10
0.0
 20
0.0
 30
0.0
  3
NCT60-16
  1

  0
LINE
  5
634
100
AcDbEntity
  8
0
  6
CONTINUOUS
 62
               7
100
AcDbLine
 10
30.0
 20
-1.0
 30
0.0
 11
30.0
 21
-16.799999999999997
 31
0.0
  0
LINE
  5
635
100
AcDbEntity
  8
0
  6
CENTER
 62
               2
100
AcDbLine
 10
27.413203435596415
 20
-7.0
 30
0.0
 11
15.013203435596409
 21
-7.0
 31
0.0
  0
LINE
  5
636
100
AcDbEntity
  8
0
  6
CONTINUOUS
 62
               7
100
AcDbLine
 10
29.799999999999997
 20
-17.0
 30
0.0
 11
-29.799999999999997
 21
-17.0
 31
0.0
  0
LINE
  5
637
100
AcDbEntity
  8
0
  6
CONTINUOUS
 62
               7
100
AcDbLine
 10
29.0
 20
0.0
 30
0.0
 11
30.0
 21
-1.0
 31
0.0
  0
LINE
  5
638
100
AcDbEntity
  8
0
  6
CENTER
 62
               2
100
AcDbLine
 10
21.213203435596412
 20
-0.799999999999983
 30
0.0
 11
21.213203435596412
 21
-13.199999999999989
 31
0.0
  0
CIRCLE
  5
639
100
AcDbEntity
  8
0
  6
CONTINUOUS
 62
               7
100
AcDbCircle
 10
21.213203435596412
 20
-7.0
 30
0.0
 40
4.75
  0
LINE
  5
63A
100
AcDbEntity
  8
0
  6
CONTINUOUS
 62
               7
100
AcDbLine
 10
19.188203435596407
 20
-3.4925971146730319
 30
0.0
 11
17.163203435596415
 21
-7.0
 31
0.0
  0
LINE
  5
63B
100
AcDbEntity
  8
0
  6
CONTINUOUS
 62
               7
100
AcDbLine
 10
17.163203435596415
 20
-7.0
 30
0.0
 11
19.188203435596421
 21
-10.507402885326997
 31
0.0
  0
LINE
  5
63C
100
AcDbEntity
  8
0
  6
CONTINUOUS
 62
               7
100
AcDbLine
 10
19.188203435596421
 20
-10.507402885326997
 30
0.0
 11
23.238203435596411
 21
-10.507402885326997
 31
0.0
  0
LINE
  5
63D
100
AcDbEntity
  8
0
  6
CONTINUOUS
 62
               7
100
AcDbLine
 10
23.238203435596411
 20
-10.507402885326997
 30
0.0
 11
25.263203435596417
 21
-7.0
 31
0.0
  0
LINE
  5
63E
100
AcDbEntity
  8
0
  6
CONTINUOUS
 62
               7
100
AcDbLine
 10
25.263203435596417
 20
-7.0
 30
0.0
 11
23.238203435596418
 21
-3.4925971146730319
 31
0.0
  0
LINE
  5
63F
100
AcDbEntity
  8
0
  6
CONTINUOUS
 62
               7
100
AcDbLine
 10
23.238203435596418
 20
-3.4925971146730319
 30
0.0
 11
19.188203435596407
 21
-3.4925971146730319
 31
0.0
  0
LINE
  5
640
100
AcDbEntity
  8
0
  6
CONTINUOUS
 62
               7
100
AcDbLine
 10
21.813203435596414
 20
-3.4925971146730319
 30
0.0
 11
21.813203435596414
 21
-10.507402885326997
 31
0.0
  0
LINE
  5
641
100
AcDbEntity
  8
0
  6
CONTINUOUS
 62
               7
100
AcDbLine
 10
20.613203435596411
 20
-3.4925971146730319
 30
0.0
 11
20.613203435596411
 21
-10.507402885326997
 31
0.0
  0
ARC
  5
642
100
AcDbEntity
  8
0
  6
CONTINUOUS
 62
               7
100
AcDbCircle
 10
21.213203435596412
 20
-7.0
 30
0.0
 40
3.5074028853269792
100
AcDbArc
 50
279.84984773017413
 51
80.150152269825071
  0
ARC
  5
643
100
AcDbEntity
  8
0
  6
CONTINUOUS
 62
               7
100
AcDbCircle
 10
21.213203435596412
 20
-7.0
 30
0.0
 40
3.5074028853269792
100
AcDbArc
 50
99.849847730174503
 51
260.15015226982462
  0
LINE
  5
644
100
AcDbEntity
  8
0
  6
CENTER
 62
               2
100
AcDbLine
 10
0.0
 20
2.0
 30
0.0
 11
0.0
 21
-19.0
 31
0.0
  0
ARC
  5
645
100
AcDbEntity
  8
0
  6
CONTINUOUS
 62
               7
100
AcDbCircle
 10
21.213203435596412
 20
-7.0
 30
0.0
 40
4.0
100
AcDbArc
 50
1.2647703579682756
 51
58.735229642031562
  0
ARC
  5
646
100
AcDbEntity
  8
0
  6
CONTINUOUS
 62
               7
100
AcDbCircle
 10
21.213203435596412
 20
-7.0
 30
0.0
 40
4.0
100
AcDbArc
 50
61.264770357968032
 51
118.73522964203177
  0
ARC
  5
647
100
AcDbEntity
  8
0
  6
CONTINUOUS
 62
               7
100
AcDbCircle
 10
21.213203435596412
 20
-7.0
 30
0.0
 40
4.0
100
AcDbArc
 50
121.26477035796792
 51
178.73522964203138
  0
ARC
  5
648
100
AcDbEntity
  8
0
  6
CONTINUOUS
 62
               7
100
AcDbCircle
 10
21.213203435596412
 20
-7.0
 30
0.0
 40
4.0
100
AcDbArc
 50
181.26477035796773
 51
238.73522964203116
  0
ARC
  5
649
100
AcDbEntity
  8
0
  6
CONTINUOUS
 62
               7
100
AcDbCircle
 10
21.213203435596412
 20
-7.0
 30
0.0
 40
4.0
100
AcDbArc
 50
241.2647703579683
 51
298.73522964203056
  0
ARC
  5
64A
100
AcDbEntity
  8
0
  6
CONTINUOUS
 62
               7
100
AcDbCircle
 10
21.213203435596412
 20
-7.0
 30
0.0
 40
4.0
100
AcDbArc
 50
301.26477035796779
 51
358.7352296420309
  0
LINE
  5
64B
100
AcDbEntity
  8
0
  6
CONTINUOUS
 62
               7
100
AcDbLine
 10
29.0
 20
0.0
 30
0.0
 11
-19.000000000000007
 21
0.0
 31
0.0
  0
LINE
  5
64C
100
AcDbEntity
  8
0
  6
CONTINUOUS
 62
               7
100
AcDbLine
 10
-30.0
 20
-11.0
 30
0.0
 11
-30.0
 21
-16.800000000000011
 31
0.0
  0
LINE
  5
64D
100
AcDbEntity
  8
0
  6
CONTINUOUS
 62
               7
100
AcDbLine
 10
30.0
 20
-1.0
 30
0.0
 11
-19.000000000000007
 21
-1.0
 31
0.0
  0
LINE
  5
64E
100
AcDbEntity
  8
0
  6
CONTINUOUS
 62
               7
100
AcDbLine
 10
-19.000000000000007
 20
-0.0000000110763096
 30
0.0
 11
-19.000000000000007
 21
-11.00000001107631
 31
0.0
  0
LINE
  5
64F
100
AcDbEntity
  8
0
  6
CENTER
 62
               2
100
AcDbLine
 10
-42.001543729590004
 20
-4.5500000000000114
 30
0.0
 11
-49.522492207121033
 21
-4.5500000000000114
 31
0.0
  0
LINE
  5
650
100
AcDbEntity
  8
0
  6
CENTER
 62
               2
100
AcDbLine
 10
-42.001543729590004
 20
-3.6500000000000057
 30
0.0
 11
-49.522492207121033
 21
-3.6500000000000057
 31
0.0
  0
ARC
  5
651
100
AcDbEntity
  8
0
  6
CONTINUOUS
 62
               7
100
AcDbCircle
 10
-29.499999988148076
 20
-9.9083488506775836
 30
0.0
 40
0.5
100
AcDbArc
 50
179.99999999999963
 51
269.49999999999915
  0
ARC
  5
652
100
AcDbEntity
  8
0
  6
CONTINUOUS
 62
               7
100
AcDbCircle
 10
-29.499999988148076
 20
-1.0916511509958298
 30
0.0
 40
0.5
100
AcDbArc
 50
90.500000000000071
 51
179.99999999999963
  0
LINE
  5
653
100
AcDbEntity
  8
0
  6
CONTINUOUS
 62
               7
100
AcDbLine
 10
-22.699999988148079
 20
-0.5
 30
0.0
 11
-28.79999998814808
 21
-0.5821808204125887
 31
0.0
  0
LINE
  5
654
100
AcDbEntity
  8
0
  6
CONTINUOUS
 62
               7
100
AcDbLine
 10
-22.699999988148079
 20
-10.500000001673442
 30
0.0
 11
-29.504363255897275
 21
-10.408329812209672
 31
0.0
  0
LINE
  5
655
100
AcDbEntity
  8
0
  6
CONTINUOUS
 62
               7
100
AcDbLine
 10
-30.399999988148082
 20
-1.0999999999999943
 30
0.0
 11
-30.399999988148082
 21
-7.0999999999999943
 31
0.0
  0
LINE
  5
656
100
AcDbEntity
  8
0
  6
CONTINUOUS
 62
               7
100
AcDbLine
 10
-37.399999988148082
 20
-2.0999999999999943
 30
0.0
 11
-37.399999988148082
 21
-6.0999999999999943
 31
0.0
  0
LINE
  5
657
100
AcDbEntity
  8
0
  6
CONTINUOUS
 62
               7
100
AcDbLine
 10
-37.399999988148082
 20
-6.0999999999999943
 30
0.0
 11
-35.399999988148082
 21
-6.3857142857143003
 31
0.0
  0
LINE
  5
658
100
AcDbEntity
  8
0
  6
CONTINUOUS
 62
               7
100
AcDbLine
 10
-37.399999988148082
 20
-2.0999999999999943
 30
0.0
 11
-35.399999988148082
 21
-1.8142857142857167
 31
0.0
  0
LINE
  5
659
100
AcDbEntity
  8
0
  6
CONTINUOUS
 62
               7
100
AcDbLine
 10
-35.399999988148082
 20
-1.8142857142857167
 30
0.0
 11
-35.399999988148082
 21
-6.3857142857143003
 31
0.0
  0
LINE
  5
65A
100
AcDbEntity
  8
0
  6
CONTINUOUS
 62
               7
100
AcDbLine
 10
-34.399999988148082
 20
-1.6714285714286063
 30
0.0
 11
-34.399999988148082
 21
-6.5285714285714391
 31
0.0
  0
LINE
  5
65B
100
AcDbEntity
  8
0
  6
CONTINUOUS
 62
               7
100
AcDbLine
 10
-32.899999988148082
 20
-1.4571428571428839
 30
0.0
 11
-32.899999988148082
 21
-6.7428571428571615
 31
0.0
  0
LINE
  5
65C
100
AcDbEntity
  8
0
  6
CONTINUOUS
 62
               7
100
AcDbLine
 10
-31.899999988148082
 20
-1.3142857142857167
 30
0.0
 11
-31.899999988148082
 21
-6.8857142857143003
 31
0.0
  0
LINE
  5
65D
100
AcDbEntity
  8
0
  6
CONTINUOUS
 62
               7
100
AcDbLine
 10
-34.399999988148082
 20
-6.5285714285714391
 30
0.0
 11
-32.899999988148082
 21
-6.7428571428571615
 31
0.0
  0
LINE
  5
65E
100
AcDbEntity
  8
0
  6
CONTINUOUS
 62
               7
100
AcDbLine
 10
-31.899999988148082
 20
-6.8857142857143003
 30
0.0
 11
-30.399999988148082
 21
-7.0999999999999943
 31
0.0
  0
LINE
  5
65F
100
AcDbEntity
  8
0
  6
CONTINUOUS
 62
               7
100
AcDbLine
 10
-34.399999988148082
 20
-1.6714285714286063
 30
0.0
 11
-32.899999988148082
 21
-1.4571428571428839
 31
0.0
  0
LINE
  5
660
100
AcDbEntity
  8
0
  6
CONTINUOUS
 62
               7
100
AcDbLine
 10
-31.899999988148082
 20
-1.3142857142857167
 30
0.0
 11
-30.399999988148082
 21
-1.0999999999999943
 31
0.0
  0
LINE
  5
661
100
AcDbEntity
  8
0
  6
CONTINUOUS
 62
               7
100
AcDbLine
 10
-35.399999988148082
 20
-5.8499999999999943
 30
0.0
 11
-34.399999988148082
 21
-5.8499999999999943
 31
0.0
  0
LINE
  5
662
100
AcDbEntity
  8
0
  6
CONTINUOUS
 62
               7
100
AcDbLine
 10
-35.399999988148082
 20
-2.3499999999999943
 30
0.0
 11
-34.399999988148082
 21
-2.3499999999999943
 31
0.0
  0
LINE
  5
663
100
AcDbEntity
  8
0
  6
CONTINUOUS
 62
               7
100
AcDbLine
 10
-32.899999988148082
 20
-5.8499999999999943
 30
0.0
 11
-31.899999988148082
 21
-5.8499999999999943
 31
0.0
  0
LINE
  5
664
100
AcDbEntity
  8
0
  6
CONTINUOUS
 62
               7
100
AcDbLine
 10
-32.899999988148082
 20
-2.3499999999999943
 30
0.0
 11
-31.899999988148082
 21
-2.3499999999999943
 31
0.0
  0
LINE
  5
665
100
AcDbEntity
  8
0
  6
CONTINUOUS
 62
               7
100
AcDbLine
 10
-42.899999988148075
 20
-2.8000000000000114
 30
0.0
 11
-42.899999988148075
 21
-5.4000000000000057
 31
0.0
  0
LINE
  5
666
100
AcDbEntity
  8
0
  6
CONTINUOUS
 62
               7
100
AcDbLine
 10
-48.899999988148068
 20
-3.4000000000000057
 30
0.0
 11
-48.899999988148068
 21
-3.9000000000000057
 31
0.0
  0
LINE
  5
667
100
AcDbEntity
  8
0
  6
CONTINUOUS
 62
               7
100
AcDbLine
 10
-48.899999988148068
 20
-4.3000000000000114
 30
0.0
 11
-48.899999988148068
 21
-4.8000000000000114
 31
0.0
  0
LINE
  5
668
100
AcDbEntity
  8
0
  6
CONTINUOUS
 62
               7
100
AcDbLine
 10
-46.899999988148068
 20
-3.2000000000000171
 30
0.0
 11
-46.899999988148068
 21
-5.0000000000000284
 31
0.0
  0
LINE
  5
669
100
AcDbEntity
  8
0
  6
CONTINUOUS
 62
               7
100
AcDbLine
 10
-42.899999988148075
 20
-5.0
 30
0.0
 11
-44.899999988148068
 21
-5.0000000000000284
 31
0.0
  0
LINE
  5
66A
100
AcDbEntity
  8
0
  6
CONTINUOUS
 62
               7
100
AcDbLine
 10
-42.899999988148075
 20
-4.0999999999999943
 30
0.0
 11
-44.379999988148072
 21
-4.0999999999999943
 31
0.0
  0
LINE
  5
66B
100
AcDbEntity
  8
0
  6
CONTINUOUS
 62
               7
100
AcDbLine
 10
-45.361880168009989
 20
-4.0999999999999943
 30
0.0
 11
-46.899999988148068
 21
-4.0999999999999943
 31
0.0
  0
LINE
  5
66C
100
AcDbEntity
  8
0
  6
CONTINUOUS
 62
               7
100
AcDbLine
 10
-45.881495409895166
 20
-5.0000000000000284
 30
0.0
 11
-46.899999988148068
 21
-5.0000000000000284
 31
0.0
  0
LINE
  5
66D
100
AcDbEntity
  8
0
  6
CONTINUOUS
 62
               7
100
AcDbLine
 10
-42.899999988148075
 20
-3.2000000000000171
 30
0.0
 11
-43.859999988148076
 21
-3.2000000000000171
 31
0.0
  0
LINE
  5
66E
100
AcDbEntity
  8
0
  6
CONTINUOUS
 62
               7
100
AcDbLine
 10
-44.842264926124798
 20
-3.2000000000000171
 30
0.0
 11
-46.899999988148068
 21
-3.2000000000000171
 31
0.0
  0
LINE
  5
66F
100
AcDbEntity
  8
0
  6
CONTINUOUS
 62
               7
100
AcDbLine
 10
-46.899999988148068
 20
-3.4000000000000057
 30
0.0
 11
-48.899999988148068
 21
-3.4000000000000057
 31
0.0
  0
LINE
  5
670
100
AcDbEntity
  8
0
  6
CONTINUOUS
 62
               7
100
AcDbLine
 10
-46.899999988148068
 20
-3.9000000000000057
 30
0.0
 11
-48.899999988148068
 21
-3.9000000000000057
 31
0.0
  0
LINE
  5
671
100
AcDbEntity
  8
0
  6
CONTINUOUS
 62
               7
100
AcDbLine
 10
-46.899999988148068
 20
-4.3000000000000114
 30
0.0
 11
-48.899999988148068
 21
-4.3000000000000114
 31
0.0
  0
LINE
  5
672
100
AcDbEntity
  8
0
  6
CONTINUOUS
 62
               7
100
AcDbLine
 10
-46.899999988148068
 20
-4.8000000000000114
 30
0.0
 11
-48.899999988148068
 21
-4.8000000000000114
 31
0.0
  0
LINE
  5
673
100
AcDbEntity
  8
0
  6
CONTINUOUS
 62
               7
100
AcDbLine
 10
-37.399999988148082
 20
-2.8000000000000114
 30
0.0
 11
-38.937564439240361
 21
-2.8000000000000114
 31
0.0
  0
LINE
  5
674
100
AcDbEntity
  8
0
  6
CONTINUOUS
 62
               7
100
AcDbLine
 10
-37.399999988148082
 20
-5.4000000000000057
 30
0.0
 11
-40.438675139133395
 21
-5.4000000000000057
 31
0.0
  0
LINE
  5
675
100
AcDbEntity
  8
0
  6
CONTINUOUS
 62
               7
100
AcDbLine
 10
-39.861324838462735
 20
-2.8000000000000114
 30
0.0
 11
-42.899999988148075
 21
-2.8000000000000114
 31
0.0
  0
LINE
  5
676
100
AcDbEntity
  8
0
  6
CONTINUOUS
 62
               7
100
AcDbLine
 10
-41.362435538355768
 20
-5.4000000000000057
 30
0.0
 11
-42.899999988148075
 21
-5.4000000000000057
 31
0.0
  0
LINE
  5
677
100
AcDbEntity
  8
0
  6
PHANTOM
 62
               2
100
AcDbLine
 10
-44.495854765176773
 20
-2.600000000534834
 30
0.0
 11
-46.227905571460724
 21
-5.600000000534834
 31
0.0
  0
LINE
  5
678
100
AcDbEntity
  8
0
  6
PHANTOM
 62
               2
100
AcDbLine
 10
-43.57209438085556
 20
-2.600000000534834
 30
0.0
 11
-45.304145202040672
 21
-5.6000000303371564
 31
0.0
  0
LINE
  5
679
100
AcDbEntity
  8
0
  6
PHANTOM
 62
               2
100
AcDbLine
 10
-39.51491467654705
 20
-2.1999999945743696
 30
0.0
 11
-41.708845719695091
 21
-6.0000000362975925
 31
0.0
  0
LINE
  5
67A
100
AcDbEntity
  8
0
  6
PHANTOM
 62
               2
100
AcDbLine
 10
-38.591154277324677
 20
-2.200000024376692
 30
0.0
 11
-40.785085305571556
 21
-6.0000000362975925
 31
0.0
  0
LINE
  5
67B
100
AcDbEntity
  8
0
  6
CONTINUOUS
 62
               7
100
AcDbLine
 10
-30.399999988148082
 20
-1.0999999999999943
 30
0.0
 11
-29.999999988148076
 21
-1.0999999999999943
 31
0.0
  0
LINE
  5
67C
100
AcDbEntity
  8
0
  6
CONTINUOUS
 62
               7
100
AcDbLine
 10
-30.399999988148082
 20
-7.0999999999999943
 30
0.0
 11
-29.999999988148076
 21
-7.0999999999999943
 31
0.0
  0
LINE
  5
67D
100
AcDbEntity
  8
0
  6
CENTER
 62
               2
100
AcDbLine
 10
-42.899999988148075
 20
-4.0999999999999943
 30
0.0
 11
-28.79999998814808
 21
-4.0999999999999943
 31
0.0
  0
LINE
  5
67E
100
AcDbEntity
  8
0
  6
CENTER
 62
               2
100
AcDbLine
 10
-28.195856974999181
 20
-2.0
 30
0.0
 11
-30.399999988148082
 21
-2.0000000000000284
 31
0.0
  0
LINE
  5
67F
100
AcDbEntity
  8
0
  6
CONTINUOUS
 62
               7
100
AcDbLine
 10
-28.79999998814808
 20
-3.5999999999999943
 30
0.0
 11
-28.79999998814808
 21
-0.5
 31
0.0
  0
LINE
  5
680
100
AcDbEntity
  8
0
  6
CONTINUOUS
 62
               7
100
AcDbLine
 10
-28.79999998814808
 20
-3.5999999999999943
 30
0.0
 11
-29.999999988148076
 21
-3.5999999999999943
 31
0.0
  0
LINE
  5
681
100
AcDbEntity
  8
0
  6
CONTINUOUS
 62
               7
100
AcDbLine
 10
-29.999999988148076
 20
-9.9083488506775836
 30
0.0
 11
-29.999999988148076
 21
-1.0916511509958298
 31
0.0
  0
LINE
  5
682
100
AcDbEntity
  8
0
  6
CONTINUOUS
 62
               7
100
AcDbLine
 10
-22.699999988148079
 20
-10.500000001673442
 30
0.0
 11
-22.699999988148079
 21
-0.5
 31
0.0
  0
LINE
  5
683
100
AcDbEntity
  8
0
  6
CONTINUOUS
 62
               7
100
AcDbLine
 10
-22.699999988148079
 20
-0.5
 30
0.0
 11
-19.000000000000007
 21
-0.5322894107223704
 31
0.0
  0
LINE
  5
684
100
AcDbEntity
  8
0
  6
CONTINUOUS
 62
               7
100
AcDbLine
 10
-22.699999988148079
 20
-10.500000001673442
 30
0.0
 11
-19.000000000000007
 21
-10.467710590951043
 31
0.0
  0
LINE
  5
685
100
AcDbEntity
  8
0
  6
CENTER
 62
               2
100
AcDbLine
 10
-17.855588207395279
 20
-5.5
 30
0.0
 11
-31.436533219128911
 21
-5.5
 31
0.0
  0
LINE
  5
686
100
AcDbEntity
  8
0
  6
CONTINUOUS
 62
               7
100
AcDbLine
 10
-19.000000000000007
 20
-11.0
 30
0.0
 11
-30.000000000000007
 21
-11.0
 31
0.0
  0
LINE
  5
687
100
AcDbEntity
  8
0
  6
CENTER
 62
             200
100
AcDbLine
 10
26.69999979675713
 20
-13.99999999739255
 30
0.0
 11
26.69999979675713
 21
-20.0
 31
0.0
  0
LINE
  5
688
100
AcDbEntity
  8
0
  6
CONTINUOUS
 62
               4
100
AcDbLine
 10
23.699999796049294
 20
-17.0
 30
0.0
 11
23.699999796049294
 21
-18.0
 31
0.0
  0
LINE
  5
689
100
AcDbEntity
  8
0
  6
CONTINUOUS
 62
               4
100
AcDbLine
 10
29.699999796049294
 20
-17.0
 30
0.0
 11
29.699999796049294
 21
-18.0
 31
0.0
  0
LINE
  5
68A
100
AcDbEntity
  8
0
  6
CONTINUOUS
 62
               4
100
AcDbLine
 10
29.699999796049294
 20
-18.0
 30
0.0
 11
23.699999796049294
 21
-18.0
 31
0.0
  0
LINE
  5
68B
100
AcDbEntity
  8
0
  6
CENTER
 62
             200
100
AcDbLine
 10
-13.350000009606578
 20
-13.99999999739255
 30
0.0
 11
-13.350000009606578
 21
-20.0
 31
0.0
  0
LINE
  5
68C
100
AcDbEntity
  8
0
  6
CONTINUOUS
 62
               4
100
AcDbLine
 10
-16.350000010314414
 20
-17.0
 30
0.0
 11
-16.350000010314414
 21
-18.0
 31
0.0
  0
LINE
  5
68D
100
AcDbEntity
  8
0
  6
CONTINUOUS
 62
               4
100
AcDbLine
 10
-10.350000010314414
 20
-17.0
 30
0.0
 11
-10.350000010314414
 21
-18.0
 31
0.0
  0
LINE
  5
68E
100
AcDbEntity
  8
0
  6
CONTINUOUS
 62
               4
100
AcDbLine
 10
-10.350000010314414
 20
-18.0
 30
0.0
 11
-16.350000010314414
 21
-18.0
 31
0.0
  0
LINE
  5
68F
100
AcDbEntity
  8
0
  6
CONTINUOUS
 62
               7
100
AcDbLine
 10
30.0
 20
-16.799999999999997
 30
0.0
 11
29.799999999999997
 21
-17.0
 31
0.0
  0
LINE
  5
690
100
AcDbEntity
  8
0
  6
CONTINUOUS
 62
               7
100
AcDbLine
 10
-29.799999999999997
 20
-17.0
 30
0.0
 11
-30.0
 21
-16.800000000000011
 31
0.0
  0
LINE
  5
691
100
AcDbEntity
  8
0
  6
CONTINUOUS
 62
               7
100
AcDbLine
 10
30.0
 20
-16.799999999999997
 30
0.0
 11
-30.0
 21
-16.800000000000011
 31
0.0
  0
LINE
  5
692
100
AcDbEntity
  8
0
  6
CONTINUOUS
 62
               7
100
AcDbLine
 10
-29.399999988148089
 20
-3.0
 30
0.0
 11
-29.399999988148082
 21
-1.0000000000000284
 31
0.0
  0
LINE
  5
693
100
AcDbEntity
  8
0
  6
CONTINUOUS
 62
               7
100
AcDbLine
 10
-28.799999988148087
 20
-0.5
 30
0.0
 11
-28.899999988148089
 21
-0.5
 31
0.0
  0
LINE
  5
694
100
AcDbEntity
  8
0
  6
CONTINUOUS
 62
               7
100
AcDbLine
 10
-28.799999988148087
 20
-3.5
 30
0.0
 11
-28.899999988148089
 21
-3.5
 31
0.0
  0
ARC
  5
695
100
AcDbEntity
  8
0
  6
CONTINUOUS
 62
               7
100
AcDbCircle
 10
-28.899999988148089
 20
-3.0
 30
0.0
 40
0.5
100
AcDbArc
 50
179.99999999999963
 51
269.99999999999937
  0
ARC
  5
696
100
AcDbEntity
  8
0
  6
CONTINUOUS
 62
               7
100
AcDbCircle
 10
-28.899999988148089
 20
-1.0
 30
0.0
 40
0.5
100
AcDbArc
 50
89.999999999999815
 51
179.99999999999963
  0
LINE
  5
697
100
AcDbEntity
  8
0
  6
CONTINUOUS
 62
               7
100
AcDbLine
 10
-29.182320272248575
 20
-0.587331540840097
 30
0.0
 11
-29.504363255897275
 21
-0.5916701894637697
 31
0.0
  0
ENDBLK
  5
698
100
AcDbEntity
  8
0
100
AcDbBlockEnd
  0
BLOCK
  5
699
100
AcDbEntity
  8
0
100
AcDbBlockBegin
  2
NCT60-17
 70
               0
 10
0.0
 20
0.0
 30
0.0
  3
NCT60-17
  1

  0
CIRCLE
  5
69A
100
AcDbEntity
  8
0
  6
CONTINUOUS
 62
               2
100
AcDbCircle
 10
-0.0000000000000497
 20
22.500000000000028
 30
0.0
 40
2.0
  0
CIRCLE
  5
69B
100
AcDbEntity
  8
0
  6
CONTINUOUS
 62
               7
100
AcDbCircle
 10
-0.0000000000000497
 20
22.500000000000028
 30
0.0
 40
1.6499999999999999
  0
LINE
  5
69C
100
AcDbEntity
  8
0
  6
DASHED
 62
               2
100
AcDbLine
 10
17.359471478129784
 20
23.087036405740747
 30
0.0
 11
15.945257915756677
 21
21.672822843367669
 31
0.0
  0
LINE
  5
69D
100
AcDbEntity
  8
0
  6
DASHED
 62
               2
100
AcDbLine
 10
15.556349186104072
 20
21.213203435596398
 30
0.0
 11
15.980613254816006
 21
21.637467504308347
 31
0.0
  0
ARC
  5
69E
100
AcDbEntity
  8
0
  6
DASHED
 62
               2
100
AcDbCircle
 10
17.511603344245962
 20
17.484020166272444
 30
0.0
 40
4.3653794686807261
100
AcDbArc
 50
51.834711780667043
 51
73.001229803738639
  0
LINE
  5
69F
100
AcDbEntity
  8
0
  6
DASHED
 62
               2
100
AcDbLine
 10
18.066578259316323
 20
23.087036405740747
 30
0.0
 11
20.22325394193529
 21
20.930360723121794
 31
0.0
  0
LINE
  5
6A0
100
AcDbEntity
  8
0
  6
DASHED
 62
               2
100
AcDbLine
 10
18.787827176126598
 20
21.65868070774394
 30
0.0
 11
17.373613613753506
 21
20.244467145370834
 31
0.0
  0
ARC
  5
6A1
100
AcDbEntity
  8
0
  6
DASHED
 62
               2
100
AcDbCircle
 10
12.194628908040933
 20
19.225717326111578
 30
0.0
 40
7.0277716396203269
100
AcDbArc
 50
20.2546208573625
 51
33.328410201475762
  0
LINE
  5
6A2
100
AcDbEntity
  8
0
  6
DASHED
 62
               2
100
AcDbLine
 10
17.359471478129784
 20
23.087036405740747
 30
0.0
 11
18.066578259316323
 21
23.087036405740747
 31
0.0
  0
LINE
  5
6A3
100
AcDbEntity
  8
0
  6
DASHED
 62
               2
100
AcDbLine
 10
20.22325394193529
 20
20.930360723121794
 30
0.0
 11
19.162593770155468
 21
19.869700551341964
 31
0.0
  0
LINE
  5
6A4
100
AcDbEntity
  8
0
  6
DASHED
 62
               2
100
AcDbLine
 10
17.586856888740428
 20
24.304371310012584
 30
0.0
 11
15.026019100214171
 21
21.743533521486313
 31
0.0
  0
LINE
  5
6A5
100
AcDbEntity
  8
0
  6
CONTINUOUS
 62
               7
100
AcDbLine
 10
-22.699999988148079
 20
-8.0000000000000284
 30
0.0
 11
-22.699999988148079
 21
11.999999999999972
 31
0.0
  0
LINE
  5
6A6
100
AcDbEntity
  8
0
  6
CONTINUOUS
 62
               7
100
AcDbLine
 10
-29.999999988148069
 20
-7.4083488490041702
 30
0.0
 11
-29.999999988148069
 21
11.40834884900417
 31
0.0
  0
LINE
  5
6A7
100
AcDbEntity
  8
0
  6
CONTINUOUS
 62
               7
100
AcDbLine
 10
-28.79999998814808
 20
-4.9000000000000057
 30
0.0
 11
-29.999999988148083
 21
-4.9000000000000057
 31
0.0
  0
LINE
  5
6A8
100
AcDbEntity
  8
0
  6
CONTINUOUS
 62
               7
100
AcDbLine
 10
-28.79999998814808
 20
-8.0000000000000284
 30
0.0
 11
-28.79999998814808
 21
-4.9000000000000057
 31
0.0
  0
LINE
  5
6A9
100
AcDbEntity
  8
0
  6
CENTER
 62
               2
100
AcDbLine
 10
-28.195856974999181
 20
-6.5000000000000284
 30
0.0
 11
-30.43544927920842
 21
-6.5000000000000284
 31
0.0
  0
LINE
  5
6AA
100
AcDbEntity
  8
0
  6
CONTINUOUS
 62
               7
100
AcDbLine
 10
-23.699999988148086
 20
-4.2000000000000171
 30
0.0
 11
-23.699999988148086
 21
-3.0000000000000284
 31
0.0
  0
LINE
  5
6AB
100
AcDbEntity
  8
0
  6
CONTINUOUS
 62
               7
100
AcDbLine
 10
-24.599999988148078
 20
-4.2000000000000171
 30
0.0
 11
-24.59999998814807
 21
-3.0000000000000284
 31
0.0
  0
LINE
  5
6AC
100
AcDbEntity
  8
0
  6
CONTINUOUS
 62
               7
100
AcDbLine
 10
-23.699999988148079
 20
-4.1000000000000512
 30
0.0
 11
-24.54999998814808
 21
-4.1000000000000512
 31
0.0
  0
LINE
  5
6AD
100
AcDbEntity
  8
0
  6
CONTINUOUS
 62
               7
100
AcDbLine
 10
-23.699999988148086
 20
-3.1000000000000512
 30
0.0
 11
-24.54999998814808
 21
-3.1000000000000512
 31
0.0
  0
LINE
  5
6AE
100
AcDbEntity
  8
0
  6
CONTINUOUS
 62
               7
100
AcDbLine
 10
-24.54999998814808
 20
-4.1000000000000512
 30
0.0
 11
-24.54999998814808
 21
-3.1000000000000512
 31
0.0
  0
LINE
  5
6AF
100
AcDbEntity
  8
0
  6
CONTINUOUS
 62
               7
100
AcDbLine
 10
-23.849999988148078
 20
-4.1000000000000512
 30
0.0
 11
-23.849999988148078
 21
-3.1000000000000512
 31
0.0
  0
LINE
  5
6B0
100
AcDbEntity
  8
0
  6
CONTINUOUS
 62
               7
100
AcDbLine
 10
-23.849999988148078
 20
7.0999999999999943
 30
0.0
 11
-23.84999998814807
 21
8.0999999999999943
 31
0.0
  0
LINE
  5
6B1
100
AcDbEntity
  8
0
  6
CONTINUOUS
 62
               7
100
AcDbLine
 10
-24.549999988148066
 20
7.0999999999999943
 30
0.0
 11
-24.54999998814808
 21
8.0999999999999943
 31
0.0
  0
LINE
  5
6B2
100
AcDbEntity
  8
0
  6
CONTINUOUS
 62
               7
100
AcDbLine
 10
-23.699999988148072
 20
8.0999999999999943
 30
0.0
 11
-24.54999998814808
 21
8.0999999999999943
 31
0.0
  0
LINE
  5
6B3
100
AcDbEntity
  8
0
  6
CONTINUOUS
 62
               7
100
AcDbLine
 10
-23.699999988148086
 20
7.0999999999999943
 30
0.0
 11
-24.549999988148066
 21
7.0999999999999943
 31
0.0
  0
LINE
  5
6B4
100
AcDbEntity
  8
0
  6
CONTINUOUS
 62
               7
100
AcDbLine
 10
-24.59999998814807
 20
6.9999999999999716
 30
0.0
 11
-24.599999988148078
 21
8.1999999999999602
 31
0.0
  0
LINE
  5
6B5
100
AcDbEntity
  8
0
  6
CONTINUOUS
 62
               7
100
AcDbLine
 10
-23.699999988148086
 20
6.9999999999999716
 30
0.0
 11
-23.699999988148072
 21
8.1999999999999602
 31
0.0
  0
LINE
  5
6B6
100
AcDbEntity
  8
0
  6
CENTER
 62
               2
100
AcDbLine
 10
-42.899999988148082
 20
8.2999999999999829
 30
0.0
 11
-28.79999998814808
 21
8.2999999999999829
 31
0.0
  0
LINE
  5
6B7
100
AcDbEntity
  8
0
  6
CONTINUOUS
 62
               7
100
AcDbLine
 10
-30.399999988148075
 20
11.299999999999983
 30
0.0
 11
-30.399999988148075
 21
5.2999999999999829
 31
0.0
  0
LINE
  5
6B8
100
AcDbEntity
  8
0
  6
CONTINUOUS
 62
               7
100
AcDbLine
 10
-30.399999988148075
 20
5.2999999999999829
 30
0.0
 11
-29.999999988148069
 21
5.2999999999999829
 31
0.0
  0
LINE
  5
6B9
100
AcDbEntity
  8
0
  6
CONTINUOUS
 62
               7
100
AcDbLine
 10
-30.399999988148075
 20
11.299999999999983
 30
0.0
 11
-29.999999988148083
 21
11.299999999999983
 31
0.0
  0
LINE
  5
6BA
100
AcDbEntity
  8
0
  6
CONTINUOUS
 62
               7
100
AcDbLine
 10
-37.399999988148089
 20
10.299999999999983
 30
0.0
 11
-37.399999988148082
 21
6.2999999999999829
 31
0.0
  0
LINE
  5
6BB
100
AcDbEntity
  8
0
  6
CONTINUOUS
 62
               7
100
AcDbLine
 10
-37.399999988148082
 20
6.2999999999999829
 30
0.0
 11
-35.399999988148082
 21
6.0142857142857054
 31
0.0
  0
LINE
  5
6BC
100
AcDbEntity
  8
0
  6
CONTINUOUS
 62
               7
100
AcDbLine
 10
-37.399999988148089
 20
10.299999999999983
 30
0.0
 11
-35.399999988148082
 21
10.585714285714261
 31
0.0
  0
LINE
  5
6BD
100
AcDbEntity
  8
0
  6
CONTINUOUS
 62
               7
100
AcDbLine
 10
-35.399999988148082
 20
10.585714285714261
 30
0.0
 11
-35.399999988148082
 21
6.0142857142857054
 31
0.0
  0
LINE
  5
6BE
100
AcDbEntity
  8
0
  6
CONTINUOUS
 62
               7
100
AcDbLine
 10
-34.399999988148082
 20
10.728571428571428
 30
0.0
 11
-34.399999988148082
 21
5.8714285714285381
 31
0.0
  0
LINE
  5
6BF
100
AcDbEntity
  8
0
  6
CONTINUOUS
 62
               7
100
AcDbLine
 10
-32.899999988148082
 20
10.942857142857065
 30
0.0
 11
-32.899999988148082
 21
5.6571428571428157
 31
0.0
  0
LINE
  5
6C0
100
AcDbEntity
  8
0
  6
CONTINUOUS
 62
               7
100
AcDbLine
 10
-31.899999988148075
 20
11.085714285714261
 30
0.0
 11
-31.899999988148082
 21
5.5142857142857054
 31
0.0
  0
LINE
  5
6C1
100
AcDbEntity
  8
0
  6
CONTINUOUS
 62
               7
100
AcDbLine
 10
-34.399999988148082
 20
5.8714285714285381
 30
0.0
 11
-32.899999988148082
 21
5.6571428571428157
 31
0.0
  0
LINE
  5
6C2
100
AcDbEntity
  8
0
  6
CONTINUOUS
 62
               7
100
AcDbLine
 10
-31.899999988148082
 20
5.5142857142857054
 30
0.0
 11
-30.399999988148075
 21
5.2999999999999829
 31
0.0
  0
LINE
  5
6C3
100
AcDbEntity
  8
0
  6
CONTINUOUS
 62
               7
100
AcDbLine
 10
-34.399999988148082
 20
10.728571428571428
 30
0.0
 11
-32.899999988148082
 21
10.942857142857065
 31
0.0
  0
LINE
  5
6C4
100
AcDbEntity
  8
0
  6
CONTINUOUS
 62
               7
100
AcDbLine
 10
-31.899999988148075
 20
11.085714285714261
 30
0.0
 11
-30.399999988148075
 21
11.299999999999983
 31
0.0
  0
LINE
  5
6C5
100
AcDbEntity
  8
0
  6
CONTINUOUS
 62
               7
100
AcDbLine
 10
-35.399999988148082
 20
6.5499999999999829
 30
0.0
 11
-34.399999988148082
 21
6.5499999999999829
 31
0.0
  0
LINE
  5
6C6
100
AcDbEntity
  8
0
  6
CONTINUOUS
 62
               7
100
AcDbLine
 10
-35.399999988148082
 20
10.049999999999983
 30
0.0
 11
-34.399999988148089
 21
10.049999999999983
 31
0.0
  0
LINE
  5
6C7
100
AcDbEntity
  8
0
  6
CONTINUOUS
 62
               7
100
AcDbLine
 10
-32.899999988148082
 20
6.5499999999999829
 30
0.0
 11
-31.899999988148075
 21
6.5499999999999829
 31
0.0
  0
LINE
  5
6C8
100
AcDbEntity
  8
0
  6
CONTINUOUS
 62
               7
100
AcDbLine
 10
-32.899999988148082
 20
10.049999999999983
 30
0.0
 11
-31.899999988148089
 21
10.049999999999983
 31
0.0
  0
LINE
  5
6C9
100
AcDbEntity
  8
0
  6
CONTINUOUS
 62
               7
100
AcDbLine
 10
-42.899999988148075
 20
9.5999999999999943
 30
0.0
 11
-42.899999988148068
 21
6.9999999999999432
 31
0.0
  0
LINE
  5
6CA
100
AcDbEntity
  8
0
  6
CENTER
 62
               2
100
AcDbLine
 10
-42.001543729589997
 20
8.7499999999999716
 30
0.0
 11
-49.522492207121033
 21
8.7499999999999432
 31
0.0
  0
LINE
  5
6CB
100
AcDbEntity
  8
0
  6
CENTER
 62
               2
100
AcDbLine
 10
-42.001543729589997
 20
7.8499999999999659
 30
0.0
 11
-49.52249220712104
 21
7.8499999999999943
 31
0.0
  0
LINE
  5
6CC
100
AcDbEntity
  8
0
  6
CONTINUOUS
 62
               7
100
AcDbLine
 10
-48.899999988148068
 20
8.9999999999999716
 30
0.0
 11
-48.899999988148075
 21
8.4999999999999432
 31
0.0
  0
LINE
  5
6CD
100
AcDbEntity
  8
0
  6
CONTINUOUS
 62
               7
100
AcDbLine
 10
-48.899999988148068
 20
8.0999999999999659
 30
0.0
 11
-48.899999988148068
 21
7.5999999999999659
 31
0.0
  0
LINE
  5
6CE
100
AcDbEntity
  8
0
  6
CONTINUOUS
 62
               7
100
AcDbLine
 10
-46.899999988148082
 20
9.1999999999999602
 30
0.0
 11
-46.899999988148075
 21
7.3999999999999488
 31
0.0
  0
LINE
  5
6CF
100
AcDbEntity
  8
0
  6
CONTINUOUS
 62
               7
100
AcDbLine
 10
-42.899999988148075
 20
7.3999999999999488
 30
0.0
 11
-44.899999988148068
 21
7.3999999999999488
 31
0.0
  0
LINE
  5
6D0
100
AcDbEntity
  8
0
  6
CONTINUOUS
 62
               7
100
AcDbLine
 10
-42.899999988148082
 20
8.2999999999999829
 30
0.0
 11
-44.379999988148079
 21
8.2999999999999829
 31
0.0
  0
LINE
  5
6D1
100
AcDbEntity
  8
0
  6
CONTINUOUS
 62
               7
100
AcDbLine
 10
-45.361880168009989
 20
8.2999999999999829
 30
0.0
 11
-46.899999988148075
 21
8.2999999999999829
 31
0.0
  0
LINE
  5
6D2
100
AcDbEntity
  8
0
  6
CONTINUOUS
 62
               7
100
AcDbLine
 10
-45.881495409895166
 20
7.3999999999999488
 30
0.0
 11
-46.899999988148075
 21
7.3999999999999488
 31
0.0
  0
LINE
  5
6D3
100
AcDbEntity
  8
0
  6
CONTINUOUS
 62
               7
100
AcDbLine
 10
-42.899999988148075
 20
9.1999999999999318
 30
0.0
 11
-43.859999988148076
 21
9.1999999999999602
 31
0.0
  0
LINE
  5
6D4
100
AcDbEntity
  8
0
  6
CONTINUOUS
 62
               7
100
AcDbLine
 10
-44.842264926124805
 20
9.1999999999999602
 30
0.0
 11
-46.899999988148082
 21
9.1999999999999602
 31
0.0
  0
LINE
  5
6D5
100
AcDbEntity
  8
0
  6
CONTINUOUS
 62
               7
100
AcDbLine
 10
-46.899999988148082
 20
8.9999999999999716
 30
0.0
 11
-48.899999988148068
 21
8.9999999999999716
 31
0.0
  0
LINE
  5
6D6
100
AcDbEntity
  8
0
  6
CONTINUOUS
 62
               7
100
AcDbLine
 10
-46.899999988148075
 20
8.4999999999999716
 30
0.0
 11
-48.899999988148075
 21
8.4999999999999432
 31
0.0
  0
LINE
  5
6D7
100
AcDbEntity
  8
0
  6
CONTINUOUS
 62
               7
100
AcDbLine
 10
-46.899999988148075
 20
8.0999999999999943
 30
0.0
 11
-48.899999988148068
 21
8.0999999999999659
 31
0.0
  0
LINE
  5
6D8
100
AcDbEntity
  8
0
  6
CONTINUOUS
 62
               7
100
AcDbLine
 10
-46.899999988148068
 20
7.5999999999999659
 30
0.0
 11
-48.899999988148068
 21
7.5999999999999659
 31
0.0
  0
LINE
  5
6D9
100
AcDbEntity
  8
0
  6
CONTINUOUS
 62
               7
100
AcDbLine
 10
-37.399999988148082
 20
9.5999999999999943
 30
0.0
 11
-38.937564439240369
 21
9.5999999999999943
 31
0.0
  0
LINE
  5
6DA
100
AcDbEntity
  8
0
  6
CONTINUOUS
 62
               7
100
AcDbLine
 10
-37.399999988148082
 20
6.9999999999999716
 30
0.0
 11
-40.438675139133395
 21
6.9999999999999716
 31
0.0
  0
LINE
  5
6DB
100
AcDbEntity
  8
0
  6
CONTINUOUS
 62
               7
100
AcDbLine
 10
-39.86132483846275
 20
9.5999999999999943
 30
0.0
 11
-42.899999988148075
 21
9.5999999999999943
 31
0.0
  0
LINE
  5
6DC
100
AcDbEntity
  8
0
  6
CONTINUOUS
 62
               7
100
AcDbLine
 10
-41.362435538355776
 20
6.9999999999999716
 30
0.0
 11
-42.899999988148068
 21
6.9999999999999432
 31
0.0
  0
LINE
  5
6DD
100
AcDbEntity
  8
0
  6
PHANTOM
 62
               2
100
AcDbLine
 10
-44.495854765176773
 20
9.7999999994651716
 30
0.0
 11
-46.227905571460738
 21
6.7999999994652001
 31
0.0
  0
LINE
  5
6DE
100
AcDbEntity
  8
0
  6
PHANTOM
 62
               2
100
AcDbLine
 10
-43.572094380855575
 20
9.7999999994652001
 30
0.0
 11
-45.304145202040679
 21
6.7999999696628777
 31
0.0
  0
LINE
  5
6DF
100
AcDbEntity
  8
0
  6
PHANTOM
 62
               2
100
AcDbLine
 10
-39.514914676547065
 20
10.200000005425665
 30
0.0
 11
-41.708845719695091
 21
6.3999999637023848
 31
0.0
  0
LINE
  5
6E0
100
AcDbEntity
  8
0
  6
PHANTOM
 62
               2
100
AcDbLine
 10
-38.591154277324691
 20
10.199999975623342
 30
0.0
 11
-40.78508530557157
 21
6.3999999637024132
 31
0.0
  0
LINE
  5
6E1
100
AcDbEntity
  8
0
  6
CONTINUOUS
 62
               7
100
AcDbLine
 10
-24.599999988148078
 20
8.1999999999999602
 30
0.0
 11
-23.699999988148072
 21
8.1999999999999602
 31
0.0
  0
LINE
  5
6E2
100
AcDbEntity
  8
0
  6
CONTINUOUS
 62
               7
100
AcDbLine
 10
-23.699999988148086
 20
6.9999999999999716
 30
0.0
 11
-24.59999998814807
 21
6.9999999999999716
 31
0.0
  0
LINE
  5
6E3
100
AcDbEntity
  8
0
  6
CONTINUOUS
 62
               7
100
AcDbLine
 10
-23.699999988148086
 20
-3.0000000000000284
 30
0.0
 11
-24.59999998814807
 21
-3.0000000000000284
 31
0.0
  0
LINE
  5
6E4
100
AcDbEntity
  8
0
  6
CONTINUOUS
 62
               7
100
AcDbLine
 10
-24.599999988148078
 20
-4.2000000000000171
 30
0.0
 11
-23.699999988148086
 21
-4.2000000000000171
 31
0.0
  0
LINE
  5
6E5
100
AcDbEntity
  8
0
  6
CONTINUOUS
 62
               7
100
AcDbLine
 10
-22.699999988148079
 20
11.999999999999972
 30
0.0
 11
-29.50436325589726
 21
11.908329810536287
 31
0.0
  0
LINE
  5
6E6
100
AcDbEntity
  8
0
  6
CONTINUOUS
 62
               7
100
AcDbLine
 10
-22.699999988148079
 20
-8.0000000000000284
 30
0.0
 11
-28.79999998814808
 21
-7.9178191795874682
 31
0.0
  0
ARC
  5
6E7
100
AcDbEntity
  8
0
  6
CONTINUOUS
 62
               7
100
AcDbCircle
 10
-29.499999988148083
 20
-7.4083488490041418
 30
0.0
 40
0.5
100
AcDbArc
 50
179.99999999999963
 51
269.49999999999915
  0
ARC
  5
6E8
100
AcDbEntity
  8
0
  6
CONTINUOUS
 62
               7
100
AcDbCircle
 10
-29.499999988148069
 20
11.408348849004199
 30
0.0
 40
0.5
100
AcDbArc
 50
90.499999999999659
 51
179.99999999999963
  0
LINE
  5
6E9
100
AcDbEntity
  8
0
  6
CONTINUOUS
 62
               7
100
AcDbLine
 10
-22.699999988148079
 20
-8.0000000000000284
 30
0.0
 11
-19.000000000000004
 21
-7.9677105892776297
 31
0.0
  0
LINE
  5
6EA
100
AcDbEntity
  8
0
  6
CONTINUOUS
 62
               7
100
AcDbLine
 10
-22.699999988148079
 20
11.999999999999972
 30
0.0
 11
-19.000000000000004
 21
11.96771058927763
 31
0.0
  0
CIRCLE
  5
6EB
100
AcDbEntity
  8
0
  6
CONTINUOUS
 62
               2
100
AcDbCircle
 10
22.499999999999993
 20
0.0000000000000853
 30
0.0
 40
2.0
  0
CIRCLE
  5
6EC
100
AcDbEntity
  8
0
  6
CONTINUOUS
 62
               7
100
AcDbCircle
 10
22.499999999999993
 20
0.0000000000000853
 30
0.0
 40
1.6499999999999999
  0
CIRCLE
  5
6ED
100
AcDbEntity
  8
0
  6
CONTINUOUS
 62
               2
100
AcDbCircle
 10
0.0000000000000568
 20
-22.499999999999943
 30
0.0
 40
2.0
  0
CIRCLE
  5
6EE
100
AcDbEntity
  8
0
  6
CONTINUOUS
 62
               7
100
AcDbCircle
 10
0.0000000000000568
 20
-22.499999999999943
 30
0.0
 40
1.6499999999999999
  0
CIRCLE
  5
6EF
100
AcDbEntity
  8
0
  6
CONTINUOUS
 62
               2
100
AcDbCircle
 10
-0.0000000000000142
 20
-0.0000000000000284
 30
0.0
 40
2.5
  0
CIRCLE
  5
6F0
100
AcDbEntity
  8
0
  6
CONTINUOUS
 62
               7
100
AcDbCircle
 10
-0.0000000000000142
 20
-0.0000000000000284
 30
0.0
 40
2.1000000000000001
  0
LINE
  5
6F1
100
AcDbEntity
  8
0
  6
CENTER
 62
               2
100
AcDbLine
 10
0.0
 20
-0.0000000000000284
 30
0.0
 11
22.583036858937355
 21
-22.58303685893739
 31
0.0
  0
LINE
  5
6F2
100
AcDbEntity
  8
0
  6
CENTER
 62
               2
100
AcDbLine
 10
-31.999999999999979
 20
-0.0000000000000284
 30
0.0
 11
31.705873664691836
 21
-0.0000000000000284
 31
0.0
  0
LINE
  5
6F3
100
AcDbEntity
  8
0
  6
DASHED
 62
               2
100
AcDbLine
 10
16.617009357883923
 20
-20.152543263816654
 30
0.0
 11
14.431046363087368
 21
-17.966580269020113
 31
0.0
  0
LINE
  5
6F4
100
AcDbEntity
  8
0
  6
DASHED
 62
               2
100
AcDbLine
 10
16.899852070358541
 20
-19.869700551342049
 30
0.0
 11
14.534606920990065
 21
-17.504455401973587
 31
0.0
  0
LINE
  5
6F5
100
AcDbEntity
  8
0
  6
DASHED
 62
               2
100
AcDbLine
 10
20.152543263816661
 20
-16.617009357883944
 30
0.0
 11
17.787298114448184
 21
-14.251764208515453
 31
0.0
  0
LINE
  5
6F6
100
AcDbEntity
  8
0
  6
DASHED
 62
               2
100
AcDbLine
 10
19.869700551342042
 20
-16.899852070358548
 30
0.0
 11
17.185731571623485
 21
-14.215883090639977
 31
0.0
  0
LINE
  5
6F7
100
AcDbEntity
  8
0
  6
DASHED
 62
               2
100
AcDbLine
 10
19.869700551342042
 20
-19.162593770155496
 30
0.0
 11
19.162593770155489
 21
-19.869700551342049
 31
0.0
  0
LINE
  5
6F8
100
AcDbEntity
  8
0
  6
DASHED
 62
               2
100
AcDbLine
 10
20.930360723121858
 20
-20.223253941935326
 30
0.0
 11
19.869700551342042
 21
-19.162593770155496
 31
0.0
  0
LINE
  5
6F9
100
AcDbEntity
  8
0
  6
DASHED
 62
               2
100
AcDbLine
 10
23.087036405740825
 20
-17.359471478129819
 30
0.0
 11
23.087036405740839
 21
-18.066578259316373
 31
0.0
  0
ARC
  5
6FA
100
AcDbEntity
  8
0
  6
DASHED
 62
               2
100
AcDbCircle
 10
19.225717326111642
 20
-12.194628908040954
 30
0.0
 40
7.0277716396203269
100
AcDbArc
 50
290.25462085736189
 51
303.32841020147521
  0
LINE
  5
6FB
100
AcDbEntity
  8
0
  6
DASHED
 62
               2
100
AcDbLine
 10
21.658680707744004
 20
-18.787827176126626
 30
0.0
 11
20.244467145370912
 21
-17.373613613753548
 31
0.0
  0
LINE
  5
6FC
100
AcDbEntity
  8
0
  6
DASHED
 62
               2
100
AcDbLine
 10
23.087036405740839
 20
-18.066578259316373
 30
0.0
 11
20.930360723121858
 21
-20.223253941935326
 31
0.0
  0
ARC
  5
6FD
100
AcDbEntity
  8
0
  6
DASHED
 62
               2
100
AcDbCircle
 10
17.484020166272522
 20
-17.511603344245998
 30
0.0
 40
4.3653794686807261
100
AcDbArc
 50
321.83471178066645
 51
343.001229803738
  0
LINE
  5
6FE
100
AcDbEntity
  8
0
  6
DASHED
 62
               2
100
AcDbLine
 10
21.213203435596476
 20
-15.556349186104114
 30
0.0
 11
21.637467504308411
 21
-15.980613254816035
 31
0.0
  0
LINE
  5
6FF
100
AcDbEntity
  8
0
  6
DASHED
 62
               2
100
AcDbLine
 10
23.087036405740825
 20
-17.359471478129819
 30
0.0
 11
21.672822843367733
 21
-15.945257915756713
 31
0.0
  0
LINE
  5
700
100
AcDbEntity
  8
0
  6
DASHED
 62
               2
100
AcDbLine
 10
17.359471478129812
 20
-23.087036405740832
 30
0.0
 11
15.945257915756706
 21
-21.672822843367754
 31
0.0
  0
LINE
  5
701
100
AcDbEntity
  8
0
  6
DASHED
 62
               2
100
AcDbLine
 10
18.066578259316351
 20
-23.087036405740832
 30
0.0
 11
17.359471478129812
 21
-23.087036405740832
 31
0.0
  0
ARC
  5
702
100
AcDbEntity
  8
0
  6
DASHED
 62
               2
100
AcDbCircle
 10
12.193233480324018
 20
-19.225012704195194
 30
0.0
 40
7.0293247160888015
100
AcDbArc
 50
326.67304037350175
 51
339.74392856765854
  0
LINE
  5
703
100
AcDbEntity
  8
0
  6
DASHED
 62
               2
100
AcDbLine
 10
18.787827176126619
 20
-21.658680707744026
 30
0.0
 11
17.373613613753541
 21
-20.244467145370919
 31
0.0
  0
LINE
  5
704
100
AcDbEntity
  8
0
  6
DASHED
 62
               2
100
AcDbLine
 10
20.223253941935319
 20
-20.930360723121879
 30
0.0
 11
18.066578259316351
 21
-23.087036405740832
 31
0.0
  0
LINE
  5
705
100
AcDbEntity
  8
0
  6
DASHED
 62
               2
100
AcDbLine
 10
21.672822843367733
 20
-15.945257915756713
 30
0.0
 11
15.945257915756706
 21
-21.672822843367754
 31
0.0
  0
LINE
  5
706
100
AcDbEntity
  8
0
  6
DASHED
 62
               2
100
AcDbLine
 10
21.743533521486405
 20
-15.026019100214199
 30
0.0
 11
15.026019100214192
 21
-21.743533521486398
 31
0.0
  0
LINE
  5
707
100
AcDbEntity
  8
0
  6
DASHED
 62
               2
100
AcDbLine
 10
15.556349186104093
 20
-21.213203435596483
 30
0.0
 11
15.980613254816028
 21
-21.637467504308404
 31
0.0
  0
LINE
  5
708
100
AcDbEntity
  8
0
  6
DASHED
 62
               2
100
AcDbLine
 10
20.223253941935319
 20
-20.930360723121879
 30
0.0
 11
19.162593770155489
 21
-19.869700551342049
 31
0.0
  0
ARC
  5
709
100
AcDbEntity
  8
0
  6
DASHED
 62
               2
100
AcDbCircle
 10
17.512286289533385
 20
-17.48532751867981
 30
0.0
 40
4.363929581700825
100
AcDbArc
 50
286.99521341413669
 51
308.16884500145608
  0
LINE
  5
70A
100
AcDbEntity
  8
0
  6
DASHED
 62
               2
100
AcDbLine
 10
20.152543263816632
 20
16.61700935788383
 30
0.0
 11
17.966580269020078
 21
14.43104636308729
 31
0.0
  0
LINE
  5
70B
100
AcDbEntity
  8
0
  6
DASHED
 62
               2
100
AcDbLine
 10
19.869700551342014
 20
16.899852070358463
 30
0.0
 11
17.504455401973537
 21
14.534606920989972
 31
0.0
  0
LINE
  5
70C
100
AcDbEntity
  8
0
  6
DASHED
 62
               2
100
AcDbLine
 10
21.213203435596462
 20
15.556349186104001
 30
0.0
 11
21.637467504308383
 21
15.98061325481595
 31
0.0
  0
LINE
  5
70D
100
AcDbEntity
  8
0
  6
DASHED
 62
               2
100
AcDbLine
 10
21.658680707743983
 20
18.787827176126541
 30
0.0
 11
20.244467145370884
 21
17.373613613753463
 31
0.0
  0
ARC
  5
70E
100
AcDbEntity
  8
0
  6
DASHED
 62
               2
100
AcDbCircle
 10
19.225012704195159
 20
12.193233480323926
 30
0.0
 40
7.0293247160888015
100
AcDbArc
 50
56.673040373502339
 51
69.743928567659154
  0
LINE
  5
70F
100
AcDbEntity
  8
0
  6
DASHED
 62
               2
100
AcDbLine
 10
23.087036405740804
 20
18.066578259316259
 30
0.0
 11
23.087036405740811
 21
17.359471478129734
 31
0.0
  0
LINE
  5
710
100
AcDbEntity
  8
0
  6
DASHED
 62
               2
100
AcDbLine
 10
23.087036405740811
 20
17.359471478129734
 30
0.0
 11
21.672822843367719
 21
15.945257915756628
 31
0.0
  0
LINE
  5
711
100
AcDbEntity
  8
0
  6
DASHED
 62
               2
100
AcDbLine
 10
24.304371310012627
 20
17.586856888740385
 30
0.0
 11
21.743533521486363
 21
15.026019100214114
 31
0.0
  0
LINE
  5
712
100
AcDbEntity
  8
0
  6
DASHED
 62
               2
100
AcDbLine
 10
17.586856888740392
 20
-24.304371310012613
 30
0.0
 11
15.026019100214192
 21
-21.743533521486398
 31
0.0
  0
LINE
  5
713
100
AcDbEntity
  8
0
  6
DASHED
 62
               2
100
AcDbLine
 10
24.304371310012606
 20
-17.586856888740414
 30
0.0
 11
21.743533521486405
 21
-15.026019100214199
 31
0.0
  0
LINE
  5
714
100
AcDbEntity
  8
0
  6
CONTINUOUS
 62
               7
100
AcDbLine
 10
-29.399999988148089
 20
-7.5000000000000284
 30
0.0
 11
-29.399999988148089
 21
-5.5000000000000284
 31
0.0
  0
LINE
  5
715
100
AcDbEntity
  8
0
  6
CONTINUOUS
 62
               7
100
AcDbLine
 10
-28.799999988148087
 20
-5.0000000000000284
 30
0.0
 11
-28.899999988148089
 21
-5.0000000000000284
 31
0.0
  0
LINE
  5
716
100
AcDbEntity
  8
0
  6
CONTINUOUS
 62
               7
100
AcDbLine
 10
-28.799999988148087
 20
-8.0000000000000284
 30
0.0
 11
-28.899999988148089
 21
-8.0000000000000284
 31
0.0
  0
ARC
  5
717
100
AcDbEntity
  8
0
  6
CONTINUOUS
 62
               7
100
AcDbCircle
 10
-28.899999988148089
 20
-7.5000000000000284
 30
0.0
 40
0.5
100
AcDbArc
 50
179.99999999999963
 51
269.99999999999937
  0
ARC
  5
718
100
AcDbEntity
  8
0
  6
CONTINUOUS
 62
               7
100
AcDbCircle
 10
-28.899999988148089
 20
-5.5000000000000284
 30
0.0
 40
0.5
100
AcDbArc
 50
89.999999999999815
 51
179.99999999999963
  0
LINE
  5
719
100
AcDbEntity
  8
0
  6
CONTINUOUS
 62
               7
100
AcDbLine
 10
-29.182320272248568
 20
-7.9126684591599599
 30
0.0
 11
-29.504363255897275
 21
-7.9083298105362871
 31
0.0
  0
LINE
  5
71A
100
AcDbEntity
  8
0
  6
DASHED
 62
               2
100
AcDbLine
 10
19.162593770155468
 20
19.869700551341964
 30
0.0
 11
19.869700551342014
 21
19.162593770155411
 31
0.0
  0
LINE
  5
71B
100
AcDbEntity
  8
0
  6
DASHED
 62
               2
100
AcDbLine
 10
20.930360723121836
 20
20.223253941935241
 30
0.0
 11
23.087036405740804
 21
18.066578259316259
 31
0.0
  0
LINE
  5
71C
100
AcDbEntity
  8
0
  6
DASHED
 62
               2
100
AcDbLine
 10
15.945257915756677
 20
21.672822843367669
 30
0.0
 11
21.672822843367719
 21
15.945257915756628
 31
0.0
  0
LINE
  5
71D
100
AcDbEntity
  8
0
  6
DASHED
 62
               2
100
AcDbLine
 10
15.026019100214171
 20
21.743533521486313
 30
0.0
 11
21.743533521486363
 21
15.026019100214114
 31
0.0
  0
LINE
  5
71E
100
AcDbEntity
  8
0
  6
DASHED
 62
               2
100
AcDbLine
 10
20.930360723121836
 20
20.223253941935241
 30
0.0
 11
19.869700551342014
 21
19.162593770155411
 31
0.0
  0
ARC
  5
71F
100
AcDbEntity
  8
0
  6
DASHED
 62
               2
100
AcDbCircle
 10
17.48532751867976
 20
17.512286289533307
 30
0.0
 40
4.363929581700825
100
AcDbArc
 50
16.995213414137279
 51
38.168845001456681
  0
LINE
  5
720
100
AcDbEntity
  8
0
  6
DASHED
 62
               2
100
AcDbLine
 10
16.899852070358513
 20
19.869700551341964
 30
0.0
 11
14.215883090639949
 21
17.185731571623393
 31
0.0
  0
LINE
  5
721
100
AcDbEntity
  8
0
  6
DASHED
 62
               2
100
AcDbLine
 10
16.617009357883894
 20
20.152543263816597
 30
0.0
 11
14.251764208515418
 21
17.787298114448106
 31
0.0
  0
LINE
  5
722
100
AcDbEntity
  8
0
  6
CENTER
 62
               2
100
AcDbLine
 10
0.0
 20
0.0
 30
0.0
 11
22.453549495869225
 21
22.453549495869197
 31
0.0
  0
LINE
  5
723
100
AcDbEntity
  8
0
  6
CENTER
 62
               2
100
AcDbLine
 10
0.0000000000000001
 20
-31.417540645281861
 30
0.0
 11
-0.0000000000000071
 21
31.999999999999972
 31
0.0
  0
CIRCLE
  5
724
100
AcDbEntity
  8
0
  6
CENTER
 62
               2
100
AcDbCircle
 10
0.0
 20
0.0
 30
0.0
 40
22.5
  0
ARC
  5
725
100
AcDbEntity
  8
0
  6
CONTINUOUS
 62
               7
100
AcDbCircle
 10
0.0
 20
0.0
 30
0.0
 40
28.999999999999989
100
AcDbArc
 50
269.99999999999937
 51
130.9327245741558
  0
ARC
  5
726
100
AcDbEntity
  8
0
  6
CONTINUOUS
 62
               7
100
AcDbCircle
 10
0.0
 20
0.0
 30
0.0
 40
29.999999999999989
100
AcDbArc
 50
195.29957414445676
 51
156.55717253809757
  0
LINE
  5
727
100
AcDbEntity
  8
0
  6
CONTINUOUS
 62
               7
100
AcDbLine
 10
-19.000000000000004
 20
-23.216373532487779
 30
0.0
 11
-19.0
 21
23.216373532487779
 31
0.0
  0
ENDBLK
  5
728
100
AcDbEntity
  8
0
100
AcDbBlockEnd
  0
BLOCK
  5
729
100
AcDbEntity
  8
0
100
AcDbBlockBegin
  2
NCT60-18
 70
               0
 10
0.0
 20
0.0
 30
0.0
  3
NCT60-18
  1

  0
LINE
  5
72A
100
AcDbEntity
  8
0
  6
CENTER
 62
               2
100
AcDbLine
 10
0.0000000000000036
 20
-32.000000545712872
 30
0.0
 11
-0.0000000000000036
 21
31.999999454287128
 31
0.0
  0
LINE
  5
72B
100
AcDbEntity
  8
0
  6
CENTER
 62
               2
100
AcDbLine
 10
31.999999995828542
 20
-0.0000005457128722
 30
0.0
 11
-32.000000004171447
 21
-0.0000005457128722
 31
0.0
  0
CIRCLE
  5
72C
100
AcDbEntity
  8
0
  6
CONTINUOUS
 62
               7
100
AcDbCircle
 10
0.0000000000000036
 20
-0.0000005457128722
 30
0.0
 40
30.0
  0
ARC
  5
72D
100
AcDbEntity
  8
0
  6
CONTINUOUS
 62
               7
100
AcDbCircle
 10
0.0000001155269551
 20
-0.0000002187599577
 30
0.0
 40
25.0
100
AcDbArc
 50
125.48382267335117
 51
234.51617802401051
  0
CIRCLE
  5
72E
100
AcDbEntity
  8
0
  6
CONTINUOUS
 62
               7
100
AcDbCircle
 10
0.0000000000000036
 20
-0.000000545712858
 30
0.0
 40
15.672620946911177
  0
CIRCLE
  5
72F
100
AcDbEntity
  8
0
  6
CONTINUOUS
 62
               7
100
AcDbCircle
 10
0.0000000000000036
 20
-0.0000005457128722
 30
0.0
 40
13.0
  0
LINE
  5
730
100
AcDbEntity
  8
0
  6
CENTER
 62
               2
100
AcDbLine
 10
-15.999999866475463
 20
27.712812696386273
 30
0.0
 11
0.0000000915038676
 21
-0.0000001584893496
 31
0.0
  0
LINE
  5
731
100
AcDbEntity
  8
0
  6
CENTER
 62
               2
100
AcDbLine
 10
-15.999999919159027
 20
-27.712813171415668
 30
0.0
 11
0.0000000704304419
 21
-0.0000002638564709
 31
0.0
  0
CIRCLE
  5
732
100
AcDbEntity
  8
0
  6
CENTER
 62
               2
100
AcDbCircle
 10
0.0000000256308716
 20
-0.0000004861082274
 30
0.0
 40
26.699999999999999
  0
ARC
  5
733
100
AcDbEntity
  8
0
  6
CONTINUOUS
 62
               7
100
AcDbCircle
 10
0.0000001155269551
 20
-0.0000002187599577
 30
0.0
 40
25.0
100
AcDbArc
 50
245.88629834955327
 51
354.51617740352231
  0
ARC
  5
734
100
AcDbEntity
  8
0
  6
CONTINUOUS
 62
               7
100
AcDbCircle
 10
0.0000001155269551
 20
-0.0000002187599577
 30
0.0
 40
25.0
100
AcDbArc
 50
5.4838224868671492
 51
114.51617727486497
  0
CIRCLE
  5
735
100
AcDbEntity
  8
0
  6
CONTINUOUS
 62
               4
100
AcDbCircle
 10
26.700000025630867
 20
-0.0000002427830523
 30
0.0
 40
3.0
  0
CIRCLE
  5
736
100
AcDbEntity
  8
0
  6
CONTINUOUS
 62
               4
100
AcDbCircle
 10
-13.349999780732769
 20
23.122877906732292
 30
0.0
 40
3.0
  0
CIRCLE
  5
737
100
AcDbEntity
  8
0
  6
CONTINUOUS
 62
               4
100
AcDbCircle
 10
-13.350000035385531
 20
-23.122878731924907
 30
0.0
 40
3.0
  0
LINE
  5
738
100
AcDbEntity
  8
0
  6
CONTINUOUS
 62
               7
100
AcDbLine
 10
-28.936781305899519
 20
7.9159761883701734
 30
0.0
 11
-29.504363687395571
 21
7.9083295677532774
 31
0.0
  0
LINE
  5
739
100
AcDbEntity
  8
0
  6
CONTINUOUS
 62
               7
100
AcDbLine
 10
-27.523725403548386
 20
-11.93501373841881
 30
0.0
 11
-28.800000419646384
 21
-11.917819422370464
 31
0.0
  0
ARC
  5
73A
100
AcDbEntity
  8
0
  6
CONTINUOUS
 62
               7
100
AcDbCircle
 10
-29.500000419646387
 20
7.4083486062211747
 30
0.0
 40
0.5
100
AcDbArc
 50
90.499999999999659
 51
179.99999999999963
  0
ARC
  5
73B
100
AcDbEntity
  8
0
  6
CONTINUOUS
 62
               7
100
AcDbCircle
 10
-29.500000419646387
 20
-11.408349091787166
 30
0.0
 40
0.5
100
AcDbArc
 50
179.99999999999963
 51
269.49999999999915
  0
LINE
  5
73C
100
AcDbEntity
  8
0
  6
PHANTOM
 62
               2
100
AcDbLine
 10
-38.591154708822991
 20
-6.4000002671596619
 30
0.0
 11
-40.785085737069871
 21
-10.200000279080591
 31
0.0
  0
LINE
  5
73D
100
AcDbEntity
  8
0
  6
PHANTOM
 62
               2
100
AcDbLine
 10
-39.514915108045365
 20
-6.4000002373573395
 30
0.0
 11
-41.708846151193391
 21
-10.200000279080605
 31
0.0
  0
LINE
  5
73E
100
AcDbEntity
  8
0
  6
PHANTOM
 62
               2
100
AcDbLine
 10
-43.572094812353875
 20
-6.8000002433178039
 30
0.0
 11
-45.30414563353898
 21
-9.8000002731201263
 31
0.0
  0
LINE
  5
73F
100
AcDbEntity
  8
0
  6
PHANTOM
 62
               2
100
AcDbLine
 10
-44.495855196675073
 20
-6.8000002433178182
 30
0.0
 11
-46.227906002959038
 21
-9.8000002433178039
 31
0.0
  0
LINE
  5
740
100
AcDbEntity
  8
0
  6
CONTINUOUS
 62
               7
100
AcDbLine
 10
-41.362435969854076
 20
-9.6000002427830324
 30
0.0
 11
-42.900000419646368
 21
-9.6000002427830466
 31
0.0
  0
LINE
  5
741
100
AcDbEntity
  8
0
  6
CONTINUOUS
 62
               7
100
AcDbLine
 10
-39.86132526996105
 20
-7.0000002427830097
 30
0.0
 11
-42.900000419646375
 21
-7.0000002427830097
 31
0.0
  0
LINE
  5
742
100
AcDbEntity
  8
0
  6
CONTINUOUS
 62
               7
100
AcDbLine
 10
-37.400000419646382
 20
-9.6000002427830324
 30
0.0
 11
-40.438675570631695
 21
-9.6000002427830324
 31
0.0
  0
LINE
  5
743
100
AcDbEntity
  8
0
  6
CONTINUOUS
 62
               7
100
AcDbLine
 10
-37.400000419646382
 20
-7.0000002427830097
 30
0.0
 11
-38.937564870738669
 21
-7.0000002427830097
 31
0.0
  0
LINE
  5
744
100
AcDbEntity
  8
0
  6
CONTINUOUS
 62
               7
100
AcDbLine
 10
-46.900000419646368
 20
-9.0000002427830239
 30
0.0
 11
-48.900000419646368
 21
-9.0000002427830239
 31
0.0
  0
LINE
  5
745
100
AcDbEntity
  8
0
  6
CONTINUOUS
 62
               7
100
AcDbLine
 10
-46.900000419646375
 20
-8.5000002427830097
 30
0.0
 11
-48.900000419646368
 21
-8.5000002427830239
 31
0.0
  0
LINE
  5
746
100
AcDbEntity
  8
0
  6
CONTINUOUS
 62
               7
100
AcDbLine
 10
-46.900000419646375
 20
-8.1000002427830324
 30
0.0
 11
-48.900000419646375
 21
-8.1000002427830466
 31
0.0
  0
LINE
  5
747
100
AcDbEntity
  8
0
  6
CONTINUOUS
 62
               7
100
AcDbLine
 10
-46.900000419646382
 20
-7.6000002427830324
 30
0.0
 11
-48.900000419646368
 21
-7.6000002427830324
 31
0.0
  0
LINE
  5
748
100
AcDbEntity
  8
0
  6
CONTINUOUS
 62
               7
100
AcDbLine
 10
-44.842265357623106
 20
-7.4000002427830438
 30
0.0
 11
-46.900000419646382
 21
-7.4000002427830438
 31
0.0
  0
LINE
  5
749
100
AcDbEntity
  8
0
  6
CONTINUOUS
 62
               7
100
AcDbLine
 10
-42.900000419646375
 20
-7.400000242783058
 30
0.0
 11
-43.860000419646376
 21
-7.4000002427830438
 31
0.0
  0
LINE
  5
74A
100
AcDbEntity
  8
0
  6
CONTINUOUS
 62
               7
100
AcDbLine
 10
-45.881495841393466
 20
-9.2000002427830552
 30
0.0
 11
-46.900000419646375
 21
-9.2000002427830552
 31
0.0
  0
LINE
  5
74B
100
AcDbEntity
  8
0
  6
CONTINUOUS
 62
               7
100
AcDbLine
 10
-45.361880599508289
 20
-8.3000002427830211
 30
0.0
 11
-46.900000419646375
 21
-8.3000002427830211
 31
0.0
  0
LINE
  5
74C
100
AcDbEntity
  8
0
  6
CONTINUOUS
 62
               7
100
AcDbLine
 10
-42.900000419646382
 20
-8.3000002427830211
 30
0.0
 11
-44.380000419646379
 21
-8.3000002427830211
 31
0.0
  0
LINE
  5
74D
100
AcDbEntity
  8
0
  6
CONTINUOUS
 62
               7
100
AcDbLine
 10
-42.900000419646375
 20
-9.2000002427830552
 30
0.0
 11
-44.900000419646368
 21
-9.2000002427830552
 31
0.0
  0
LINE
  5
74E
100
AcDbEntity
  8
0
  6
CONTINUOUS
 62
               7
100
AcDbLine
 10
-46.900000419646382
 20
-7.4000002427830438
 30
0.0
 11
-46.900000419646375
 21
-9.2000002427830552
 31
0.0
  0
LINE
  5
74F
100
AcDbEntity
  8
0
  6
CONTINUOUS
 62
               7
100
AcDbLine
 10
-48.900000419646368
 20
-8.5000002427830239
 30
0.0
 11
-48.900000419646368
 21
-9.0000002427830239
 31
0.0
  0
LINE
  5
750
100
AcDbEntity
  8
0
  6
CONTINUOUS
 62
               7
100
AcDbLine
 10
-48.900000419646368
 20
-7.6000002427830324
 30
0.0
 11
-48.900000419646375
 21
-8.1000002427830466
 31
0.0
  0
LINE
  5
751
100
AcDbEntity
  8
0
  6
CENTER
 62
               2
100
AcDbLine
 10
-42.001544161088297
 20
-8.7500002427830239
 30
0.0
 11
-49.52249263861934
 21
-8.7500002427830097
 31
0.0
  0
LINE
  5
752
100
AcDbEntity
  8
0
  6
CENTER
 62
               2
100
AcDbLine
 10
-42.001544161088297
 20
-7.8500002427830324
 30
0.0
 11
-49.522492638619333
 21
-7.8500002427830466
 31
0.0
  0
LINE
  5
753
100
AcDbEntity
  8
0
  6
CONTINUOUS
 62
               7
100
AcDbLine
 10
-42.900000419646375
 20
-7.0000002427830097
 30
0.0
 11
-42.900000419646368
 21
-9.6000002427830466
 31
0.0
  0
LINE
  5
754
100
AcDbEntity
  8
0
  6
CONTINUOUS
 62
               7
100
AcDbLine
 10
-32.900000419646382
 20
-6.5500002427830211
 30
0.0
 11
-31.900000419646393
 21
-6.5500002427830211
 31
0.0
  0
LINE
  5
755
100
AcDbEntity
  8
0
  6
CONTINUOUS
 62
               7
100
AcDbLine
 10
-32.900000419646382
 20
-10.050000242783021
 30
0.0
 11
-31.900000419646393
 21
-10.050000242783021
 31
0.0
  0
LINE
  5
756
100
AcDbEntity
  8
0
  6
CONTINUOUS
 62
               7
100
AcDbLine
 10
-35.400000419646382
 20
-6.5500002427830211
 30
0.0
 11
-34.400000419646389
 21
-6.5500002427830211
 31
0.0
  0
LINE
  5
757
100
AcDbEntity
  8
0
  6
CONTINUOUS
 62
               7
100
AcDbLine
 10
-35.400000419646382
 20
-10.050000242783021
 30
0.0
 11
-34.400000419646382
 21
-10.050000242783021
 31
0.0
  0
LINE
  5
758
100
AcDbEntity
  8
0
  6
CONTINUOUS
 62
               7
100
AcDbLine
 10
-31.900000419646386
 20
-5.5142859570687435
 30
0.0
 11
-30.400000419646393
 21
-5.3000002427830211
 31
0.0
  0
LINE
  5
759
100
AcDbEntity
  8
0
  6
CONTINUOUS
 62
               7
100
AcDbLine
 10
-34.400000419646382
 20
-5.8714288142115763
 30
0.0
 11
-32.900000419646382
 21
-5.6571430999259249
 31
0.0
  0
LINE
  5
75A
100
AcDbEntity
  8
0
  6
CONTINUOUS
 62
               7
100
AcDbLine
 10
-31.900000419646393
 20
-11.085714528497299
 30
0.0
 11
-30.400000419646378
 21
-11.300000242783021
 31
0.0
  0
LINE
  5
75B
100
AcDbEntity
  8
0
  6
CONTINUOUS
 62
               7
100
AcDbLine
 10
-34.400000419646382
 20
-10.728571671354466
 30
0.0
 11
-32.900000419646382
 21
-10.942857385640188
 31
0.0
  0
LINE
  5
75C
100
AcDbEntity
  8
0
  6
CONTINUOUS
 62
               7
100
AcDbLine
 10
-31.900000419646386
 20
-5.5142859570687435
 30
0.0
 11
-31.900000419646393
 21
-11.085714528497299
 31
0.0
  0
LINE
  5
75D
100
AcDbEntity
  8
0
  6
CONTINUOUS
 62
               7
100
AcDbLine
 10
-32.900000419646382
 20
-5.6571430999259249
 30
0.0
 11
-32.900000419646382
 21
-10.942857385640188
 31
0.0
  0
LINE
  5
75E
100
AcDbEntity
  8
0
  6
CONTINUOUS
 62
               7
100
AcDbLine
 10
-34.400000419646382
 20
-5.8714288142115763
 30
0.0
 11
-34.400000419646382
 21
-10.728571671354466
 31
0.0
  0
LINE
  5
75F
100
AcDbEntity
  8
0
  6
CONTINUOUS
 62
               7
100
AcDbLine
 10
-35.400000419646382
 20
-6.0142859570687435
 30
0.0
 11
-35.400000419646382
 21
-10.585714528497299
 31
0.0
  0
LINE
  5
760
100
AcDbEntity
  8
0
  6
CONTINUOUS
 62
               7
100
AcDbLine
 10
-37.400000419646389
 20
-6.3000002427830211
 30
0.0
 11
-35.400000419646382
 21
-6.0142859570687435
 31
0.0
  0
LINE
  5
761
100
AcDbEntity
  8
0
  6
CONTINUOUS
 62
               7
100
AcDbLine
 10
-37.400000419646382
 20
-10.300000242783021
 30
0.0
 11
-35.400000419646382
 21
-10.585714528497299
 31
0.0
  0
LINE
  5
762
100
AcDbEntity
  8
0
  6
CONTINUOUS
 62
               7
100
AcDbLine
 10
-37.400000419646389
 20
-6.3000002427830211
 30
0.0
 11
-37.400000419646382
 21
-10.300000242783021
 31
0.0
  0
LINE
  5
763
100
AcDbEntity
  8
0
  6
CONTINUOUS
 62
               7
100
AcDbLine
 10
-30.400000419646393
 20
-5.3000002427830211
 30
0.0
 11
-30.000000419646387
 21
-5.3000002427830211
 31
0.0
  0
LINE
  5
764
100
AcDbEntity
  8
0
  6
CONTINUOUS
 62
               7
100
AcDbLine
 10
-30.400000419646378
 20
-11.300000242783021
 30
0.0
 11
-30.000000419646387
 21
-11.300000242783021
 31
0.0
  0
LINE
  5
765
100
AcDbEntity
  8
0
  6
CONTINUOUS
 62
               7
100
AcDbLine
 10
-30.400000419646393
 20
-5.3000002427830211
 30
0.0
 11
-30.400000419646378
 21
-11.300000242783021
 31
0.0
  0
LINE
  5
766
100
AcDbEntity
  8
0
  6
CENTER
 62
               2
100
AcDbLine
 10
-42.900000419646382
 20
-8.3000002427830211
 30
0.0
 11
-28.800000419646384
 21
-8.3000002427830211
 31
0.0
  0
LINE
  5
767
100
AcDbEntity
  8
0
  6
CENTER
 62
               2
100
AcDbLine
 10
-28.195857406497485
 20
-10.500000242783038
 30
0.0
 11
-30.435449710706738
 21
-10.500000242783038
 31
0.0
  0
LINE
  5
768
100
AcDbEntity
  8
0
  6
CONTINUOUS
 62
               7
100
AcDbLine
 10
-28.800000419646384
 20
-12.000000242783038
 30
0.0
 11
-28.800000419646398
 21
-8.9000002427830154
 31
0.0
  0
LINE
  5
769
100
AcDbEntity
  8
0
  6
CONTINUOUS
 62
               7
100
AcDbLine
 10
-28.800000419646398
 20
-8.9000002427830154
 30
0.0
 11
-30.000000419646387
 21
-8.9000002427830154
 31
0.0
  0
LINE
  5
76A
100
AcDbEntity
  8
0
  6
CONTINUOUS
 62
               7
100
AcDbLine
 10
-30.000000419646387
 20
-11.40834909178718
 30
0.0
 11
-30.000000419646387
 21
7.4083486062211605
 31
0.0
  0
LINE
  5
76B
100
AcDbEntity
  8
0
  6
CONTINUOUS
 62
               7
100
AcDbLine
 10
-29.4000004196464
 20
-11.500000242783038
 30
0.0
 11
-29.400000419646393
 21
-9.5000002427830381
 31
0.0
  0
LINE
  5
76C
100
AcDbEntity
  8
0
  6
CONTINUOUS
 62
               7
100
AcDbLine
 10
-28.800000419646398
 20
-12.000000242783038
 30
0.0
 11
-28.9000004196464
 21
-12.000000242783038
 31
0.0
  0
ARC
  5
76D
100
AcDbEntity
  8
0
  6
CONTINUOUS
 62
               7
100
AcDbCircle
 10
-28.9000004196464
 20
-11.500000242783038
 30
0.0
 40
0.5
100
AcDbArc
 50
179.99999999999963
 51
269.99999999999937
  0
ARC
  5
76E
100
AcDbEntity
  8
0
  6
CONTINUOUS
 62
               7
100
AcDbCircle
 10
-28.9000004196464
 20
-9.5000002427830381
 30
0.0
 40
0.5
100
AcDbArc
 50
89.999999999999815
 51
179.99999999999969
  0
LINE
  5
76F
100
AcDbEntity
  8
0
  6
CONTINUOUS
 62
               7
100
AcDbLine
 10
-29.182320703746878
 20
-11.912668701942955
 30
0.0
 11
-29.504363687395585
 21
-11.908330053319297
 31
0.0
  0
LINE
  5
770
100
AcDbEntity
  8
0
  6
CONTINUOUS
 62
               7
100
AcDbLine
 10
-28.900000398764039
 20
-9.0000002427830381
 30
0.0
 11
-28.800000419646398
 21
-9.0000002427830381
 31
0.0
  0
ENDBLK
  5
771
100
AcDbEntity
  8
0
100
AcDbBlockEnd
  0
ENDSEC
  0
SECTION
  2
ENTITIES
  0
INSERT
  5
772
100
AcDbEntity
  8
0
  6
ByBlock
100
AcDbBlockReference
  2
NCT60-1
 10
-266.34993489583331
 20
111.31122724196661
 30
0.0
 50
359.61803379527015
  0
INSERT
  5
773
100
AcDbEntity
  8
0
  6
ByBlock
100
AcDbBlockReference
  2
NCT60-11
 10
-266.34993489583331
 20
180.41519690539383
 30
0.0
 50
359.99999999999915
  0
INSERT
  5
774
100
AcDbEntity
  8
0
  6
ByBlock
100
AcDbBlockReference
  2
NCT60-12
 10
-266.34993489583331
 20
38.574494123549002
 30
0.0
  0
INSERT
  5
775
100
AcDbEntity
  8
0
  6
ByBlock
100
AcDbBlockReference
  2
NCT60-13
 10
-266.34993489583331
 20
-157.93877275803339
 30
0.0
  0
INSERT
  5
776
100
AcDbEntity
  8
0
  6
ByBlock
100
AcDbBlockReference
  2
NCT60-14
 10
-266.34993489583331
 20
-82.555787576559609
 30
0.0
 50
359.99999999999915
  0
INSERT
  5
777
100
AcDbEntity
  8
0
  6
ByBlock
100
AcDbBlockReference
  2
NCT60-15
 10
-266.34993480220851
 20
-226.81680832749868
 30
0.0
 50
0.0000010422347931
  0
INSERT
  5
778
100
AcDbEntity
  8
0
  6
ByBlock
100
AcDbBlockReference
  2
NCT60-16
 10
0.0000000000000284
 20
111.51122724196662
 30
0.0
  0
INSERT
  5
779
100
AcDbEntity
  8
0
  6
ByBlock
100
AcDbBlockReference
  2
NCT60-17
 10
0.0000000000000321
 20
180.41519690539383
 30
0.0
  0
INSERT
  5
77A
100
AcDbEntity
  8
0
  6
ByBlock
100
AcDbBlockReference
  2
NCT60-18
 10
-0.0000002288737129
 20
38.574494123549002
 30
0.0
 50
0.0000010422347931
  0
INSERT
  5
77B
100
AcDbEntity
  8
0
  6
ByBlock
100
AcDbBlockReference
  2
NCT60-2
 10
-0.0000000000000284
 20
-157.73877275803338
 30
0.0
  0
INSERT
  5
77C
100
AcDbEntity
  8
0
  6
ByBlock
100
AcDbBlockReference
  2
NCT60-3
 10
-0.0000000000000284
 20
-82.555787576559624
 30
0.0
  0
INSERT
  5
77D
100
AcDbEntity
  8
0
  6
ByBlock
100
AcDbBlockReference
  2
NCT60-4
 10
-0.0000002288737697
 20
-226.81680887321156
 30
0.0
 50
0.000001042234844
  0
INSERT
  5
77E
100
AcDbEntity
  8
0
  6
ByBlock
100
AcDbBlockReference
  2
NCT60-5
 10
266.34993489583337
 20
111.51122724196662
 30
0.0
  0
INSERT
  5
77F
100
AcDbEntity
  8
0
  6
ByBlock
100
AcDbBlockReference
  2
NCT60-6
 10
266.34993489583337
 20
180.41519690539383
 30
0.0
  0
INSERT
  5
780
100
AcDbEntity
  8
0
  6
ByBlock
100
AcDbBlockReference
  2
NCT60-7
 10
266.34993500386327
 20
38.574494123549002
 30
0.0
 50
0.0000010422345896
  0
INSERT
  5
781
100
AcDbEntity
  8
0
  6
ByBlock
100
AcDbBlockReference
  2
NCT60-8
 10
266.34993489583331
 20
-157.73877275803338
 30
0.0
  0
INSERT
  5
782
100
AcDbEntity
  8
0
  6
ByBlock
100
AcDbBlockReference
  2
NCT60-9
 10
266.34993489583331
 20
-82.555787576559624
 30
0.0
  0
INSERT
  5
783
100
AcDbEntity
  8
0
  6
ByBlock
100
AcDbBlockReference
  2
NCT60-10
 10
266.34993500386321
 20
-223.81680917614136
 30
0.0
 50
0.0000010422345387
  0
LINE
  5
784
100
AcDbEntity
  8
0
  6
CONTINUOUS
 62
               7
100
AcDbLine
 10
399.52490234375
 20
276.5
 30
0.0
 11
399.52490234375
 21
-276.5
 31
0.0
  0
LINE
  5
785
100
AcDbEntity
  8
0
  6
CONTINUOUS
 62
               7
100
AcDbLine
 10
-399.52490234375
 20
276.5
 30
0.0
 11
-399.52490234375
 21
-276.5
 31
0.0
  0
LINE
  5
786
100
AcDbEntity
  8
0
  6
CONTINUOUS
 62
               7
100
AcDbLine
 10
-399.52490234375
 20
276.5
 30
0.0
 11
399.52490234375
 21
276.5
 31
0.0
  0
LINE
  5
787
100
AcDbEntity
  8
0
  6
CONTINUOUS
 62
               7
100
AcDbLine
 10
-399.52490234375
 20
-276.5
 30
0.0
 11
399.52490234375
 21
-276.5
 31
0.0
  0
MTEXT
  5
788
100
AcDbEntity
  8
0
  6
CONTINUOUS
 62
               7
100
AcDbMText
 10
-386.52944812356247
 20
241.5
 30
0.0
 40
6.3000001907348633
 41
0.0
 71
               4
 72
               1
  1
\W1.091;\A1;MODEL:NCT60-B1
  0
LINE
  5
789
100
AcDbEntity
  8
0
  6
CONTINUOUS
 62
               7
100
AcDbLine
 10
279.5250244140625
 20
276.5
 30
0.0
 11
279.5250244140625
 21
256.5
 31
0.0
  0
LINE
  5
78A
100
AcDbEntity
  8
0
  6
CONTINUOUS
 62
               7
100
AcDbLine
 10
279.5250244140625
 20
256.5
 30
0.0
 11
399.52490234375
 21
256.5
 31
0.0
  0
MTEXT
  5
78B
100
AcDbEntity
  8
0
  6
CONTINUOUS
 62
               7
100
AcDbMText
 10
315.7020692896773
 20
266.5
 30
0.0
 40
6.3000001907348633
 41
0.0
 71
               4
 72
               1
  1
\W1.311;\A1;Ver. 1.0
  0
MTEXT
  5
78C
100
AcDbEntity
  8
0
  6
CONTINUOUS
 62
               7
100
AcDbMText
 10
287.70604688092931
 20
-266.5
 30
0.0
 40
9.0
 41
0.0
 71
               4
 72
               1
  1
\W1.121;\A1;KOGANEI CORP.
  0
LINE
  5
78D
100
AcDbEntity
  8
0
  6
CONTINUOUS
 62
               7
100
AcDbLine
 10
279.5250244140625
 20
-256.5
 30
0.0
 11
279.5250244140625
 21
-276.5
 31
0.0
  0
LINE
  5
78E
100
AcDbEntity
  8
0
  6
CONTINUOUS
 62
               7
100
AcDbLine
 10
279.5250244140625
 20
-256.5
 30
0.0
 11
399.52490234375
 21
-256.5
 31
0.0
  0
LINE
  5
78F
100
AcDbEntity
  8
0
  6
CONTINUOUS
 62
               7
100
AcDbLine
 10
399.52490234375
 20
0.25
 30
0.0
 11
-399.52490234375
 21
0.25
 31
0.0
  0
LINE
  5
790
100
AcDbEntity
  8
0
  6
CONTINUOUS
 62
               7
100
AcDbLine
 10
133.17496744791669
 20
-276.5
 30
0.0
 11
133.17496744791669
 21
276.5
 31
0.0
  0
LINE
  5
791
100
AcDbEntity
  8
0
  6
CONTINUOUS
 62
               7
100
AcDbLine
 10
-133.17496744791663
 20
-276.5
 30
0.0
 11
-133.17496744791663
 21
276.5
 31
0.0
  0
MTEXT
  5
792
100
AcDbEntity
  8
0
  6
CONTINUOUS
 62
               7
100
AcDbMText
 10
-120.15589727792199
 20
241.5
 30
0.0
 40
6.3000001907348633
 41
0.0
 71
               4
 72
               1
  1
\W1.113;\A1;MODEL:NCT60-B1-S11
  0
MTEXT
  5
793
100
AcDbEntity
  8
0
  6
CONTINUOUS
 62
               7
100
AcDbMText
 10
146.17042166573972
 20
241.5
 30
0.0
 40
6.3000001907348633
 41
0.0
 71
               4
 72
               1
  1
\W1.091;\A1;MODEL:NCT60-B1-S12
  0
MTEXT
  5
794
100
AcDbEntity
  8
0
  6
CONTINUOUS
 62
               7
100
AcDbMText
 10
-386.52944812592705
 20
-14.75
 30
0.0
 40
6.3000001907348633
 41
0.0
 71
               4
 72
               1
  1
\W1.091;\A1;MODEL:NCT60-B1-S21
  0
MTEXT
  5
795
100
AcDbEntity
  8
0
  6
CONTINUOUS
 62
               7
100
AcDbMText
 10
-120.17951323009365
 20
-14.75
 30
0.0
 40
6.3000001907348633
 41
0.0
 71
               4
 72
               1
  1
\W1.091;\A1;MODEL:NCT60-B1-S13
  0
MTEXT
  5
796
100
AcDbEntity
  8
0
  6
CONTINUOUS
 62
               7
100
AcDbMText
 10
146.17042166573967
 20
-14.75
 30
0.0
 40
6.3000001907348633
 41
0.0
 71
               4
 72
               1
  1
\W1.091;\A1;MODEL:NCT60-B1-S14
  0
MTEXT
  5
797
100
AcDbEntity
  8
0
  6
CONTINUOUS
 62
               7
100
AcDbMText
 10
183.92062037182686
 20
-24.75
 30
0.0
 40
6.3000001907348633
 41
0.0
 71
               4
 72
               1
  1
\W1.043;\A1;NCT60-B2-S14
  0
MTEXT
  5
798
100
AcDbEntity
  8
0
  6
CONTINUOUS
 62
               7
100
AcDbMText
 10
-82.429314524006458
 20
-24.75
 30
0.0
 40
6.3000001907348633
 41
0.0
 71
               4
 72
               1
  1
\W1.043;\A1;NCT60-B2-S13
  0
MTEXT
  5
799
100
AcDbEntity
  8
0
  6
CONTINUOUS
 62
               7
100
AcDbMText
 10
-348.77924941983986
 20
-24.75
 30
0.0
 40
6.3000001907348633
 41
0.0
 71
               4
 72
               1
  1
\W1.043;\A1;NCT60-B2-S21
  0
MTEXT
  5
79A
100
AcDbEntity
  8
0
  6
CONTINUOUS
 62
               7
100
AcDbMText
 10
183.92062037182691
 20
231.5
 30
0.0
 40
6.3000001907348633
 41
0.0
 71
               4
 72
               1
  1
\W1.043;\A1;NCT60-B2-S12
  0
MTEXT
  5
79B
100
AcDbEntity
  8
0
  6
CONTINUOUS
 62
               7
100
AcDbMText
 10
-82.396608474889959
 20
231.5
 30
0.0
 40
6.3000001907348633
 41
0.0
 71
               4
 72
               1
  1
\W1.075;\A1;NCT60-B2-S11
  0
MTEXT
  5
79C
100
AcDbEntity
  8
0
  6
CONTINUOUS
 62
               7
100
AcDbMText
 10
-348.802561153255
 20
231.5
 30
0.0
 40
6.3000001907348633
 41
0.0
 71
               4
 72
               1
  1
\W1.021;\A1;NCT60-B2
  0
MTEXT
  5
79D
100
AcDbEntity
  8
0
  6
CONTINUOUS
 62
               7
100
AcDbMText
 10
-395.29615216613189
 20
266.5
 30
0.0
 40
6.3000001907348633
 41
0.0
 71
               4
 72
               1
  1
\W1.027;\A1;NON-CONTACT TRANSFER COMPONENT
  0
LINE
  5
79E
100
AcDbEntity
  8
0
  6
CONTINUOUS
 62
               7
100
AcDbLine
 10
-399.52490234375
 20
256.5
 30
0.0
 11
-204.22490234374999
 21
256.5
 31
0.0
  0
LINE
  5
79F
100
AcDbEntity
  8
0
  6
CONTINUOUS
 62
               7
100
AcDbLine
 10
-204.22490234374999
 20
276.5
 30
0.0
 11
-204.22490234374999
 21
256.5
 31
0.0
  0
ENDSEC
  0
SECTION
  2
OBJECTS
  0
DICTIONARY
  5
19
100
AcDbDictionary
  3
ACAD_GROUP
350
1A
  3
ACAD_MLINESTYLE
350
1B
  0
DICTIONARY
  5
1A
102
{ACAD_REACTORS
330
19
102
}
100
AcDbDictionary
  0
DICTIONARY
  5
1B
102
{ACAD_REACTORS
330
19
102
}
100
AcDbDictionary
  3
STANDARD
350
1C
  0
MLINESTYLE
  5
1C
102
{ACAD_REACTORS
330
1B
102
}
100
AcDbMlineStyle
  2
Standard
 70
               0
  3

 62
               0
 51
90.0
 52
90.0
 71
               2
 49
0.5
 62
             256
  6
ByLayer
 49
-0.5
 62
             256
  6
ByLayer
  0
ENDSEC
  0
EOF
