  0
SECTION
  2
HEADER
  0
ENDSEC
  0
SECTION
  2
TABLES
  0
TABLE
  2
LTYPE
 70
     4
  0
LTYPE
  2
CONTINUOUS
 70
    64
  3
Solid line
 72
    65
 73
     0
 40
0.000000
  0
LTYPE
  2
DASHED
 70
    64
  3
__ __ __ __ __ __ __ __ __ __ __ __ __ __ __
 72
    65
 73
     2
 40
3.500000
 49
2.000000
 49
-1.500000
  0
LTYPE
  2
CENTER
 70
    64
  3
____ _ ____ _ ____ _ ____ _ ____ _ ____ _ ____
 72
    65
 73
     4
 40
17.500000
 49
13.000000
 49
-1.500000
 49
1.500000
 49
-1.500000
  0
LTYPE
  2
PHANTOM
 70
    64
  3
_____ _ _ _____ _ _ _____ _ _ _____ _ _ ____  
 72
    65
 73
     6
 40
15.500000
 49
8.000000
 49
-1.500000
 49
1.500000
 49
-1.500000
 49
1.500000
 49
-1.500000
  0
LTYPE
  2
DASHED1
 70
    64
  3
__ __ __ __ __ __ __ __ __ __ __ __ __ __ __
 72
    65
 73
     2
 40
1.500000
 49
1.000000
 49
-0.500000
  0
LTYPE
  2
DASHED2
 70
    64
  3
__ __ __ __ __ __ __ __ __ __ __ __ __ __ __
 72
    65
 73
     2
 40
3.500000
 49
2.500000
 49
-1.000000
  0
LTYPE
  2
DASHED3
 70
    64
  3
__ __ __ __ __ __ __ __ __ __ __ __ __ __ __
 72
    65
 73
     2
 40
6.000000
 49
4.000000
 49
-2.000000
  0
LTYPE
  2
DASHED4
 70
    64
  3
__ __ __ __ __ __ __ __ __ __ __ __ __ __ __
 72
    65
 73
     2
 40
12.000000
 49
10.000000
 49
-2.000000
  0
LTYPE
  2
DASHED5
 70
    64
  3
__ __ __ __ __ __ __ __ __ __ __ __ __ __ __
 72
    65
 73
     2
 40
17.000000
 49
15.000000
 49
-2.000000
  0
LTYPE
  2
DASHED6
 70
    64
  3
__ __ __ __ __ __ __ __ __ __ __ __ __ __ __
 72
    65
 73
     2
 40
29.000000
 49
27.000000
 49
-2.000000
  0
LTYPE
  2
PHANTOM1
 70
    64
  3
_____ _ _ _____ _ _ _____ _ _ _____ _ _ ____  
 72
    65
 73
     6
 40
31.000000
 49
25.000000
 49
-1.500000
 49
1.000000
 49
-1.000000
 49
1.000000
 49
-1.500000
  0
LTYPE
  2
PHANTOM2
 70
    64
  3
_____ _ _ _____ _ _ _____ _ _ _____ _ _ ____  
 72
    65
 73
     6
 40
36.000000
 49
27.000000
 49
-1.500000
 49
2.500000
 49
-1.000000
 49
2.500000
 49
-1.500000
  0
LTYPE
  2
PHANTOM3
 70
    64
  3
_____ _ _ _____ _ _ _____ _ _ _____ _ _ ____  
 72
    65
 73
     6
 40
78.000000
 49
64.000000
 49
-2.000000
 49
4.000000
 49
-2.000000
 49
4.000000
 49
-2.000000
  0
LTYPE
  2
CENTER1
 70
    64
  3
____ _ ____ _ ____ _ ____ _ ____ _ ____ _ ____
 72
    65
 73
     4
 40
19.000000
 49
14.000000
 49
-1.000000
 49
3.000000
 49
-1.000000
  0
LTYPE
  2
CENTER2
 70
    64
  3
____ _ ____ _ ____ _ ____ _ ____ _ ____ _ ____
 72
    65
 73
     4
 40
28.500000
 49
25.000000
 49
-1.000000
 49
1.500000
 49
-1.000000
  0
LTYPE
  2
CENTER3
 70
    64
  3
____ _ ____ _ ____ _ ____ _ ____ _ ____ _ ____
 72
    65
 73
     4
 40
31.500000
 49
27.000000
 49
-1.000000
 49
2.500000
 49
-1.000000
  0
LTYPE
  2
CENTER4
 70
    64
  3
____ _ ____ _ ____ _ ____ _ ____ _ ____ _ ____
 72
    65
 73
     4
 40
50.000000
 49
45.000000
 49
-1.000000
 49
3.000000
 49
-1.000000
  0
LTYPE
  2
CENTER5
 70
    64
  3
____ _ ____ _ ____ _ ____ _ ____ _ ____ _ ____
 72
    65
 73
     4
 40
100.000000
 49
92.000000
 49
-2.000000
 49
4.000000
 49
-2.000000
  0
LTYPE
  2
SBK1
 70
    64
  3
______ _ _ _ ______ _ _ _ ______ _ _ _ _____  
 72
    65
 73
     8
 40
60.500000
 49
45.000000
 49
-2.000000
 49
2.500000
 49
-2.000000
 49
2.500000
 49
-2.000000
 49
2.500000
 49
-2.000000
  0
LTYPE
  2
SBK2
 70
    64
  3
______ _ _ _ ______ _ _ _ ______ _ _ _ _____  
 72
    65
 73
     8
 40
84.000000
 49
64.000000
 49
-2.000000
 49
4.000000
 49
-2.000000
 49
4.000000
 49
-2.000000
 49
4.000000
 49
-2.000000
  0
LTYPE
  2
STCH
 70
    64
  3
__ __ __ __ __ __ __ __ __ __ __ __ __ __ __
 72
    65
 73
     2
 40
3.000000
 49
1.000000
 49
-2.000000
  0
LTYPE
  2
MTCH
 70
    64
  3
_____ _ _ _____ _ _ _____ _ _ _____ _ _ ____  
 72
    65
 73
     6
 40
80.000000
 49
66.000000
 49
-2.000000
 49
4.000000
 49
-2.000000
 49
4.000000
 49
-2.000000
  0
ENDTAB
  0
TABLE
  2
LAYER
 70
     1
  0
LAYER
  2
0
 70
     0
 62
     7
  6
CONTINUOUS
  0
ENDTAB
  0
TABLE
  2
STYLE
 70
     1
  0
STYLE
  2
STANDARD
 70
     0
 40
0.000000
 41
1.000000
 50
0.000000
 71
     0
 42
0.200000
  3
txt
  4
BIGFONT
  0
ENDTAB
  0
TABLE
  2
VIEW
 70
     0
  0
ENDTAB
  0
ENDSEC
  0
SECTION
  2
BLOCKS
  0
ENDSEC
  0
SECTION
  2
ENTITIES
  0
LINE
  8
0
  6
CENTER
 62
     2
 10
-69.568344
 20
-3.698812
 11
-14.155457
 21
-3.698812
  0
LINE
  8
0
 10
-63.085312
 20
7.801188
 11
-19.085312
 21
7.801188
  0
LINE
  8
0
 10
-19.085312
 20
7.801188
 11
-19.085312
 21
-3.698812
  0
LINE
  8
0
 10
-76.085312
 20
7.301188
 11
-76.085312
 21
3.301188
  0
LINE
  8
0
 10
-63.085312
 20
7.801188
 11
-63.085312
 21
-3.698812
  0
LINE
  8
0
 10
-76.085312
 20
7.301188
 11
-63.085312
 21
7.301188
  0
LINE
  8
0
 10
-76.085312
 20
3.301188
 11
-63.585312
 21
3.301188
  0
LINE
  8
0
 10
-63.585312
 20
3.301188
 11
-63.585312
 21
-1.698812
  0
LINE
  8
0
 10
-63.585312
 20
-1.698812
 11
-63.085312
 21
-1.698812
  0
LINE
  8
0
  6
CENTER
 62
     2
 10
-47.710316
 20
4.301188
 11
-51.460316
 21
4.301188
  0
LINE
  8
0
  6
CENTER
 62
     2
 10
-49.585316
 20
6.176188
 11
-49.585316
 21
2.426188
  0
LINE
  8
0
 10
-63.085312
 20
-15.198814
 11
-19.085312
 21
-15.198814
  0
LINE
  8
0
 10
-19.085312
 20
-15.198814
 11
-19.085312
 21
-3.698812
  0
LINE
  8
0
 10
-76.085312
 20
-14.698814
 11
-76.085312
 21
-10.698814
  0
LINE
  8
0
 10
-63.085312
 20
-15.198814
 11
-63.085312
 21
-3.698812
  0
LINE
  8
0
 10
-76.085312
 20
-14.698814
 11
-63.085312
 21
-14.698814
  0
LINE
  8
0
 10
-76.085312
 20
-10.698814
 11
-63.585312
 21
-10.698814
  0
LINE
  8
0
 10
-63.585312
 20
-10.698814
 11
-63.585312
 21
-5.698812
  0
LINE
  8
0
 10
-63.585312
 20
-5.698812
 11
-63.085312
 21
-5.698812
  0
LINE
  8
0
 62
     4
 10
-19.085312
 20
-10.348825
 11
-16.585312
 21
-10.348825
  0
LINE
  8
0
 62
     4
 10
-19.085312
 20
-14.948823
 11
-16.585312
 21
-14.948823
  0
LINE
  8
0
 62
     4
 10
-16.585312
 20
-10.348825
 11
-16.585312
 21
-14.948823
  0
LINE
  8
0
 62
     4
 10
-19.085312
 20
-13.948800
 11
-16.585312
 21
-13.948800
  0
LINE
  8
0
 62
     4
 10
-19.085312
 20
-14.498818
 11
-16.585312
 21
-14.498818
  0
LINE
  8
0
 62
     4
 10
-16.585312
 20
-11.348809
 11
-9.835869
 21
-11.348809
  0
LINE
  8
0
 62
     4
 10
-16.585312
 20
-13.948815
 11
-8.334755
 21
-13.948815
  0
LINE
  8
0
 62
     1
 10
-10.335329
 20
-10.483716
 11
-7.835329
 21
-14.813843
  0
LINE
  8
0
 62
     4
 10
-19.085312
 20
6.551190
 11
-9.835869
 21
6.551190
  0
LINE
  8
0
 62
     1
 10
-10.335332
 20
7.416287
 11
-7.835332
 21
3.086162
  0
LINE
  8
0
 62
     4
 10
-19.085312
 20
3.951184
 11
-8.334755
 21
3.951184
  0
LINE
  8
0
  6
CENTER
 62
     2
 10
-39.085312
 20
-10.448814
 11
-39.085312
 21
-14.948814
  0
LINE
  8
0
  6
CENTER
 62
     2
 10
-36.835312
 20
-12.698814
 11
-41.335312
 21
-12.698814
  0
LINE
  8
0
  6
CENTER
 62
     2
 10
-39.085312
 20
7.551188
 11
-39.085312
 21
3.051188
  0
LINE
  8
0
  6
CENTER
 62
     2
 10
-36.835312
 20
5.301188
 11
-41.335312
 21
5.301188
  0
LINE
  8
0
  6
CENTER
 62
     2
 10
-49.585316
 20
-9.823814
 11
-49.585316
 21
-13.573814
  0
LINE
  8
0
  6
CENTER
 62
     2
 10
-47.710316
 20
-11.698814
 11
-51.460316
 21
-11.698814
  0
LINE
  8
0
  6
CENTER
 62
     2
 10
-56.085316
 20
-5.523815
 11
-56.085316
 21
-9.273815
  0
LINE
  8
0
  6
CENTER
 62
     2
 10
-54.210316
 20
-7.398815
 11
-57.960316
 21
-7.398815
  0
LINE
  8
0
  6
CENTER
 62
     2
 10
-56.085316
 20
1.876188
 11
-56.085316
 21
-1.873812
  0
LINE
  8
0
  6
CENTER
 62
     2
 10
-54.210316
 20
0.001188
 11
-57.960316
 21
0.001188
  0
LINE
  8
0
  6
CENTER
 62
     2
 10
-67.085312
 20
9.301188
 11
-67.085312
 21
1.301188
  0
LINE
  8
0
  6
CENTER
 62
     2
 10
-73.085312
 20
9.301188
 11
-73.085312
 21
1.301188
  0
LINE
  8
0
  6
CENTER
 62
     2
 10
-67.085312
 20
-16.698812
 11
-67.085312
 21
-8.698812
  0
LINE
  8
0
  6
CENTER
 62
     2
 10
-73.085312
 20
-16.698812
 11
-73.085312
 21
-8.698812
  0
LINE
  8
0
 10
88.914688
 20
-15.198814
 11
88.914688
 21
7.801186
  0
LINE
  8
0
 10
104.914688
 20
-15.198814
 11
104.914688
 21
7.801186
  0
LINE
  8
0
 10
95.314690
 20
-14.698814
 11
95.314690
 21
-14.398819
  0
LINE
  8
0
 10
95.314697
 20
-14.398785
 11
94.814697
 21
-13.898785
  0
LINE
  8
0
 10
94.814690
 20
-13.898819
 11
94.814690
 21
-12.298820
  0
LINE
  8
0
 10
99.014679
 20
-13.898819
 11
99.014679
 21
-12.298813
  0
LINE
  8
0
 10
98.514709
 20
-14.398845
 11
99.014717
 21
-13.898845
  0
LINE
  8
0
 10
98.514679
 20
-14.698814
 11
98.514679
 21
-14.398819
  0
LINE
  8
0
 10
95.314690
 20
7.301186
 11
95.314690
 21
7.001183
  0
LINE
  8
0
 10
95.314720
 20
7.001152
 11
94.814720
 21
6.501151
  0
LINE
  8
0
 10
94.814690
 20
6.501183
 11
94.814690
 21
4.901184
  0
LINE
  8
0
 10
99.014679
 20
6.501183
 11
99.014679
 21
4.901184
  0
LINE
  8
0
 10
98.514717
 20
7.001219
 11
99.014725
 21
6.501216
  0
LINE
  8
0
 10
98.514679
 20
7.301186
 11
98.514679
 21
7.001183
  0
LINE
  8
0
 10
88.914688
 20
-15.198814
 11
94.814690
 21
-15.198814
  0
LINE
  8
0
 10
88.914688
 20
7.801186
 11
94.814690
 21
7.801186
  0
LINE
  8
0
 10
99.014687
 20
-15.198814
 11
104.914688
 21
-15.198814
  0
LINE
  8
0
 10
99.014687
 20
7.801186
 11
104.914688
 21
7.801186
  0
LINE
  8
0
  6
CENTER
 62
     2
 10
91.914688
 20
7.051186
 11
91.914688
 21
2.551186
  0
LINE
  8
0
  6
CENTER
 62
     2
 10
89.664688
 20
4.801186
 11
94.164688
 21
4.801186
  0
LINE
  8
0
 62
     4
 10
98.514671
 20
7.001276
 11
98.414734
 21
7.101211
  0
LINE
  8
0
 62
     4
 10
98.414688
 20
7.551173
 11
98.414688
 21
7.101176
  0
LINE
  8
0
 62
     4
 10
98.414688
 20
7.551173
 11
95.414688
 21
7.551173
  0
LINE
  8
0
 62
     4
 10
98.164688
 20
8.051173
 11
98.164688
 21
7.551173
  0
LINE
  8
0
 62
     4
 10
95.664688
 20
8.051173
 11
95.664688
 21
7.551173
  0
LINE
  8
0
 62
     4
 10
98.164688
 20
8.051173
 11
95.664688
 21
8.051173
  0
LINE
  8
0
 62
     4
 10
95.414688
 20
7.551173
 11
95.414688
 21
7.101176
  0
LINE
  8
0
 62
     4
 10
95.314697
 20
7.001283
 11
95.414627
 21
7.101212
  0
LINE
  8
0
 62
     4
 10
98.514664
 20
-14.398891
 11
98.414734
 21
-14.498823
  0
LINE
  8
0
 62
     4
 10
98.414688
 20
-14.948802
 11
98.414688
 21
-14.498805
  0
LINE
  8
0
 62
     4
 10
98.414688
 20
-14.948802
 11
95.414688
 21
-14.948802
  0
LINE
  8
0
 62
     4
 10
98.164688
 20
-15.448802
 11
98.164688
 21
-14.948802
  0
LINE
  8
0
 62
     4
 10
95.664688
 20
-15.448802
 11
95.664688
 21
-14.948802
  0
LINE
  8
0
 62
     4
 10
98.164688
 20
-15.448802
 11
95.664688
 21
-15.448802
  0
LINE
  8
0
 62
     4
 10
95.414688
 20
-14.948802
 11
95.414688
 21
-14.498805
  0
LINE
  8
0
 62
     4
 10
95.314697
 20
-14.398904
 11
95.414635
 21
-14.498835
  0
LINE
  8
0
  6
CENTER
 62
     2
 10
86.914688
 20
-3.698814
 11
106.914688
 21
-3.698814
  0
LINE
  8
0
  6
CENTER
 62
     2
 10
96.914688
 20
11.301186
 11
96.914688
 21
-18.698814
  0
LINE
  8
0
  6
CENTER
 62
     2
 10
101.914688
 20
-9.948814
 11
101.914688
 21
-14.448814
  0
LINE
  8
0
  6
CENTER
 62
     2
 10
99.664688
 20
-12.198814
 11
104.164688
 21
-12.198814
  0
LINE
  8
0
  6
CENTER
 62
     2
 10
-80.055313
 20
61.301186
 11
-6.085312
 21
61.301186
  0
LINE
  8
0
 10
-63.085312
 20
57.301186
 11
-51.585316
 21
57.301186
  0
LINE
  8
0
  6
CENTER
 62
     2
 10
-38.085312
 20
61.301186
 11
-38.085312
 21
51.301186
  0
LINE
  8
0
  6
CENTER
 62
     2
 10
-43.085312
 20
56.301186
 11
-33.085312
 21
56.301186
  0
LINE
  8
0
  6
CENTER
 62
     2
 10
-26.585312
 20
71.301186
 11
-26.585312
 21
61.301186
  0
LINE
  8
0
  6
CENTER
 62
     2
 10
-31.585312
 20
66.301186
 11
-21.585312
 21
66.301186
  0
LINE
  8
0
 10
-51.585316
 20
57.301186
 11
-51.585316
 21
57.801186
  0
LINE
  8
0
 10
-51.585316
 20
57.801186
 11
-44.085312
 21
57.801186
  0
LINE
  8
0
 10
-51.585316
 20
64.801186
 11
-44.085312
 21
64.801186
  0
LINE
  8
0
 10
-51.585316
 20
64.801186
 11
-51.585316
 21
65.301186
  0
LINE
  8
0
 10
-44.085312
 20
57.801186
 11
-44.085312
 21
64.801186
  0
LINE
  8
0
 10
-44.085312
 20
59.701180
 11
-19.085312
 21
59.701180
  0
LINE
  8
0
 10
-44.085312
 20
62.901192
 11
-19.085312
 21
62.901192
  0
LINE
  8
0
  6
CENTER
 62
     2
 10
-39.085312
 20
61.618996
 11
-39.085312
 21
71.274574
  0
LINE
  8
0
 10
-63.085312
 20
65.301186
 11
-51.585316
 21
65.301186
  0
LINE
  8
0
 10
-19.085312
 20
69.301186
 11
-19.085312
 21
62.601189
  0
LINE
  8
0
 10
-63.085312
 20
69.301186
 11
-19.085312
 21
69.301186
  0
LINE
  8
0
 10
-63.085312
 20
53.301186
 11
-19.085312
 21
53.301186
  0
LINE
  8
0
 10
-63.085312
 20
69.301186
 11
-63.085312
 21
65.301186
  0
LINE
  8
0
 10
-76.085312
 20
64.801186
 11
-76.085312
 21
57.801186
  0
LINE
  8
0
 10
-63.085312
 20
57.301186
 11
-63.085312
 21
53.301186
  0
LINE
  8
0
 10
-76.085312
 20
64.801186
 11
-52.085312
 21
64.801186
  0
LINE
  8
0
 10
-76.085312
 20
57.801186
 11
-60.185310
 21
57.801186
  0
LINE
  8
0
 10
-52.585312
 20
64.801186
 11
-52.585312
 21
62.301186
  0
LINE
  8
0
 10
-60.185310
 20
62.301186
 11
-60.185310
 21
57.801186
  0
LINE
  8
0
 10
-52.585312
 20
57.801186
 11
-52.585312
 21
60.301186
  0
LINE
  8
0
 10
-60.085312
 20
57.801186
 11
-60.085312
 21
60.301186
  0
LINE
  8
0
 10
-60.085312
 20
57.801186
 11
-52.085312
 21
57.801186
  0
LINE
  8
0
 10
-46.185310
 20
64.301186
 11
-46.185310
 21
58.301186
  0
LINE
  8
0
 10
-52.085312
 20
64.051186
 11
-52.085312
 21
62.301186
  0
LINE
  8
0
 10
-46.185310
 20
58.301186
 11
-44.085312
 21
58.301186
  0
LINE
  8
0
 10
-46.185310
 20
64.301186
 11
-44.085312
 21
64.301186
  0
LINE
  8
0
 10
-52.085312
 20
58.551186
 11
-51.585316
 21
58.551186
  0
LINE
  8
0
 10
-46.285313
 20
62.901184
 11
-46.285313
 21
59.701187
  0
LINE
  8
0
 10
-47.085316
 20
59.701187
 11
-46.285313
 21
59.701187
  0
LINE
  8
0
 10
-47.085316
 20
62.701187
 11
-47.085316
 21
60.301186
  0
LINE
  8
0
 10
-50.835316
 20
64.801186
 11
-50.835316
 21
62.701187
  0
LINE
  8
0
 10
-48.335316
 20
64.801186
 11
-48.335316
 21
62.701187
  0
LINE
  8
0
 10
-50.835316
 20
58.101189
 11
-50.835316
 21
57.801186
  0
LINE
  8
0
 10
-48.335316
 20
58.101189
 11
-48.335316
 21
57.801186
  0
LINE
  8
0
 10
-52.085312
 20
60.301186
 11
-52.085312
 21
58.551186
  0
LINE
  8
0
 10
-62.885315
 20
65.301186
 11
-62.885315
 21
64.801186
  0
LINE
  8
0
 10
-52.085312
 20
65.301186
 11
-52.085312
 21
64.801186
  0
LINE
  8
0
 10
-62.885315
 20
57.801186
 11
-62.885315
 21
57.301186
  0
LINE
  8
0
 10
-52.085312
 20
57.801186
 11
-52.085312
 21
57.301186
  0
LINE
  8
0
  6
CENTER
 62
     2
 10
-73.085312
 20
63.801186
 11
-73.085312
 21
58.801186
  0
LINE
  8
0
  6
CENTER
 62
     2
 10
-67.085312
 20
63.801186
 11
-67.085312
 21
58.801186
  0
LINE
  8
0
 10
-47.085316
 20
60.301186
 11
-47.085316
 21
59.101189
  0
LINE
  8
0
 10
-47.585316
 20
58.551186
 11
-46.185310
 21
58.551186
  0
LINE
  8
0
 10
-60.085312
 20
60.301186
 11
-47.085316
 21
60.301186
  0
LINE
  8
0
 10
-60.185310
 20
62.301186
 11
-49.585316
 21
62.301186
  0
LINE
  8
0
 10
-52.085312
 20
64.051186
 11
-50.835316
 21
64.051186
  0
LINE
  8
0
 10
-48.335316
 20
64.051186
 11
-46.185310
 21
64.051186
  0
LINE
  8
0
 10
-48.335316
 20
62.901184
 11
-46.285313
 21
62.901184
  0
LINE
  8
0
 10
-52.085312
 20
62.901184
 11
-50.835316
 21
62.901184
  0
LINE
  8
0
 10
-52.085312
 20
62.701187
 11
-47.085316
 21
62.701187
  0
LINE
  8
0
 10
-52.085312
 20
59.101189
 11
-47.085316
 21
59.101189
  0
LINE
  8
0
 10
-51.585316
 20
58.101189
 11
-47.585316
 21
58.101189
  0
LINE
  8
0
 10
-51.585316
 20
59.101189
 11
-51.585316
 21
58.101189
  0
LINE
  8
0
 10
-47.585316
 20
59.101189
 11
-47.585316
 21
58.101189
  0
LINE
  8
0
 62
     4
 10
-43.085312
 20
59.801186
 11
-21.085312
 21
59.801186
  0
LINE
  8
0
 62
     4
 10
-43.085312
 20
62.801186
 11
-21.085312
 21
62.801186
  0
LINE
  8
0
 62
     4
 10
-43.085312
 20
62.901192
 11
-43.085312
 21
59.701180
  0
LINE
  8
0
 62
     4
 10
-21.085312
 20
62.901192
 11
-21.085312
 21
59.701180
  0
LINE
  8
0
 62
     4
 10
-42.119530
 20
60.599155
 11
-40.383259
 21
62.335430
  0
LINE
  8
0
 62
     4
 10
-41.761616
 20
60.249954
 11
-40.034065
 21
61.977501
  0
LINE
  8
0
 62
     4
 10
-21.085312
 20
62.601189
 11
-9.835869
 21
62.601189
  0
LINE
  8
0
 62
     4
 10
-21.085312
 20
60.001183
 11
-8.334755
 21
60.001183
  0
LINE
  8
0
 62
     1
 10
-10.335326
 20
63.466290
 11
-7.835326
 21
59.136166
  0
LINE
  8
0
 10
-19.085312
 20
60.001183
 11
-19.085312
 21
53.301186
  0
LINE
  8
0
  6
CENTER
 62
     2
 10
-80.965309
 20
-73.698814
 11
-6.085312
 21
-73.698814
  0
LINE
  8
0
 10
-63.085312
 20
-77.698814
 11
-51.585316
 21
-77.698814
  0
LINE
  8
0
 10
-51.585316
 20
-77.698814
 11
-51.585316
 21
-77.198814
  0
LINE
  8
0
 10
-51.585316
 20
-77.198814
 11
-44.085312
 21
-77.198814
  0
LINE
  8
0
 10
-51.585316
 20
-70.198814
 11
-44.085312
 21
-70.198814
  0
LINE
  8
0
 10
-51.585316
 20
-70.198814
 11
-51.585316
 21
-69.698814
  0
LINE
  8
0
 10
-44.085312
 20
-77.198814
 11
-44.085312
 21
-70.198814
  0
LINE
  8
0
 10
-44.085312
 20
-75.298820
 11
-19.085312
 21
-75.298820
  0
LINE
  8
0
 10
-44.085312
 20
-72.098808
 11
-19.085312
 21
-72.098808
  0
LINE
  8
0
  6
CENTER
 62
     2
 10
-39.085312
 20
-74.016624
 11
-39.085312
 21
-83.297707
  0
LINE
  8
0
 10
-63.085312
 20
-69.698814
 11
-51.585316
 21
-69.698814
  0
LINE
  8
0
 10
-19.085312
 20
-65.698814
 11
-19.085312
 21
-72.098808
  0
LINE
  8
0
 10
-63.085312
 20
-65.698814
 11
-19.085312
 21
-65.698814
  0
LINE
  8
0
 10
-63.085312
 20
-81.698814
 11
-19.085312
 21
-81.698814
  0
LINE
  8
0
 10
-63.085312
 20
-65.698814
 11
-63.085312
 21
-69.698814
  0
LINE
  8
0
 10
-76.085312
 20
-70.198814
 11
-76.085312
 21
-77.198814
  0
LINE
  8
0
 10
-63.085312
 20
-77.698814
 11
-63.085312
 21
-81.698814
  0
LINE
  8
0
 10
-76.085312
 20
-70.198814
 11
-52.085312
 21
-70.198814
  0
LINE
  8
0
 10
-76.085312
 20
-77.198814
 11
-60.185310
 21
-77.198814
  0
LINE
  8
0
 10
-52.585312
 20
-70.198814
 11
-52.585312
 21
-72.698814
  0
LINE
  8
0
 10
-60.185310
 20
-72.698814
 11
-60.185310
 21
-77.198814
  0
LINE
  8
0
 10
-52.585312
 20
-77.198814
 11
-52.585312
 21
-74.698814
  0
LINE
  8
0
 10
-60.085312
 20
-77.198814
 11
-60.085312
 21
-74.698814
  0
LINE
  8
0
 10
-60.085312
 20
-77.198814
 11
-52.085312
 21
-77.198814
  0
LINE
  8
0
 10
-46.185310
 20
-70.698814
 11
-46.185310
 21
-76.698814
  0
LINE
  8
0
 10
-52.085312
 20
-70.948814
 11
-52.085312
 21
-72.698814
  0
LINE
  8
0
 10
-46.185310
 20
-76.698814
 11
-44.085312
 21
-76.698814
  0
LINE
  8
0
 10
-46.185310
 20
-70.698814
 11
-44.085312
 21
-70.698814
  0
LINE
  8
0
 10
-46.285313
 20
-72.098816
 11
-46.285313
 21
-75.298813
  0
LINE
  8
0
 10
-47.085316
 20
-72.298820
 11
-47.085316
 21
-75.898811
  0
LINE
  8
0
 10
-50.835316
 20
-70.198814
 11
-50.835316
 21
-72.298820
  0
LINE
  8
0
 10
-48.335316
 20
-70.198814
 11
-48.335316
 21
-72.298820
  0
LINE
  8
0
 10
-50.835316
 20
-76.898811
 11
-50.835316
 21
-77.198814
  0
LINE
  8
0
 10
-48.335316
 20
-76.898811
 11
-48.335316
 21
-77.198814
  0
LINE
  8
0
 10
-52.085312
 20
-74.698814
 11
-52.085312
 21
-76.448814
  0
LINE
  8
0
 10
-62.885315
 20
-69.698814
 11
-62.885315
 21
-70.198814
  0
LINE
  8
0
 10
-52.085312
 20
-69.698814
 11
-52.085312
 21
-70.198814
  0
LINE
  8
0
 10
-62.885315
 20
-77.198814
 11
-62.885315
 21
-77.698814
  0
LINE
  8
0
 10
-52.085312
 20
-77.198814
 11
-52.085312
 21
-77.698814
  0
LINE
  8
0
  6
CENTER
 62
     2
 10
-67.085312
 20
-71.198814
 11
-67.085312
 21
-76.198814
  0
LINE
  8
0
 10
-60.185310
 20
-72.698814
 11
-49.585316
 21
-72.698814
  0
LINE
  8
0
 10
-60.085312
 20
-74.698814
 11
-47.085316
 21
-74.698814
  0
LINE
  8
0
 10
-52.085312
 20
-70.948814
 11
-50.835316
 21
-70.948814
  0
LINE
  8
0
 10
-52.085312
 20
-72.098824
 11
-50.835316
 21
-72.098824
  0
LINE
  8
0
  6
CENTER
 62
     2
 10
-32.585312
 20
-68.698814
 11
-37.585312
 21
-68.698814
  0
LINE
  8
0
  6
CENTER
 62
     2
 10
-35.085312
 20
-66.198814
 11
-35.085312
 21
-71.198814
  0
LINE
  8
0
  6
CENTER
 62
     2
 10
-32.585312
 20
-78.698814
 11
-37.585312
 21
-78.698814
  0
LINE
  8
0
  6
CENTER
 62
     2
 10
-35.085312
 20
-81.198814
 11
-35.085312
 21
-76.198814
  0
LINE
  8
0
 10
-52.085312
 20
-72.298820
 11
-47.085316
 21
-72.298820
  0
LINE
  8
0
 10
-52.085312
 20
-75.898811
 11
-47.085316
 21
-75.898811
  0
LINE
  8
0
 10
-51.585316
 20
-76.898811
 11
-47.585316
 21
-76.898811
  0
LINE
  8
0
 10
-51.585316
 20
-75.898811
 11
-51.585316
 21
-76.898811
  0
LINE
  8
0
 10
-47.585316
 20
-75.898811
 11
-47.585316
 21
-76.898811
  0
LINE
  8
0
 10
-48.335316
 20
-70.948814
 11
-46.185310
 21
-70.948814
  0
LINE
  8
0
 10
-48.335316
 20
-72.098824
 11
-46.285313
 21
-72.098824
  0
LINE
  8
0
 10
-47.085316
 20
-75.298813
 11
-46.285313
 21
-75.298813
  0
LINE
  8
0
 10
-52.085312
 20
-76.448814
 11
-51.585316
 21
-76.448814
  0
LINE
  8
0
 10
-47.585316
 20
-76.448814
 11
-46.185310
 21
-76.448814
  0
LINE
  8
0
  6
CENTER
 62
     2
 10
-73.085312
 20
-71.198814
 11
-73.085312
 21
-76.198814
  0
LINE
  8
0
 62
     4
 10
-19.085312
 20
-75.748817
 11
-16.085312
 21
-75.748817
  0
LINE
  8
0
 62
     4
 10
-19.085312
 20
-71.648811
 11
-16.085312
 21
-71.648811
  0
LINE
  8
0
 62
     4
 10
-38.085312
 20
-72.098808
 11
-38.085312
 21
-75.298820
  0
LINE
  8
0
 62
     4
 10
-16.085312
 20
-71.648811
 11
-16.085312
 21
-75.748817
  0
LINE
  8
0
 62
     4
 10
-37.119534
 20
-74.400848
 11
-35.383266
 21
-72.664574
  0
LINE
  8
0
 62
     4
 10
-36.761608
 20
-74.750053
 11
-35.034061
 21
-73.022507
  0
LINE
  8
0
 62
     4
 10
-16.085312
 20
-72.398811
 11
-9.835869
 21
-72.398811
  0
LINE
  8
0
 62
     4
 10
-16.085312
 20
-74.998817
 11
-8.334755
 21
-74.998817
  0
LINE
  8
0
 62
     1
 10
-10.335333
 20
-71.533714
 11
-7.835330
 21
-75.863838
  0
LINE
  8
0
 10
-19.085312
 20
-75.298820
 11
-19.085312
 21
-81.698814
  0
LINE
  8
0
 62
     4
 10
-19.085312
 20
-75.298820
 11
-16.085312
 21
-75.298820
  0
LINE
  8
0
 62
     4
 10
-19.085312
 20
-72.098808
 11
-16.085312
 21
-72.098808
  0
LINE
  8
0
 10
-194.250000
 20
132.600006
 11
194.800003
 21
132.600006
  0
LINE
  8
0
 10
194.800003
 20
132.600006
 11
194.800003
 21
-133.500000
  0
LINE
  8
0
 10
-194.250000
 20
132.600006
 11
-194.250000
 21
-133.500000
  0
LINE
  8
0
 10
-194.250000
 20
-133.500000
 11
194.800003
 21
-133.500000
  0
LINE
  8
0
 10
109.800003
 20
-118.500000
 11
109.800003
 21
-133.500000
  0
LINE
  8
0
 10
109.800003
 20
-118.500000
 11
194.800003
 21
-118.500000
  0
LINE
  8
0
 10
109.800003
 20
132.600006
 11
109.800003
 21
117.600006
  0
LINE
  8
0
 10
109.800003
 20
117.600006
 11
194.800003
 21
117.600006
  0
LINE
  8
0
 10
-194.250000
 20
117.600006
 11
-109.250000
 21
117.600006
  0
LINE
  8
0
 10
-109.250000
 20
132.600006
 11
-109.250000
 21
117.600006
  0
CIRCLE
  8
0
  6
DASHED
 62
     2
 10
-39.085312
 20
-12.698814
 40
1.250000
  0
CIRCLE
  8
0
  6
DASHED
 62
     2
 10
-39.085312
 20
5.301188
 40
1.250000
  0
CIRCLE
  8
0
  6
DASHED
 62
     2
 10
-39.085312
 20
5.301188
 40
1.500000
  0
CIRCLE
  8
0
 10
-49.585316
 20
-11.698814
 40
1.250000
  0
CIRCLE
  8
0
 10
-49.585316
 20
4.301188
 40
1.250000
  0
CIRCLE
  8
0
 10
-56.085316
 20
0.001188
 40
1.000000
  0
CIRCLE
  8
0
 10
-56.085316
 20
-7.398815
 40
1.000000
  0
CIRCLE
  8
0
  6
DASHED
 62
     2
 10
-39.085312
 20
-12.698814
 40
1.500000
  0
CIRCLE
  8
0
 62
     4
 10
96.914688
 20
5.251185
 40
1.300000
  0
CIRCLE
  8
0
 10
101.914688
 20
-12.198814
 40
1.250000
  0
CIRCLE
  8
0
 62
     4
 10
96.914688
 20
-12.648814
 40
1.300000
  0
CIRCLE
  8
0
 62
     2
 10
91.914688
 20
4.801186
 40
1.500000
  0
ARC
  8
0
 10
94.814690
 20
-14.698814
 40
0.500000
 50
270.000000
 51
0.000000
  0
ARC
  8
0
 10
96.914688
 20
-12.298820
 40
2.099998
 50
0.000026
 51
179.999969
  0
ARC
  8
0
 10
96.914688
 20
4.901184
 40
2.099998
 50
180.000031
 51
359.999969
  0
ARC
  8
0
 10
99.014687
 20
7.301186
 40
0.500000
 50
90.000000
 51
180.000000
  0
ARC
  8
0
 10
94.814690
 20
7.301186
 40
0.500000
 50
0.000000
 51
90.000000
  0
ARC
  8
0
 10
99.014687
 20
-14.698814
 40
0.500000
 50
180.000000
 51
270.000000
  0
CIRCLE
  8
0
 10
96.914688
 20
-3.698814
 40
5.500000
  0
CIRCLE
  8
0
 62
     2
 10
101.914688
 20
-12.198814
 40
1.500000
  0
CIRCLE
  8
0
 10
91.914688
 20
4.801186
 40
1.250000
  0
CIRCLE
  8
0
 62
     4
 10
-41.085297
 20
61.301186
 40
1.250000
  0
CIRCLE
  8
0
 62
     4
 10
-41.085297
 20
61.301186
 40
1.400000
  0
CIRCLE
  8
0
 10
-26.585312
 20
66.301186
 40
1.250000
  0
CIRCLE
  8
0
 10
-38.085312
 20
56.301186
 40
3.000000
  0
CIRCLE
  8
0
 62
     2
 10
-38.085312
 20
56.301186
 40
1.500000
  0
CIRCLE
  8
0
 10
-26.585312
 20
66.301186
 40
3.000000
  0
CIRCLE
  8
0
 62
     2
 10
-26.585312
 20
66.301186
 40
1.500000
  0
CIRCLE
  8
0
 62
     2
 10
-73.085312
 20
61.301186
 40
1.500000
  0
CIRCLE
  8
0
 62
     2
 10
-67.085312
 20
61.301186
 40
1.500000
  0
CIRCLE
  8
0
 10
-73.085312
 20
61.301186
 40
1.250000
  0
CIRCLE
  8
0
 10
-67.085312
 20
61.301186
 40
1.250000
  0
CIRCLE
  8
0
 10
-38.085312
 20
56.301186
 40
1.250000
  0
CIRCLE
  8
0
 62
     4
 10
-36.085297
 20
-73.698814
 40
1.250000
  0
CIRCLE
  8
0
 62
     4
 10
-36.085297
 20
-73.698814
 40
1.400000
  0
CIRCLE
  8
0
 10
-35.085312
 20
-78.698814
 40
1.250000
  0
CIRCLE
  8
0
 62
     2
 10
-73.085312
 20
-73.698814
 40
1.500000
  0
CIRCLE
  8
0
 62
     2
 10
-67.085312
 20
-73.698814
 40
1.500000
  0
CIRCLE
  8
0
 62
     2
 10
-35.085312
 20
-68.698814
 40
1.500000
  0
CIRCLE
  8
0
 62
     2
 10
-35.085312
 20
-78.698814
 40
1.500000
  0
CIRCLE
  8
0
 10
-73.085312
 20
-73.698814
 40
1.250000
  0
CIRCLE
  8
0
 10
-67.085312
 20
-73.698814
 40
1.250000
  0
CIRCLE
  8
0
 10
-35.085312
 20
-68.698814
 40
1.250000
  0
TEXT
  8
0
 10
133.907150
 20
122.050003
 40
4.500000
  1
Ver. 1.0
 50
0.000000
 41
1.052631
 51
0.000000
  7
STANDARD
  0
TEXT
  8
0
 10
113.700279
 20
-130.669998
 40
6.300000
  1
KOGANEI CORP.
 50
0.000000
 41
1.052632
 51
0.000000
  7
STANDARD
  0
TEXT
  8
0
 10
-170.142654
 20
122.050003
 40
4.500000
  1
AIR HAND
 50
0.000000
 41
1.052632
 51
0.000000
  7
STANDARD
  0
TEXT
  8
0
 10
-159.992661
 20
97.550003
 40
4.500000
  1
NHBRP-10-ZE135A2
 50
0.000000
 41
1.052632
 51
0.000000
  7
STANDARD
  0
TEXT
  8
0
 10
-186.892654
 20
104.550003
 40
4.500000
  1
MODEL:NHBDP-10-ZE135A2
 50
0.000000
 41
1.052632
 51
0.000000
  7
STANDARD
  0
ENDSEC
  0
EOF
