  0
SECTION
  2
HEADER
  0
ENDSEC
  0
SECTION
  2
TABLES
  0
TABLE
  2
LTYPE
 70
     4
  0
LTYPE
  2
CONTINUOUS
 70
    64
  3
Solid line
 72
    65
 73
     0
 40
0.000000
  0
LTYPE
  2
DASHED
 70
    64
  3
__ __ __ __ __ __ __ __ __ __ __ __ __ __ __
 72
    65
 73
     2
 40
3.500000
 49
2.000000
 49
-1.500000
  0
LTYPE
  2
CENTER
 70
    64
  3
____ _ ____ _ ____ _ ____ _ ____ _ ____ _ ____
 72
    65
 73
     4
 40
17.500000
 49
13.000000
 49
-1.500000
 49
1.500000
 49
-1.500000
  0
LTYPE
  2
PHANTOM
 70
    64
  3
_____ _ _ _____ _ _ _____ _ _ _____ _ _ ____  
 72
    65
 73
     6
 40
15.500000
 49
8.000000
 49
-1.500000
 49
1.500000
 49
-1.500000
 49
1.500000
 49
-1.500000
  0
LTYPE
  2
DASHED1
 70
    64
  3
__ __ __ __ __ __ __ __ __ __ __ __ __ __ __
 72
    65
 73
     2
 40
1.500000
 49
1.000000
 49
-0.500000
  0
LTYPE
  2
DASHED2
 70
    64
  3
__ __ __ __ __ __ __ __ __ __ __ __ __ __ __
 72
    65
 73
     2
 40
3.500000
 49
2.500000
 49
-1.000000
  0
LTYPE
  2
DASHED3
 70
    64
  3
__ __ __ __ __ __ __ __ __ __ __ __ __ __ __
 72
    65
 73
     2
 40
6.000000
 49
4.000000
 49
-2.000000
  0
LTYPE
  2
DASHED4
 70
    64
  3
__ __ __ __ __ __ __ __ __ __ __ __ __ __ __
 72
    65
 73
     2
 40
12.000000
 49
10.000000
 49
-2.000000
  0
LTYPE
  2
DASHED5
 70
    64
  3
__ __ __ __ __ __ __ __ __ __ __ __ __ __ __
 72
    65
 73
     2
 40
17.000000
 49
15.000000
 49
-2.000000
  0
LTYPE
  2
DASHED6
 70
    64
  3
__ __ __ __ __ __ __ __ __ __ __ __ __ __ __
 72
    65
 73
     2
 40
29.000000
 49
27.000000
 49
-2.000000
  0
LTYPE
  2
PHANTOM1
 70
    64
  3
_____ _ _ _____ _ _ _____ _ _ _____ _ _ ____  
 72
    65
 73
     6
 40
31.000000
 49
25.000000
 49
-1.500000
 49
1.000000
 49
-1.000000
 49
1.000000
 49
-1.500000
  0
LTYPE
  2
PHANTOM2
 70
    64
  3
_____ _ _ _____ _ _ _____ _ _ _____ _ _ ____  
 72
    65
 73
     6
 40
36.000000
 49
27.000000
 49
-1.500000
 49
2.500000
 49
-1.000000
 49
2.500000
 49
-1.500000
  0
LTYPE
  2
PHANTOM3
 70
    64
  3
_____ _ _ _____ _ _ _____ _ _ _____ _ _ ____  
 72
    65
 73
     6
 40
78.000000
 49
64.000000
 49
-2.000000
 49
4.000000
 49
-2.000000
 49
4.000000
 49
-2.000000
  0
LTYPE
  2
CENTER1
 70
    64
  3
____ _ ____ _ ____ _ ____ _ ____ _ ____ _ ____
 72
    65
 73
     4
 40
19.000000
 49
14.000000
 49
-1.000000
 49
3.000000
 49
-1.000000
  0
LTYPE
  2
CENTER2
 70
    64
  3
____ _ ____ _ ____ _ ____ _ ____ _ ____ _ ____
 72
    65
 73
     4
 40
28.500000
 49
25.000000
 49
-1.000000
 49
1.500000
 49
-1.000000
  0
LTYPE
  2
CENTER3
 70
    64
  3
____ _ ____ _ ____ _ ____ _ ____ _ ____ _ ____
 72
    65
 73
     4
 40
31.500000
 49
27.000000
 49
-1.000000
 49
2.500000
 49
-1.000000
  0
LTYPE
  2
CENTER4
 70
    64
  3
____ _ ____ _ ____ _ ____ _ ____ _ ____ _ ____
 72
    65
 73
     4
 40
50.000000
 49
45.000000
 49
-1.000000
 49
3.000000
 49
-1.000000
  0
LTYPE
  2
CENTER5
 70
    64
  3
____ _ ____ _ ____ _ ____ _ ____ _ ____ _ ____
 72
    65
 73
     4
 40
100.000000
 49
92.000000
 49
-2.000000
 49
4.000000
 49
-2.000000
  0
LTYPE
  2
SBK1
 70
    64
  3
______ _ _ _ ______ _ _ _ ______ _ _ _ _____  
 72
    65
 73
     8
 40
60.500000
 49
45.000000
 49
-2.000000
 49
2.500000
 49
-2.000000
 49
2.500000
 49
-2.000000
 49
2.500000
 49
-2.000000
  0
LTYPE
  2
SBK2
 70
    64
  3
______ _ _ _ ______ _ _ _ ______ _ _ _ _____  
 72
    65
 73
     8
 40
84.000000
 49
64.000000
 49
-2.000000
 49
4.000000
 49
-2.000000
 49
4.000000
 49
-2.000000
 49
4.000000
 49
-2.000000
  0
LTYPE
  2
STCH
 70
    64
  3
__ __ __ __ __ __ __ __ __ __ __ __ __ __ __
 72
    65
 73
     2
 40
3.000000
 49
1.000000
 49
-2.000000
  0
LTYPE
  2
MTCH
 70
    64
  3
_____ _ _ _____ _ _ _____ _ _ _____ _ _ ____  
 72
    65
 73
     6
 40
80.000000
 49
66.000000
 49
-2.000000
 49
4.000000
 49
-2.000000
 49
4.000000
 49
-2.000000
  0
ENDTAB
  0
TABLE
  2
LAYER
 70
     1
  0
LAYER
  2
0
 70
     0
 62
     7
  6
CONTINUOUS
  0
ENDTAB
  0
TABLE
  2
STYLE
 70
     1
  0
STYLE
  2
STANDARD
 70
     0
 40
0.000000
 41
1.000000
 50
0.000000
 71
     0
 42
0.200000
  3
txt
  4
BIGFONT
  0
ENDTAB
  0
TABLE
  2
VIEW
 70
     0
  0
ENDTAB
  0
ENDSEC
  0
SECTION
  2
BLOCKS
  0
ENDSEC
  0
SECTION
  2
ENTITIES
  0
LINE
  8
0
 10
-70.102036
 20
9.637476
 11
-70.102036
 21
4.637476
  0
LINE
  8
0
 10
0.397964
 20
10.137468
 11
0.397964
 21
-23.862532
  0
LINE
  8
0
 10
-55.102036
 20
10.137474
 11
-55.102036
 21
-23.862526
  0
LINE
  8
0
  6
CENTER
 62
     2
 10
-36.102036
 20
7.887472
 11
-36.102036
 21
3.387472
  0
LINE
  8
0
  6
CENTER
 62
     2
 10
-38.352036
 20
5.637474
 11
-33.852036
 21
5.637474
  0
LINE
  8
0
 10
-55.102036
 20
-23.862526
 11
0.397964
 21
-23.862526
  0
LINE
  8
0
 10
-55.102036
 20
10.137474
 11
0.397964
 21
10.137474
  0
LINE
  8
0
 10
-70.102036
 20
9.637474
 11
-55.102036
 21
9.637474
  0
LINE
  8
0
 10
-55.602036
 20
4.637474
 11
-55.602036
 21
-2.862526
  0
LINE
  8
0
 10
-70.102036
 20
4.637474
 11
-55.752037
 21
4.637474
  0
LINE
  8
0
 10
-55.602036
 20
-2.862526
 11
-55.102036
 21
-2.862526
  0
LINE
  8
0
 10
-70.102036
 20
-23.362524
 11
-70.102036
 21
-18.362524
  0
LINE
  8
0
 10
-55.602036
 20
-10.862526
 11
-55.102036
 21
-10.862526
  0
LINE
  8
0
 10
-70.102036
 20
-18.362526
 11
-55.752037
 21
-18.362526
  0
LINE
  8
0
 10
-70.102036
 20
-23.362526
 11
-55.102036
 21
-23.362526
  0
LINE
  8
0
 10
-55.602036
 20
-18.362526
 11
-55.602036
 21
-10.862526
  0
LINE
  8
0
  6
CENTER
 62
     2
 10
-59.675003
 20
-6.862526
 11
3.674999
 21
-6.862526
  0
LINE
  8
0
 62
     4
 10
0.397964
 20
-17.012537
 11
2.397964
 21
-17.012537
  0
LINE
  8
0
 62
     4
 10
0.397964
 20
-21.612535
 11
2.397964
 21
-21.612535
  0
LINE
  8
0
 62
     4
 10
2.397964
 20
-17.012545
 11
2.397964
 21
-21.612543
  0
LINE
  8
0
 62
     4
 10
0.397964
 20
-20.612513
 11
2.397964
 21
-20.612513
  0
LINE
  8
0
 62
     4
 10
0.397964
 20
-21.162531
 11
2.397964
 21
-21.162531
  0
LINE
  8
0
 62
     4
 10
2.397964
 20
-18.012522
 11
9.647408
 21
-18.012522
  0
LINE
  8
0
 62
     4
 10
2.397964
 20
-20.612528
 11
11.148521
 21
-20.612528
  0
LINE
  8
0
 62
     1
 10
9.147950
 20
-17.147425
 11
11.647951
 21
-21.477551
  0
LINE
  8
0
 62
     4
 10
0.397964
 20
6.887476
 11
9.647408
 21
6.887476
  0
LINE
  8
0
 62
     4
 10
0.397964
 20
4.287470
 11
11.148521
 21
4.287470
  0
LINE
  8
0
 62
     1
 10
9.147958
 20
7.752576
 11
11.647959
 21
3.422449
  0
LINE
  8
0
  6
CENTER
 62
     2
 10
-22.102036
 20
8.137472
 11
-22.102036
 21
2.137472
  0
LINE
  8
0
  6
CENTER
 62
     2
 10
-25.102036
 20
5.137474
 11
-19.102036
 21
5.137474
  0
LINE
  8
0
  6
CENTER
 62
     2
 10
-22.102036
 20
-15.862528
 11
-22.102036
 21
-21.862528
  0
LINE
  8
0
  6
CENTER
 62
     2
 10
-25.102036
 20
-18.862526
 11
-19.102036
 21
-18.862526
  0
LINE
  8
0
  6
CENTER
 62
     2
 10
-36.102036
 20
-17.112526
 11
-36.102036
 21
-21.612526
  0
LINE
  8
0
  6
CENTER
 62
     2
 10
-38.352036
 20
-19.362526
 11
-33.852036
 21
-19.362526
  0
LINE
  8
0
  6
CENTER
 62
     2
 10
-45.102036
 20
-10.412529
 11
-45.102036
 21
-14.912530
  0
LINE
  8
0
  6
CENTER
 62
     2
 10
-47.352036
 20
-12.662529
 11
-42.852036
 21
-12.662529
  0
LINE
  8
0
  6
CENTER
 62
     2
 10
-45.102036
 20
1.187472
 11
-45.102036
 21
-3.312528
  0
LINE
  8
0
  6
CENTER
 62
     2
 10
-47.352036
 20
-1.062527
 11
-42.852036
 21
-1.062527
  0
LINE
  8
0
  6
CENTER
 62
     2
 10
-67.102036
 20
13.137476
 11
-67.102036
 21
1.137476
  0
LINE
  8
0
  6
CENTER
 62
     2
 10
-59.102036
 20
13.137476
 11
-59.102036
 21
1.137476
  0
LINE
  8
0
  6
CENTER
 62
     2
 10
-59.102036
 20
-26.862528
 11
-59.102036
 21
-14.862528
  0
LINE
  8
0
  6
CENTER
 62
     2
 10
-67.102036
 20
-26.862528
 11
-67.102036
 21
-14.862528
  0
LINE
  8
0
 10
92.972961
 20
-22.062529
 11
92.972961
 21
-21.062529
  0
LINE
  8
0
 10
92.472961
 20
-20.562527
 11
92.472961
 21
-18.962521
  0
LINE
  8
0
 10
96.672958
 20
-20.562534
 11
96.672958
 21
-18.962528
  0
LINE
  8
0
 10
96.172958
 20
-22.062532
 11
96.172958
 21
-21.062532
  0
LINE
  8
0
 10
92.972992
 20
-21.062464
 11
92.472992
 21
-20.562464
  0
LINE
  8
0
 10
96.172981
 20
-21.062574
 11
96.672981
 21
-20.562574
  0
LINE
  8
0
 10
92.172989
 20
-22.862585
 11
92.972984
 21
-22.062592
  0
LINE
  8
0
 10
96.973000
 20
-22.862467
 11
96.173004
 21
-22.062473
  0
LINE
  8
0
 10
84.072937
 20
-23.862526
 11
91.872932
 21
-23.862526
  0
LINE
  8
0
 10
97.272942
 20
-23.862526
 11
105.072945
 21
-23.862526
  0
LINE
  8
0
 10
96.972961
 20
-23.562534
 11
96.972961
 21
-22.862530
  0
LINE
  8
0
 10
92.172958
 20
-23.562527
 11
92.172958
 21
-22.862522
  0
LINE
  8
0
 10
92.172958
 20
9.837479
 11
92.172958
 21
9.137478
  0
LINE
  8
0
 10
92.472961
 20
5.237475
 11
92.472961
 21
6.837478
  0
LINE
  8
0
 10
92.473015
 20
6.837457
 11
92.973007
 21
7.337452
  0
LINE
  8
0
 10
92.173080
 20
9.137574
 11
92.973091
 21
8.337564
  0
LINE
  8
0
 10
92.972961
 20
8.337477
 11
92.972961
 21
7.337473
  0
LINE
  8
0
 10
97.272987
 20
10.137474
 11
105.072990
 21
10.137474
  0
LINE
  8
0
 10
96.672958
 20
5.237470
 11
96.672958
 21
6.837472
  0
LINE
  8
0
 10
96.673035
 20
6.837550
 11
96.173035
 21
7.337551
  0
LINE
  8
0
 10
96.972992
 20
9.137454
 11
96.172989
 21
8.337453
  0
LINE
  8
0
 10
96.172958
 20
8.337473
 11
96.172958
 21
7.337473
  0
LINE
  8
0
 10
96.972961
 20
9.837471
 11
96.972961
 21
9.137470
  0
LINE
  8
0
  6
CENTER
 62
     2
 10
87.572998
 20
3.137484
 11
87.572998
 21
9.137484
  0
LINE
  8
0
 10
105.572968
 20
-23.362541
 11
105.572968
 21
9.637459
  0
LINE
  8
0
 10
83.572960
 20
-23.362511
 11
83.572960
 21
9.637489
  0
LINE
  8
0
 10
84.072983
 20
10.137474
 11
91.872978
 21
10.137474
  0
LINE
  8
0
  6
CENTER
 62
     2
 10
84.572983
 20
6.137503
 11
90.572983
 21
6.137503
  0
LINE
  8
0
 62
     4
 10
96.172966
 20
7.337541
 11
96.073021
 21
7.437480
  0
LINE
  8
0
 62
     4
 10
96.072960
 20
7.887461
 11
96.072960
 21
7.437464
  0
LINE
  8
0
 62
     4
 10
96.072983
 20
7.887463
 11
93.072983
 21
7.887463
  0
LINE
  8
0
 62
     4
 10
95.822960
 20
8.387461
 11
95.822960
 21
7.887461
  0
LINE
  8
0
 62
     4
 10
93.322960
 20
8.387465
 11
93.322960
 21
7.887465
  0
LINE
  8
0
 62
     4
 10
95.822983
 20
8.387463
 11
93.322983
 21
8.387463
  0
LINE
  8
0
 62
     4
 10
93.072960
 20
7.887465
 11
93.072960
 21
7.437468
  0
LINE
  8
0
 62
     4
 10
92.972969
 20
7.337568
 11
93.072914
 21
7.437511
  0
LINE
  8
0
 62
     4
 10
96.172935
 20
-21.062613
 11
96.072998
 21
-21.162552
  0
LINE
  8
0
 62
     4
 10
96.072960
 20
-21.612516
 11
96.072960
 21
-21.162519
  0
LINE
  8
0
 62
     4
 10
96.072937
 20
-21.612514
 11
93.072937
 21
-21.612514
  0
LINE
  8
0
 62
     4
 10
95.822960
 20
-22.112516
 11
95.822960
 21
-21.612516
  0
LINE
  8
0
 62
     4
 10
93.322960
 20
-22.112513
 11
93.322960
 21
-21.612513
  0
LINE
  8
0
 62
     4
 10
95.822937
 20
-22.112514
 11
93.322937
 21
-22.112514
  0
LINE
  8
0
 62
     4
 10
93.072960
 20
-21.612513
 11
93.072960
 21
-21.162516
  0
LINE
  8
0
 62
     4
 10
92.972954
 20
-21.062597
 11
93.072891
 21
-21.162537
  0
LINE
  8
0
  6
CENTER
 62
     2
 10
94.572960
 20
-26.382492
 11
94.572960
 21
12.515423
  0
LINE
  8
0
  6
CENTER
 62
     2
 10
79.572960
 20
-6.862526
 11
109.572968
 21
-6.862526
  0
LINE
  8
0
  6
CENTER
 62
     2
 10
101.572998
 20
-22.862535
 11
101.572998
 21
-16.862535
  0
LINE
  8
0
  6
CENTER
 62
     2
 10
98.572945
 20
-19.862497
 11
104.572945
 21
-19.862497
  0
LINE
  8
0
  6
CENTER
 62
     2
 10
-75.425003
 20
57.752472
 11
13.397964
 21
57.752472
  0
LINE
  8
0
  6
CENTER
 62
     2
 10
-21.602036
 20
56.752480
 11
-21.602036
 21
45.526447
  0
LINE
  8
0
  6
CENTER
 62
     2
 10
-27.257339
 20
51.752472
 11
-15.987938
 21
51.752472
  0
LINE
  8
0
  6
CENTER
 62
     2
 10
-7.102036
 20
69.160881
 11
-7.102036
 21
58.674080
  0
LINE
  8
0
  6
CENTER
 62
     2
 10
-12.701031
 20
63.752472
 11
-1.588150
 21
63.752472
  0
LINE
  8
0
 10
-29.102036
 20
60.152481
 11
0.397964
 21
60.152481
  0
LINE
  8
0
 10
-29.102036
 20
55.352478
 11
0.397964
 21
55.352478
  0
LINE
  8
0
 10
-55.102036
 20
46.752472
 11
0.397964
 21
46.752472
  0
LINE
  8
0
 10
0.397964
 20
68.752480
 11
0.397964
 21
46.752480
  0
LINE
  8
0
 10
-55.102036
 20
68.752472
 11
0.397964
 21
68.752472
  0
LINE
  8
0
 10
-29.102036
 20
62.252472
 11
-29.102036
 21
53.252472
  0
LINE
  8
0
  6
CENTER
 62
     2
 10
-22.102036
 20
70.305717
 11
-22.102036
 21
58.435158
  0
LINE
  8
0
 10
-55.102036
 20
52.752472
 11
-55.102036
 21
46.752472
  0
LINE
  8
0
 10
-39.102039
 20
53.252472
 11
-39.102039
 21
52.752472
  0
LINE
  8
0
 10
-39.102039
 20
53.252472
 11
-29.102036
 21
53.252472
  0
LINE
  8
0
 10
-39.102039
 20
62.752472
 11
-39.102039
 21
62.252472
  0
LINE
  8
0
 10
-39.102039
 20
62.252472
 11
-29.102036
 21
62.252472
  0
LINE
  8
0
 10
-55.102036
 20
68.752472
 11
-55.102036
 21
62.752472
  0
LINE
  8
0
 10
-55.102036
 20
52.752472
 11
-39.102039
 21
52.752472
  0
LINE
  8
0
 10
-55.102036
 20
62.752472
 11
-39.102039
 21
62.752472
  0
LINE
  8
0
 10
-70.102036
 20
62.252472
 11
-70.102036
 21
53.252472
  0
LINE
  8
0
 10
-40.102036
 20
62.252472
 11
-40.102036
 21
59.052475
  0
LINE
  8
0
 10
-51.702042
 20
59.052475
 11
-51.702042
 21
53.252472
  0
LINE
  8
0
 10
-70.102036
 20
62.252472
 11
-40.102036
 21
62.252472
  0
LINE
  8
0
 10
-70.102036
 20
53.252472
 11
-51.702042
 21
53.252472
  0
LINE
  8
0
 10
-51.602036
 20
56.452477
 11
-51.602036
 21
53.252472
  0
LINE
  8
0
 10
-40.102036
 20
56.452477
 11
-40.102036
 21
53.252472
  0
LINE
  8
0
 10
-51.602036
 20
53.252472
 11
-40.102036
 21
53.252472
  0
LINE
  8
0
 10
-32.502037
 20
61.752472
 11
-32.502037
 21
53.752472
  0
LINE
  8
0
 10
-39.402039
 20
61.502472
 11
-39.402039
 21
59.052475
  0
LINE
  8
0
 10
-32.502037
 20
61.752472
 11
-29.102036
 21
61.752472
  0
LINE
  8
0
 10
-32.502037
 20
53.752472
 11
-29.102036
 21
53.752472
  0
LINE
  8
0
 10
-39.402039
 20
54.002472
 11
-38.602036
 21
54.002472
  0
LINE
  8
0
 10
-39.402039
 20
61.502472
 11
-37.602036
 21
61.502472
  0
LINE
  8
0
 10
-33.102036
 20
60.052475
 11
-33.102036
 21
56.452477
  0
LINE
  8
0
 10
-50.602036
 20
59.052475
 11
-50.602036
 21
56.452477
  0
LINE
  8
0
 10
-39.402039
 20
60.052475
 11
-33.102036
 21
60.052475
  0
LINE
  8
0
 10
-39.402039
 20
56.452477
 11
-39.402039
 21
54.002472
  0
LINE
  8
0
 10
-37.602036
 20
62.252472
 11
-37.602036
 21
60.052475
  0
LINE
  8
0
 10
-34.602036
 20
62.252472
 11
-34.602036
 21
60.052475
  0
LINE
  8
0
 10
-37.602036
 20
53.952477
 11
-37.602036
 21
53.252472
  0
LINE
  8
0
 10
-34.602036
 20
53.952477
 11
-34.602036
 21
53.252472
  0
LINE
  8
0
 10
-33.602036
 20
54.002472
 11
-32.502037
 21
54.002472
  0
LINE
  8
0
 10
-34.602036
 20
61.502472
 11
-32.502037
 21
61.502472
  0
LINE
  8
0
  6
CENTER
 62
     2
 10
-59.102036
 20
60.752472
 11
-59.102036
 21
54.752472
  0
LINE
  8
0
  6
CENTER
 62
     2
 10
-67.102036
 20
60.752472
 11
-67.102036
 21
54.752472
  0
LINE
  8
0
 10
-33.102036
 20
56.452477
 11
-33.102036
 21
54.952477
  0
LINE
  8
0
 10
-51.702042
 20
59.052475
 11
-36.102036
 21
59.052475
  0
LINE
  8
0
 10
-51.602036
 20
56.452477
 11
-33.102036
 21
56.452477
  0
LINE
  8
0
 10
-39.102036
 20
54.952477
 11
-33.102036
 21
54.952477
  0
LINE
  8
0
 10
-39.102036
 20
56.452477
 11
-39.102036
 21
54.952477
  0
LINE
  8
0
 10
-33.602036
 20
54.952477
 11
-33.602036
 21
53.952477
  0
LINE
  8
0
 10
-38.602036
 20
54.952477
 11
-38.602036
 21
53.952477
  0
LINE
  8
0
 10
-38.602036
 20
53.952477
 11
-33.602036
 21
53.952477
  0
LINE
  8
0
 62
     4
 10
-28.102036
 20
59.352463
 11
-28.102036
 21
56.152481
  0
LINE
  8
0
 62
     4
 10
-6.102036
 20
59.352463
 11
-6.102036
 21
56.152481
  0
LINE
  8
0
 62
     4
 10
-27.136263
 20
57.050453
 11
-25.399992
 21
58.786724
  0
LINE
  8
0
 62
     4
 10
-26.778336
 20
56.701244
 11
-25.050785
 21
58.428791
  0
LINE
  8
0
 62
     4
 10
-6.102036
 20
59.052483
 11
9.647408
 21
59.052483
  0
LINE
  8
0
 62
     4
 10
-6.102036
 20
56.452477
 11
11.148521
 21
56.452477
  0
LINE
  8
0
 62
     1
 10
9.147943
 20
59.917576
 11
11.647942
 21
55.587448
  0
LINE
  8
0
 10
-29.102036
 20
59.352463
 11
0.397964
 21
59.352463
  0
LINE
  8
0
 10
-29.102036
 20
56.152481
 11
0.397964
 21
56.152481
  0
LINE
  8
0
 10
-29.102036
 20
-82.962517
 11
0.397964
 21
-82.962517
  0
LINE
  8
0
 10
-29.102036
 20
-86.162514
 11
0.397964
 21
-86.162514
  0
LINE
  8
0
 10
-29.102036
 20
-82.162514
 11
0.397964
 21
-82.162514
  0
LINE
  8
0
 10
-29.102036
 20
-86.962517
 11
0.397964
 21
-86.962517
  0
LINE
  8
0
 10
-55.102036
 20
-95.562523
 11
0.397964
 21
-95.562523
  0
LINE
  8
0
 10
0.397964
 20
-73.562523
 11
0.397964
 21
-82.962532
  0
LINE
  8
0
 10
-55.102036
 20
-73.562523
 11
0.397964
 21
-73.562523
  0
LINE
  8
0
 10
-29.102036
 20
-80.062523
 11
-29.102036
 21
-89.062523
  0
LINE
  8
0
  6
CENTER
 62
     2
 10
-22.102036
 20
-97.115761
 11
-22.102036
 21
-85.245201
  0
LINE
  8
0
 10
-55.102036
 20
-89.562523
 11
-55.102036
 21
-95.562523
  0
LINE
  8
0
 10
-39.102039
 20
-89.062523
 11
-39.102039
 21
-89.562523
  0
LINE
  8
0
 10
-39.102039
 20
-89.062523
 11
-29.102036
 21
-89.062523
  0
LINE
  8
0
 10
-39.102039
 20
-79.562523
 11
-39.102039
 21
-80.062523
  0
LINE
  8
0
 10
-39.102039
 20
-80.062523
 11
-29.102036
 21
-80.062523
  0
LINE
  8
0
 10
-55.102036
 20
-73.562523
 11
-55.102036
 21
-79.562523
  0
LINE
  8
0
 10
-55.102036
 20
-89.562523
 11
-39.102039
 21
-89.562523
  0
LINE
  8
0
 10
-55.102036
 20
-79.562523
 11
-39.102039
 21
-79.562523
  0
LINE
  8
0
 10
-70.102036
 20
-80.062523
 11
-70.102036
 21
-89.062523
  0
LINE
  8
0
 10
-40.102036
 20
-80.062523
 11
-40.102036
 21
-83.262527
  0
LINE
  8
0
 10
-51.702042
 20
-83.262527
 11
-51.702042
 21
-89.062523
  0
LINE
  8
0
 10
-70.102036
 20
-80.062523
 11
-40.102036
 21
-80.062523
  0
LINE
  8
0
 10
-70.102036
 20
-89.062523
 11
-51.702042
 21
-89.062523
  0
LINE
  8
0
 10
-51.602036
 20
-85.862518
 11
-51.602036
 21
-89.062523
  0
LINE
  8
0
 10
-40.102036
 20
-85.862518
 11
-40.102036
 21
-89.062523
  0
LINE
  8
0
 10
-51.602036
 20
-89.062523
 11
-40.102036
 21
-89.062523
  0
LINE
  8
0
 10
-32.502037
 20
-80.562523
 11
-32.502037
 21
-88.562523
  0
LINE
  8
0
 10
-39.402039
 20
-80.812523
 11
-39.402039
 21
-83.262527
  0
LINE
  8
0
 10
-32.502037
 20
-80.562523
 11
-29.102036
 21
-80.562523
  0
LINE
  8
0
 10
-32.502037
 20
-88.562523
 11
-29.102036
 21
-88.562523
  0
LINE
  8
0
 10
-39.402039
 20
-88.312523
 11
-38.602036
 21
-88.312523
  0
LINE
  8
0
 10
-39.402039
 20
-80.812523
 11
-37.602036
 21
-80.812523
  0
LINE
  8
0
 10
-33.102036
 20
-82.662521
 11
-33.102036
 21
-87.362518
  0
LINE
  8
0
 10
-50.602036
 20
-83.262527
 11
-50.602036
 21
-85.862518
  0
LINE
  8
0
 10
-39.402039
 20
-85.862518
 11
-39.402039
 21
-88.312523
  0
LINE
  8
0
 10
-37.602036
 20
-80.062523
 11
-37.602036
 21
-82.662521
  0
LINE
  8
0
 10
-34.602036
 20
-80.062523
 11
-34.602036
 21
-82.662521
  0
LINE
  8
0
 10
-37.602036
 20
-88.362518
 11
-37.602036
 21
-89.062523
  0
LINE
  8
0
 10
-34.602036
 20
-88.362518
 11
-34.602036
 21
-89.062523
  0
LINE
  8
0
 10
-33.602036
 20
-88.312523
 11
-32.502037
 21
-88.312523
  0
LINE
  8
0
 10
-34.602036
 20
-80.812523
 11
-32.502037
 21
-80.812523
  0
LINE
  8
0
  6
CENTER
 62
     2
 10
-59.102036
 20
-81.562523
 11
-59.102036
 21
-87.562523
  0
LINE
  8
0
  6
CENTER
 62
     2
 10
-67.102036
 20
-81.562523
 11
-67.102036
 21
-87.562523
  0
LINE
  8
0
 10
-51.702042
 20
-83.262527
 11
-36.102036
 21
-83.262527
  0
LINE
  8
0
 10
-51.602036
 20
-85.862518
 11
-33.102036
 21
-85.862518
  0
LINE
  8
0
  6
CENTER
 62
     2
 10
-17.602036
 20
-74.062523
 11
-17.602036
 21
-81.062523
  0
LINE
  8
0
  6
CENTER
 62
     2
 10
-21.102036
 20
-77.562523
 11
-14.102036
 21
-77.562523
  0
LINE
  8
0
  6
CENTER
 62
     2
 10
-21.102036
 20
-91.562523
 11
-14.102036
 21
-91.562523
  0
LINE
  8
0
  6
CENTER
 62
     2
 10
-17.602036
 20
-95.062523
 11
-17.602036
 21
-88.062523
  0
LINE
  8
0
  6
CENTER
 62
     2
 10
-74.375000
 20
-84.562523
 11
13.397957
 21
-84.562523
  0
LINE
  8
0
 10
-39.102036
 20
-87.362518
 11
-33.102036
 21
-87.362518
  0
LINE
  8
0
 10
-39.102036
 20
-85.862518
 11
-39.102036
 21
-87.362518
  0
LINE
  8
0
 10
-38.602036
 20
-88.362518
 11
-33.602036
 21
-88.362518
  0
LINE
  8
0
 10
-38.602036
 20
-87.362518
 11
-38.602036
 21
-88.362518
  0
LINE
  8
0
 10
-33.602036
 20
-87.362518
 11
-33.602036
 21
-88.362518
  0
LINE
  8
0
 10
-39.402039
 20
-82.662521
 11
-33.102036
 21
-82.662521
  0
LINE
  8
0
 62
     4
 10
0.397964
 20
-86.612526
 11
2.397961
 21
-86.612526
  0
LINE
  8
0
 62
     4
 10
0.397964
 20
-82.512520
 11
2.397961
 21
-82.512520
  0
LINE
  8
0
 62
     4
 10
-19.602039
 20
-82.962517
 11
-19.602039
 21
-86.162514
  0
LINE
  8
0
 62
     4
 10
2.397961
 20
-82.512520
 11
2.397961
 21
-86.612526
  0
LINE
  8
0
 62
     4
 10
-18.636259
 20
-85.264565
 11
-16.899988
 21
-83.528290
  0
LINE
  8
0
 62
     4
 10
-18.278324
 20
-85.613770
 11
-16.550781
 21
-83.886223
  0
LINE
  8
0
 62
     4
 10
2.397961
 20
-83.262520
 11
9.647392
 21
-83.262520
  0
LINE
  8
0
 62
     4
 10
2.397961
 20
-85.862526
 11
11.148506
 21
-85.862526
  0
LINE
  8
0
 62
     1
 10
9.147932
 20
-82.397430
 11
11.647933
 21
-86.727554
  0
LINE
  8
0
 10
0.397964
 20
-86.162514
 11
0.397964
 21
-95.562523
  0
LINE
  8
0
 62
     4
 10
0.397964
 20
-86.162514
 11
2.397961
 21
-86.162514
  0
LINE
  8
0
 62
     4
 10
0.397964
 20
-82.962532
 11
2.397961
 21
-82.962532
  0
LINE
  8
0
 10
-194.250000
 20
132.600006
 11
194.800003
 21
132.600006
  0
LINE
  8
0
 10
194.800003
 20
132.600006
 11
194.800003
 21
-133.500000
  0
LINE
  8
0
 10
-194.250000
 20
132.600006
 11
-194.250000
 21
-133.500000
  0
LINE
  8
0
 10
-194.250000
 20
-133.500000
 11
194.800003
 21
-133.500000
  0
LINE
  8
0
 10
109.800003
 20
-118.500000
 11
109.800003
 21
-133.500000
  0
LINE
  8
0
 10
109.800003
 20
-118.500000
 11
194.800003
 21
-118.500000
  0
LINE
  8
0
 10
109.800003
 20
132.600006
 11
109.800003
 21
117.600006
  0
LINE
  8
0
 10
109.800003
 20
117.600006
 11
194.800003
 21
117.600006
  0
LINE
  8
0
 10
-194.250000
 20
117.600006
 11
-109.250000
 21
117.600006
  0
LINE
  8
0
 10
-109.250000
 20
132.600006
 11
-109.250000
 21
117.600006
  0
CIRCLE
  8
0
  6
DASHED
 62
     2
 10
-22.102036
 20
-18.862530
 40
1.650000
  0
CIRCLE
  8
0
  6
DASHED
 62
     2
 10
-22.102036
 20
5.137470
 40
1.650000
  0
CIRCLE
  8
0
  6
DASHED
 62
     2
 10
-22.102036
 20
5.137470
 40
2.000000
  0
CIRCLE
  8
0
  6
DASHED
 62
     2
 10
-22.102036
 20
-18.862530
 40
2.000000
  0
CIRCLE
  8
0
 10
-45.102036
 20
-12.662531
 40
1.500000
  0
CIRCLE
  8
0
 10
-36.102036
 20
-19.362528
 40
1.500000
  0
CIRCLE
  8
0
 10
-45.102036
 20
-1.062528
 40
1.500000
  0
CIRCLE
  8
0
 10
-36.102036
 20
5.637472
 40
1.500000
  0
CIRCLE
  8
0
 62
     4
 10
94.572975
 20
5.587475
 40
1.300000
  0
CIRCLE
  8
0
 62
     4
 10
94.572945
 20
-19.312527
 40
1.300000
  0
CIRCLE
  8
0
 10
101.572945
 20
-19.862537
 40
1.650000
  0
CIRCLE
  8
0
 10
94.572960
 20
-6.862526
 40
8.500000
  0
ARC
  8
0
 10
94.572975
 20
5.237473
 40
2.099998
 50
179.999969
 51
0.000013
  0
ARC
  8
0
 10
84.072983
 20
9.637489
 40
0.500000
 50
90.000000
 51
180.000000
  0
ARC
  8
0
 10
105.072990
 20
9.637459
 40
0.500000
 50
0.000000
 51
90.000000
  0
ARC
  8
0
 10
97.272987
 20
9.837471
 40
0.300000
 50
90.000000
 51
180.000000
  0
ARC
  8
0
 10
94.572945
 20
-18.962524
 40
2.099998
 50
0.000000
 51
180.000000
  0
ARC
  8
0
 10
91.872932
 20
-23.562527
 40
0.299999
 50
270.000000
 51
0.000000
  0
ARC
  8
0
 10
97.272942
 20
-23.562534
 40
0.300003
 50
180.000000
 51
270.000000
  0
ARC
  8
0
 10
84.072937
 20
-23.362511
 40
0.500000
 50
180.000000
 51
270.000000
  0
ARC
  8
0
 10
105.072945
 20
-23.362541
 40
0.500000
 50
270.000000
 51
0.000000
  0
CIRCLE
  8
0
 62
     2
 10
101.572945
 20
-19.862537
 40
2.000000
  0
CIRCLE
  8
0
 62
     2
 10
87.572983
 20
6.137484
 40
2.000000
  0
ARC
  8
0
 10
91.872978
 20
9.837479
 40
0.300003
 50
0.000000
 51
90.000000
  0
CIRCLE
  8
0
 10
87.572983
 20
6.137484
 40
1.650000
  0
CIRCLE
  8
0
 62
     4
 10
-26.102020
 20
57.752480
 40
1.250000
  0
CIRCLE
  8
0
 62
     4
 10
-26.102020
 20
57.752480
 40
1.400000
  0
CIRCLE
  8
0
 10
-21.602036
 20
51.752476
 40
2.100000
  0
CIRCLE
  8
0
 62
     2
 10
-21.602036
 20
51.752476
 40
2.500000
  0
ARC
  8
0
 10
-7.102036
 20
63.752480
 40
4.250000
 50
302.106842
 51
237.893173
  0
CIRCLE
  8
0
 62
     2
 10
-7.102036
 20
63.752480
 40
2.500000
  0
CIRCLE
  8
0
 62
     2
 10
-59.102036
 20
57.752472
 40
1.500000
  0
CIRCLE
  8
0
 62
     2
 10
-67.102036
 20
57.752472
 40
1.500000
  0
ARC
  8
0
 10
-21.602036
 20
51.752476
 40
4.250000
 50
122.106834
 51
57.893169
  0
CIRCLE
  8
0
 10
-67.102036
 20
57.752472
 40
1.250000
  0
CIRCLE
  8
0
 10
-59.102036
 20
57.752472
 40
1.250000
  0
CIRCLE
  8
0
 10
-7.102036
 20
63.752480
 40
2.100000
  0
CIRCLE
  8
0
 62
     4
 10
-17.602024
 20
-84.562523
 40
1.250000
  0
CIRCLE
  8
0
 62
     4
 10
-17.602024
 20
-84.562523
 40
1.400000
  0
CIRCLE
  8
0
 10
-17.602036
 20
-91.562523
 40
1.650000
  0
CIRCLE
  8
0
 62
     2
 10
-17.602036
 20
-91.562523
 40
2.000000
  0
CIRCLE
  8
0
 62
     2
 10
-67.102036
 20
-84.562523
 40
1.500000
  0
CIRCLE
  8
0
 62
     2
 10
-59.102036
 20
-84.562523
 40
1.500000
  0
CIRCLE
  8
0
 62
     2
 10
-17.602036
 20
-77.562523
 40
2.000000
  0
CIRCLE
  8
0
 10
-67.102036
 20
-84.562523
 40
1.250000
  0
CIRCLE
  8
0
 10
-59.102036
 20
-84.562523
 40
1.250000
  0
CIRCLE
  8
0
 10
-17.602036
 20
-77.562523
 40
1.650000
  0
TEXT
  8
0
 10
133.907150
 20
122.050003
 40
4.500000
  1
Ver. 1.0
 50
0.000000
 41
1.052631
 51
0.000000
  7
STANDARD
  0
TEXT
  8
0
 10
113.700279
 20
-130.669998
 40
6.300000
  1
KOGANEI CORP.
 50
0.000000
 41
1.052632
 51
0.000000
  7
STANDARD
  0
TEXT
  8
0
 10
-170.142654
 20
122.050003
 40
4.500000
  1
AIR HAND
 50
0.000000
 41
1.052632
 51
0.000000
  7
STANDARD
  0
TEXT
  8
0
 10
-159.792648
 20
97.550003
 40
4.500000
  1
NHBRP-16-ZE135A2
 50
0.000000
 41
1.052632
 51
0.000000
  7
STANDARD
  0
TEXT
  8
0
 10
-186.892654
 20
104.550003
 40
4.500000
  1
MODEL:NHBDP-16-ZE135A2
 50
0.000000
 41
1.052632
 51
0.000000
  7
STANDARD
  0
ENDSEC
  0
EOF
