  0
SECTION
  2
HEADER
  0
ENDSEC
  0
SECTION
  2
TABLES
  0
TABLE
  2
LTYPE
 70
     4
  0
LTYPE
  2
CONTINUOUS
 70
    64
  3
Solid line
 72
    65
 73
     0
 40
0.000000
  0
LTYPE
  2
DASHED
 70
    64
  3
__ __ __ __ __ __ __ __ __ __ __ __ __ __ __
 72
    65
 73
     2
 40
3.500000
 49
2.000000
 49
-1.500000
  0
LTYPE
  2
CENTER
 70
    64
  3
____ _ ____ _ ____ _ ____ _ ____ _ ____ _ ____
 72
    65
 73
     4
 40
17.500000
 49
13.000000
 49
-1.500000
 49
1.500000
 49
-1.500000
  0
LTYPE
  2
PHANTOM
 70
    64
  3
_____ _ _ _____ _ _ _____ _ _ _____ _ _ ____  
 72
    65
 73
     6
 40
15.500000
 49
8.000000
 49
-1.500000
 49
1.500000
 49
-1.500000
 49
1.500000
 49
-1.500000
  0
LTYPE
  2
DASHED1
 70
    64
  3
__ __ __ __ __ __ __ __ __ __ __ __ __ __ __
 72
    65
 73
     2
 40
1.500000
 49
1.000000
 49
-0.500000
  0
LTYPE
  2
DASHED2
 70
    64
  3
__ __ __ __ __ __ __ __ __ __ __ __ __ __ __
 72
    65
 73
     2
 40
3.500000
 49
2.500000
 49
-1.000000
  0
LTYPE
  2
DASHED3
 70
    64
  3
__ __ __ __ __ __ __ __ __ __ __ __ __ __ __
 72
    65
 73
     2
 40
6.000000
 49
4.000000
 49
-2.000000
  0
LTYPE
  2
DASHED4
 70
    64
  3
__ __ __ __ __ __ __ __ __ __ __ __ __ __ __
 72
    65
 73
     2
 40
12.000000
 49
10.000000
 49
-2.000000
  0
LTYPE
  2
DASHED5
 70
    64
  3
__ __ __ __ __ __ __ __ __ __ __ __ __ __ __
 72
    65
 73
     2
 40
17.000000
 49
15.000000
 49
-2.000000
  0
LTYPE
  2
DASHED6
 70
    64
  3
__ __ __ __ __ __ __ __ __ __ __ __ __ __ __
 72
    65
 73
     2
 40
29.000000
 49
27.000000
 49
-2.000000
  0
LTYPE
  2
PHANTOM1
 70
    64
  3
_____ _ _ _____ _ _ _____ _ _ _____ _ _ ____  
 72
    65
 73
     6
 40
31.000000
 49
25.000000
 49
-1.500000
 49
1.000000
 49
-1.000000
 49
1.000000
 49
-1.500000
  0
LTYPE
  2
PHANTOM2
 70
    64
  3
_____ _ _ _____ _ _ _____ _ _ _____ _ _ ____  
 72
    65
 73
     6
 40
36.000000
 49
27.000000
 49
-1.500000
 49
2.500000
 49
-1.000000
 49
2.500000
 49
-1.500000
  0
LTYPE
  2
PHANTOM3
 70
    64
  3
_____ _ _ _____ _ _ _____ _ _ _____ _ _ ____  
 72
    65
 73
     6
 40
78.000000
 49
64.000000
 49
-2.000000
 49
4.000000
 49
-2.000000
 49
4.000000
 49
-2.000000
  0
LTYPE
  2
CENTER1
 70
    64
  3
____ _ ____ _ ____ _ ____ _ ____ _ ____ _ ____
 72
    65
 73
     4
 40
19.000000
 49
14.000000
 49
-1.000000
 49
3.000000
 49
-1.000000
  0
LTYPE
  2
CENTER2
 70
    64
  3
____ _ ____ _ ____ _ ____ _ ____ _ ____ _ ____
 72
    65
 73
     4
 40
28.500000
 49
25.000000
 49
-1.000000
 49
1.500000
 49
-1.000000
  0
LTYPE
  2
CENTER3
 70
    64
  3
____ _ ____ _ ____ _ ____ _ ____ _ ____ _ ____
 72
    65
 73
     4
 40
31.500000
 49
27.000000
 49
-1.000000
 49
2.500000
 49
-1.000000
  0
LTYPE
  2
CENTER4
 70
    64
  3
____ _ ____ _ ____ _ ____ _ ____ _ ____ _ ____
 72
    65
 73
     4
 40
50.000000
 49
45.000000
 49
-1.000000
 49
3.000000
 49
-1.000000
  0
LTYPE
  2
CENTER5
 70
    64
  3
____ _ ____ _ ____ _ ____ _ ____ _ ____ _ ____
 72
    65
 73
     4
 40
100.000000
 49
92.000000
 49
-2.000000
 49
4.000000
 49
-2.000000
  0
LTYPE
  2
SBK1
 70
    64
  3
______ _ _ _ ______ _ _ _ ______ _ _ _ _____  
 72
    65
 73
     8
 40
60.500000
 49
45.000000
 49
-2.000000
 49
2.500000
 49
-2.000000
 49
2.500000
 49
-2.000000
 49
2.500000
 49
-2.000000
  0
LTYPE
  2
SBK2
 70
    64
  3
______ _ _ _ ______ _ _ _ ______ _ _ _ _____  
 72
    65
 73
     8
 40
84.000000
 49
64.000000
 49
-2.000000
 49
4.000000
 49
-2.000000
 49
4.000000
 49
-2.000000
 49
4.000000
 49
-2.000000
  0
LTYPE
  2
STCH
 70
    64
  3
__ __ __ __ __ __ __ __ __ __ __ __ __ __ __
 72
    65
 73
     2
 40
3.000000
 49
1.000000
 49
-2.000000
  0
LTYPE
  2
MTCH
 70
    64
  3
_____ _ _ _____ _ _ _____ _ _ _____ _ _ ____  
 72
    65
 73
     6
 40
80.000000
 49
66.000000
 49
-2.000000
 49
4.000000
 49
-2.000000
 49
4.000000
 49
-2.000000
  0
ENDTAB
  0
TABLE
  2
LAYER
 70
     1
  0
LAYER
  2
0
 70
     0
 62
     7
  6
CONTINUOUS
  0
ENDTAB
  0
TABLE
  2
STYLE
 70
     1
  0
STYLE
  2
STANDARD
 70
     0
 40
0.000000
 41
1.000000
 50
0.000000
 71
     0
 42
0.200000
  3
txt
  4
BIGFONT
  0
ENDTAB
  0
TABLE
  2
VIEW
 70
     0
  0
ENDTAB
  0
ENDSEC
  0
SECTION
  2
BLOCKS
  0
ENDSEC
  0
SECTION
  2
ENTITIES
  0
LINE
  8
0
  6
CENTER
 62
     2
 10
-58.588364
 20
-4.772524
 11
22.536346
 21
-4.772524
  0
LINE
  8
0
 10
-48.557037
 20
-27.272522
 11
17.942963
 21
-27.272522
  0
LINE
  8
0
  6
CENTER
 62
     2
 10
-7.057037
 20
-15.979939
 11
-7.057037
 21
-23.589912
  0
LINE
  8
0
  6
CENTER
 62
     2
 10
-11.129799
 20
-19.772524
 11
-3.104736
 21
-19.772524
  0
LINE
  8
0
  6
CENTER
 62
     2
 10
-24.557037
 20
7.934894
 11
-24.557037
 21
15.544867
  0
LINE
  8
0
  6
CENTER
 62
     2
 10
-28.768158
 20
11.727476
 11
-20.466373
 21
11.727476
  0
LINE
  8
0
 10
-48.557037
 20
17.727476
 11
17.942963
 21
17.727476
  0
LINE
  8
0
 10
17.942963
 20
17.727480
 11
17.942963
 21
-27.272518
  0
LINE
  8
0
 10
-48.557037
 20
17.727476
 11
-48.557037
 21
-27.272522
  0
LINE
  8
0
 10
-67.557037
 20
17.227476
 11
-48.557037
 21
17.227476
  0
LINE
  8
0
 10
-67.557037
 20
11.227476
 11
-49.057037
 21
11.227476
  0
LINE
  8
0
 10
-67.557037
 20
17.227476
 11
-67.557037
 21
11.227475
  0
LINE
  8
0
 10
-49.057037
 20
11.227476
 11
-49.057037
 21
1.227476
  0
LINE
  8
0
 10
-49.057037
 20
1.227476
 11
-48.557037
 21
1.227476
  0
LINE
  8
0
 10
-49.057037
 20
-20.772524
 11
-49.057037
 21
-10.772524
  0
LINE
  8
0
 10
-49.057037
 20
-10.772524
 11
-48.557037
 21
-10.772524
  0
LINE
  8
0
 10
-67.557037
 20
-26.772522
 11
-48.557037
 21
-26.772522
  0
LINE
  8
0
 10
-67.557037
 20
-20.772524
 11
-49.057037
 21
-20.772524
  0
LINE
  8
0
 10
-67.557037
 20
-26.772522
 11
-67.557037
 21
-20.772526
  0
LINE
  8
0
 62
     4
 10
17.942963
 20
-17.422535
 11
19.942963
 21
-17.422535
  0
LINE
  8
0
 62
     4
 10
17.942963
 20
-22.022537
 11
19.942963
 21
-22.022537
  0
LINE
  8
0
 62
     4
 10
19.942963
 20
-17.422531
 11
19.942963
 21
-22.022533
  0
LINE
  8
0
 62
     4
 10
17.942963
 20
-21.022512
 11
19.942963
 21
-21.022512
  0
LINE
  8
0
 62
     4
 10
17.942963
 20
-21.572531
 11
19.942963
 21
-21.572531
  0
LINE
  8
0
 62
     4
 10
19.942963
 20
-18.422520
 11
29.192406
 21
-18.422520
  0
LINE
  8
0
 62
     4
 10
19.942963
 20
-21.022528
 11
30.693520
 21
-21.022528
  0
LINE
  8
0
 62
     1
 10
28.692940
 20
-17.557419
 11
31.192940
 21
-21.887547
  0
LINE
  8
0
 62
     4
 10
17.942963
 20
11.477480
 11
29.192406
 21
11.477480
  0
LINE
  8
0
 62
     4
 10
17.942963
 20
8.877472
 11
30.693520
 21
8.877472
  0
LINE
  8
0
 62
     1
 10
28.692940
 20
12.342581
 11
31.192942
 21
8.012450
  0
LINE
  8
0
  6
CENTER
 62
     2
 10
-7.057037
 20
6.434895
 11
-7.057037
 21
14.044868
  0
LINE
  8
0
  6
CENTER
 62
     2
 10
-11.268162
 20
10.227476
 11
-2.966373
 21
10.227476
  0
LINE
  8
0
  6
CENTER
 62
     2
 10
-24.557037
 20
-25.065109
 11
-24.557037
 21
-17.455132
  0
LINE
  8
0
  6
CENTER
 62
     2
 10
-28.768158
 20
-21.272524
 11
-20.466373
 21
-21.272524
  0
LINE
  8
0
  6
CENTER
 62
     2
 10
-35.557037
 20
-16.165104
 11
-35.557037
 21
-8.555130
  0
LINE
  8
0
  6
CENTER
 62
     2
 10
-39.768158
 20
-12.372522
 11
-31.466370
 21
-12.372522
  0
LINE
  8
0
  6
CENTER
 62
     2
 10
-35.557037
 20
-0.965108
 11
-35.557037
 21
6.644866
  0
LINE
  8
0
  6
CENTER
 62
     2
 10
-39.768158
 20
2.827475
 11
-31.466370
 21
2.827475
  0
LINE
  8
0
  6
CENTER
 62
     2
 10
-63.557037
 20
20.227476
 11
-63.557037
 21
8.227476
  0
LINE
  8
0
  6
CENTER
 62
     2
 10
-53.557037
 20
20.227476
 11
-53.557037
 21
8.227476
  0
LINE
  8
0
  6
CENTER
 62
     2
 10
-53.557037
 20
-29.772524
 11
-53.557037
 21
-17.772524
  0
LINE
  8
0
  6
CENTER
 62
     2
 10
-63.557037
 20
-29.772524
 11
-63.557037
 21
-17.772524
  0
LINE
  8
0
 10
92.302956
 20
-27.272526
 11
92.302956
 21
17.727476
  0
LINE
  8
0
 10
92.302956
 20
-27.272526
 11
102.502953
 21
-27.272526
  0
LINE
  8
0
 10
103.702957
 20
-22.472527
 11
103.702957
 21
-21.472527
  0
LINE
  8
0
 10
103.202957
 20
-20.972527
 11
103.202957
 21
-19.372528
  0
LINE
  8
0
 10
103.703026
 20
-21.472471
 11
103.203026
 21
-20.972471
  0
LINE
  8
0
 10
102.802956
 20
-26.972530
 11
102.802956
 21
-23.372524
  0
LINE
  8
0
 10
102.803032
 20
-23.372616
 11
103.703033
 21
-22.472612
  0
LINE
  8
0
 10
107.402954
 20
-20.972527
 11
107.402954
 21
-19.372528
  0
LINE
  8
0
 10
106.903030
 20
-21.472588
 11
107.403030
 21
-20.972586
  0
LINE
  8
0
 10
107.802956
 20
-26.972530
 11
107.802956
 21
-23.372524
  0
LINE
  8
0
 10
107.803009
 20
-23.372488
 11
106.903008
 21
-22.472485
  0
LINE
  8
0
 10
106.902954
 20
-22.472527
 11
106.902954
 21
-21.472527
  0
LINE
  8
0
 10
108.102959
 20
-27.272526
 11
118.302956
 21
-27.272526
  0
LINE
  8
0
 10
118.302956
 20
-27.272526
 11
118.302956
 21
17.727476
  0
LINE
  8
0
 10
107.403030
 20
11.427565
 11
106.903030
 21
11.927566
  0
LINE
  8
0
 10
92.302956
 20
17.727476
 11
102.502953
 21
17.727476
  0
LINE
  8
0
 10
103.202957
 20
9.827474
 11
103.202957
 21
11.427473
  0
LINE
  8
0
 10
103.202972
 20
11.427461
 11
103.702972
 21
11.927462
  0
LINE
  8
0
 10
102.802956
 20
17.427477
 11
102.802956
 21
13.827478
  0
LINE
  8
0
 10
102.803032
 20
13.827563
 11
103.703033
 21
12.927565
  0
LINE
  8
0
 10
103.702957
 20
12.927473
 11
103.702957
 21
11.927473
  0
LINE
  8
0
 10
106.902954
 20
12.927473
 11
106.902954
 21
11.927473
  0
LINE
  8
0
 10
108.102959
 20
17.727476
 11
118.302956
 21
17.727476
  0
LINE
  8
0
 10
107.802956
 20
17.427477
 11
107.802956
 21
13.827475
  0
LINE
  8
0
 10
107.803009
 20
13.827436
 11
106.903000
 21
12.927432
  0
LINE
  8
0
 10
107.402954
 20
9.827474
 11
107.402954
 21
11.427473
  0
LINE
  8
0
  6
CENTER
 62
     2
 10
97.302956
 20
16.477476
 11
97.302956
 21
8.977475
  0
LINE
  8
0
  6
CENTER
 62
     2
 10
93.552956
 20
12.727476
 11
101.052956
 21
12.727476
  0
LINE
  8
0
 62
     4
 10
106.802956
 20
12.477465
 11
103.802956
 21
12.477465
  0
LINE
  8
0
 62
     4
 10
103.802956
 20
12.477465
 11
103.802956
 21
12.027468
  0
LINE
  8
0
 62
     4
 10
103.702950
 20
11.927488
 11
103.802963
 21
12.027503
  0
LINE
  8
0
 62
     4
 10
106.552956
 20
12.977465
 11
106.552956
 21
12.477465
  0
LINE
  8
0
 62
     4
 10
104.052956
 20
12.977465
 11
104.052956
 21
12.477465
  0
LINE
  8
0
 62
     4
 10
106.552956
 20
12.977465
 11
104.052956
 21
12.977465
  0
LINE
  8
0
 62
     4
 10
106.902954
 20
11.927494
 11
106.802940
 21
12.027501
  0
LINE
  8
0
 62
     4
 10
106.802956
 20
12.477465
 11
106.802956
 21
12.027468
  0
LINE
  8
0
 62
     4
 10
106.802956
 20
-22.022514
 11
103.802956
 21
-22.022514
  0
LINE
  8
0
 62
     4
 10
103.802956
 20
-22.022514
 11
103.802956
 21
-21.572517
  0
LINE
  8
0
 62
     4
 10
103.702957
 20
-21.472544
 11
103.802963
 21
-21.572554
  0
LINE
  8
0
 62
     4
 10
106.552956
 20
-22.522514
 11
106.552956
 21
-22.022514
  0
LINE
  8
0
 62
     4
 10
104.052956
 20
-22.522514
 11
104.052956
 21
-22.022514
  0
LINE
  8
0
 62
     4
 10
106.552956
 20
-22.522514
 11
104.052956
 21
-22.522514
  0
LINE
  8
0
 62
     4
 10
106.902954
 20
-21.472538
 11
106.802933
 21
-21.572552
  0
LINE
  8
0
 62
     4
 10
106.802956
 20
-22.022514
 11
106.802956
 21
-21.572517
  0
LINE
  8
0
  6
CENTER
 62
     2
 10
88.768555
 20
-4.772525
 11
122.114082
 21
-4.772525
  0
LINE
  8
0
  6
CENTER
 62
     2
 10
105.302956
 20
20.824663
 11
105.302956
 21
-29.816257
  0
LINE
  8
0
  6
CENTER
 62
     2
 10
113.302956
 20
-18.522526
 11
113.302956
 21
-26.022526
  0
LINE
  8
0
  6
CENTER
 62
     2
 10
109.552956
 20
-22.272526
 11
117.052956
 21
-22.272526
  0
LINE
  8
0
  6
CENTER
 62
     2
 10
-73.221825
 20
60.212494
 11
30.942947
 21
60.212494
  0
LINE
  8
0
  6
CENTER
 62
     2
 10
-12.236721
 20
53.712494
 11
-0.890942
 21
53.712494
  0
LINE
  8
0
  6
CENTER
 62
     2
 10
3.951771
 20
66.712494
 11
15.851006
 21
66.712494
  0
LINE
  8
0
 10
-15.057053
 20
62.612503
 11
17.942947
 21
62.612503
  0
LINE
  8
0
 10
-15.057053
 20
57.812500
 11
17.942947
 21
57.812500
  0
LINE
  8
0
  6
CENTER
 62
     2
 10
-7.057053
 20
60.423416
 11
-7.057053
 21
75.847534
  0
LINE
  8
0
 10
-48.557053
 20
73.212494
 11
17.942947
 21
73.212494
  0
LINE
  8
0
 10
-48.557053
 20
47.212494
 11
17.942947
 21
47.212494
  0
LINE
  8
0
 10
-28.057053
 20
54.712494
 11
-15.057053
 21
54.712494
  0
LINE
  8
0
 10
-28.057053
 20
54.012497
 11
-28.057053
 21
54.712494
  0
LINE
  8
0
 10
-48.557053
 20
54.012497
 11
-28.057053
 21
54.012497
  0
LINE
  8
0
 10
-48.557053
 20
66.412491
 11
-28.057053
 21
66.412491
  0
LINE
  8
0
 10
-28.057053
 20
65.712494
 11
-28.057053
 21
66.412491
  0
LINE
  8
0
 10
-28.057053
 20
65.712494
 11
-15.057053
 21
65.712494
  0
LINE
  8
0
 10
-15.057053
 20
54.712494
 11
-15.057053
 21
65.712494
  0
LINE
  8
0
 10
-48.557053
 20
66.412491
 11
-48.557053
 21
73.212494
  0
LINE
  8
0
 10
-48.557053
 20
47.212494
 11
-48.557053
 21
54.012497
  0
LINE
  8
0
 10
17.942947
 20
47.212494
 11
17.942947
 21
58.912491
  0
LINE
  8
0
 10
-67.557053
 20
54.212494
 11
-67.557053
 21
66.212494
  0
LINE
  8
0
 10
-67.557053
 20
54.212494
 11
-45.257050
 21
54.212494
  0
LINE
  8
0
 10
-67.557053
 20
66.212494
 11
-29.057053
 21
66.212494
  0
LINE
  8
0
 10
-29.057053
 20
54.212494
 11
-29.057053
 21
57.962494
  0
LINE
  8
0
 10
-45.257050
 20
54.212494
 11
-45.257050
 21
62.462494
  0
LINE
  8
0
 10
-45.257050
 20
62.462494
 11
-28.557053
 21
62.462494
  0
LINE
  8
0
 10
-45.057053
 20
57.962494
 11
-20.557053
 21
57.962494
  0
LINE
  8
0
 10
-45.057053
 20
54.212494
 11
-45.057053
 21
57.962494
  0
LINE
  8
0
 10
-45.057053
 20
54.212494
 11
-29.057053
 21
54.212494
  0
LINE
  8
0
 10
-29.057053
 20
62.462494
 11
-29.057053
 21
66.212494
  0
LINE
  8
0
 10
-19.557053
 20
55.212494
 11
-19.557053
 21
65.212494
  0
LINE
  8
0
 10
-28.557053
 20
55.462494
 11
-28.557053
 21
57.962494
  0
LINE
  8
0
 10
-19.557053
 20
65.212494
 11
-15.057053
 21
65.212494
  0
LINE
  8
0
 10
-19.557053
 20
55.212494
 11
-15.057053
 21
55.212494
  0
LINE
  8
0
 10
-28.557053
 20
55.462494
 11
-19.557053
 21
55.462494
  0
LINE
  8
0
 10
-28.557053
 20
64.962494
 11
-26.557053
 21
64.962494
  0
LINE
  8
0
 10
-20.557053
 20
63.112488
 11
-20.557053
 21
57.962494
  0
LINE
  8
0
 10
-26.557053
 20
65.712494
 11
-26.557053
 21
63.112488
  0
LINE
  8
0
 10
-22.557053
 20
65.712494
 11
-22.557053
 21
63.112488
  0
LINE
  8
0
 10
-28.557053
 20
63.112488
 11
-20.557053
 21
63.112488
  0
LINE
  8
0
 10
-28.557053
 20
56.462494
 11
-20.557053
 21
56.462494
  0
LINE
  8
0
 10
-20.557053
 20
57.962494
 11
-20.557053
 21
56.462494
  0
LINE
  8
0
 10
-28.057053
 20
56.462494
 11
-28.057053
 21
55.462494
  0
LINE
  8
0
 10
-21.057053
 20
56.462494
 11
-21.057053
 21
55.462494
  0
LINE
  8
0
 10
-26.557053
 20
55.462494
 11
-26.557053
 21
54.712494
  0
LINE
  8
0
 10
-22.557053
 20
55.462494
 11
-22.557053
 21
54.712494
  0
LINE
  8
0
 10
-28.557053
 20
62.462494
 11
-28.557053
 21
64.962494
  0
LINE
  8
0
 10
-22.557053
 20
64.962494
 11
-19.557053
 21
64.962494
  0
LINE
  8
0
  6
CENTER
 62
     2
 10
-63.557053
 20
63.212494
 11
-63.557053
 21
57.212494
  0
LINE
  8
0
  6
CENTER
 62
     2
 10
-53.557053
 20
63.212494
 11
-53.557053
 21
57.212494
  0
LINE
  8
0
  6
CENTER
 62
     2
 10
9.942947
 20
72.526817
 11
9.942947
 21
61.712494
  0
LINE
  8
0
  6
CENTER
 62
     2
 10
-6.557053
 20
58.712494
 11
-6.557053
 21
47.898170
  0
LINE
  8
0
 62
     4
 10
-14.057053
 20
61.812500
 11
-14.057053
 21
58.612503
  0
LINE
  8
0
 62
     4
 10
7.942947
 20
61.812500
 11
7.942947
 21
58.612503
  0
LINE
  8
0
 62
     4
 10
-13.091283
 20
59.510468
 11
-11.355010
 21
61.246738
  0
LINE
  8
0
 62
     4
 10
-12.733355
 20
59.161259
 11
-11.005804
 21
60.888805
  0
LINE
  8
0
 62
     4
 10
7.942947
 20
61.512497
 11
27.192383
 21
61.512497
  0
LINE
  8
0
 62
     4
 10
7.942947
 20
58.912491
 11
28.693497
 21
58.912491
  0
LINE
  8
0
 62
     1
 10
26.692926
 20
62.377594
 11
29.192926
 21
58.047466
  0
LINE
  8
0
 10
-15.057053
 20
61.812500
 11
17.942947
 21
61.812500
  0
LINE
  8
0
 10
-15.057053
 20
58.612503
 11
17.942947
 21
58.612503
  0
LINE
  8
0
 10
17.942947
 20
61.512497
 11
17.942947
 21
73.212494
  0
LINE
  8
0
 10
-15.057030
 20
-79.777504
 11
17.942970
 21
-79.777504
  0
LINE
  8
0
 10
-15.057030
 20
-78.977501
 11
17.942970
 21
-78.977501
  0
LINE
  8
0
 10
-15.057030
 20
-82.977501
 11
17.942970
 21
-82.977501
  0
LINE
  8
0
 10
-15.057030
 20
-83.777504
 11
17.942970
 21
-83.777504
  0
LINE
  8
0
  6
CENTER
 62
     2
 10
-7.057030
 20
-81.588432
 11
-7.057030
 21
-98.108444
  0
LINE
  8
0
 10
-48.557030
 20
-68.377510
 11
17.942970
 21
-68.377510
  0
LINE
  8
0
 10
-48.557030
 20
-94.377502
 11
17.942970
 21
-94.377502
  0
LINE
  8
0
 10
-28.057030
 20
-86.877502
 11
-15.057030
 21
-86.877502
  0
LINE
  8
0
 10
-28.057030
 20
-87.577499
 11
-28.057030
 21
-86.877502
  0
LINE
  8
0
 10
-48.557030
 20
-87.577499
 11
-28.057030
 21
-87.577499
  0
LINE
  8
0
 10
-48.557030
 20
-75.177513
 11
-28.057030
 21
-75.177513
  0
LINE
  8
0
 10
-28.057030
 20
-75.877510
 11
-28.057030
 21
-75.177513
  0
LINE
  8
0
 10
-28.057030
 20
-75.877510
 11
-15.057030
 21
-75.877510
  0
LINE
  8
0
 10
-15.057030
 20
-86.877502
 11
-15.057030
 21
-75.877510
  0
LINE
  8
0
 10
-48.557030
 20
-75.177513
 11
-48.557030
 21
-68.377510
  0
LINE
  8
0
 10
-48.557030
 20
-94.377502
 11
-48.557030
 21
-87.577499
  0
LINE
  8
0
 10
17.942970
 20
-94.377502
 11
17.942970
 21
-82.977501
  0
LINE
  8
0
 10
-67.557030
 20
-87.377502
 11
-67.557030
 21
-75.377510
  0
LINE
  8
0
 10
-67.557030
 20
-87.377502
 11
-45.257027
 21
-87.377502
  0
LINE
  8
0
 10
-67.557030
 20
-75.377510
 11
-29.057030
 21
-75.377510
  0
LINE
  8
0
 10
-29.057030
 20
-87.377502
 11
-29.057030
 21
-83.627510
  0
LINE
  8
0
 10
-45.257027
 20
-87.377502
 11
-45.257027
 21
-79.127510
  0
LINE
  8
0
 10
-45.257027
 20
-79.127510
 11
-28.557030
 21
-79.127510
  0
LINE
  8
0
 10
-45.057030
 20
-83.627510
 11
-20.557030
 21
-83.627510
  0
LINE
  8
0
 10
-45.057030
 20
-87.377502
 11
-45.057030
 21
-83.627510
  0
LINE
  8
0
 10
-45.057030
 20
-87.377502
 11
-29.057030
 21
-87.377502
  0
LINE
  8
0
 10
-29.057030
 20
-79.127510
 11
-29.057030
 21
-75.377510
  0
LINE
  8
0
 10
-19.557030
 20
-86.377510
 11
-19.557030
 21
-76.377510
  0
LINE
  8
0
 10
-28.557030
 20
-86.127510
 11
-28.557030
 21
-83.627510
  0
LINE
  8
0
 10
-19.557030
 20
-76.377510
 11
-15.057030
 21
-76.377510
  0
LINE
  8
0
 10
-19.557030
 20
-86.377510
 11
-15.057030
 21
-86.377510
  0
LINE
  8
0
 10
-28.557030
 20
-86.127510
 11
-19.557030
 21
-86.127510
  0
LINE
  8
0
 10
-28.557030
 20
-76.627510
 11
-26.557030
 21
-76.627510
  0
LINE
  8
0
 10
-20.557030
 20
-78.477509
 11
-20.557030
 21
-83.627510
  0
LINE
  8
0
 10
-26.557030
 20
-75.877510
 11
-26.557030
 21
-78.477509
  0
LINE
  8
0
 10
-22.557030
 20
-75.877510
 11
-22.557030
 21
-78.477509
  0
LINE
  8
0
 10
-28.557030
 20
-78.477509
 11
-20.557030
 21
-78.477509
  0
LINE
  8
0
 10
-28.557030
 20
-85.127510
 11
-20.557030
 21
-85.127510
  0
LINE
  8
0
 10
-20.557030
 20
-83.627510
 11
-20.557030
 21
-85.127510
  0
LINE
  8
0
 10
-28.057030
 20
-85.127510
 11
-28.057030
 21
-86.127510
  0
LINE
  8
0
 10
-21.057030
 20
-85.127510
 11
-21.057030
 21
-86.127510
  0
LINE
  8
0
 10
-26.557030
 20
-86.127510
 11
-26.557030
 21
-86.877502
  0
LINE
  8
0
 10
-22.557030
 20
-86.127510
 11
-22.557030
 21
-86.877502
  0
LINE
  8
0
 10
-28.557030
 20
-79.127510
 11
-28.557030
 21
-76.627510
  0
LINE
  8
0
 10
-22.557030
 20
-76.627510
 11
-19.557030
 21
-76.627510
  0
LINE
  8
0
  6
CENTER
 62
     2
 10
-63.557030
 20
-78.377510
 11
-63.557030
 21
-84.377510
  0
LINE
  8
0
  6
CENTER
 62
     2
 10
-53.557030
 20
-78.377510
 11
-53.557030
 21
-84.377510
  0
LINE
  8
0
  6
CENTER
 62
     2
 10
2.844887
 20
-73.377510
 11
-5.057030
 21
-73.377510
  0
LINE
  8
0
  6
CENTER
 62
     2
 10
-1.057030
 20
-69.377510
 11
-1.057030
 21
-77.377510
  0
LINE
  8
0
  6
CENTER
 62
     2
 10
2.942970
 20
-89.377502
 11
-5.057030
 21
-89.377502
  0
LINE
  8
0
  6
CENTER
 62
     2
 10
-1.057030
 20
-85.377510
 11
-1.057030
 21
-93.276741
  0
LINE
  8
0
  6
CENTER
 62
     2
 10
-71.988869
 20
-81.377510
 11
30.942970
 21
-81.377510
  0
LINE
  8
0
 62
     4
 10
17.942970
 20
-83.427513
 11
19.942970
 21
-83.427513
  0
LINE
  8
0
 62
     4
 10
17.942970
 20
-79.327507
 11
19.942970
 21
-79.327507
  0
LINE
  8
0
 62
     4
 10
-2.057030
 20
-79.777504
 11
-2.057030
 21
-82.977501
  0
LINE
  8
0
 62
     4
 10
19.942970
 20
-79.327507
 11
19.942970
 21
-83.427513
  0
LINE
  8
0
 62
     4
 10
-1.091251
 20
-82.079552
 11
0.645021
 21
-80.343285
  0
LINE
  8
0
 62
     4
 10
-0.733320
 20
-82.428757
 11
0.994228
 21
-80.701202
  0
LINE
  8
0
 62
     4
 10
19.942970
 20
-80.077507
 11
27.192413
 21
-80.077507
  0
LINE
  8
0
 62
     4
 10
19.942970
 20
-82.677513
 11
28.693527
 21
-82.677513
  0
LINE
  8
0
 62
     1
 10
26.692951
 20
-79.212418
 11
29.192953
 21
-83.542542
  0
LINE
  8
0
 10
17.942970
 20
-79.777504
 11
17.942970
 21
-68.377510
  0
LINE
  8
0
 62
     4
 10
17.942970
 20
-82.977501
 11
19.942970
 21
-82.977501
  0
LINE
  8
0
 62
     4
 10
17.942970
 20
-79.777504
 11
19.942970
 21
-79.777504
  0
LINE
  8
0
 10
-194.250000
 20
132.600006
 11
194.800003
 21
132.600006
  0
LINE
  8
0
 10
194.800003
 20
132.600006
 11
194.800003
 21
-133.500000
  0
LINE
  8
0
 10
-194.250000
 20
132.600006
 11
-194.250000
 21
-133.500000
  0
LINE
  8
0
 10
-194.250000
 20
-133.500000
 11
194.800003
 21
-133.500000
  0
LINE
  8
0
 10
109.800003
 20
-118.500000
 11
109.800003
 21
-133.500000
  0
LINE
  8
0
 10
109.800003
 20
-118.500000
 11
194.800003
 21
-118.500000
  0
LINE
  8
0
 10
109.800003
 20
132.600006
 11
109.800003
 21
117.600006
  0
LINE
  8
0
 10
109.800003
 20
117.600006
 11
194.800003
 21
117.600006
  0
LINE
  8
0
 10
-194.250000
 20
117.600006
 11
-109.250000
 21
117.600006
  0
LINE
  8
0
 10
-109.250000
 20
132.600006
 11
-109.250000
 21
117.600006
  0
CIRCLE
  8
0
 10
-24.557037
 20
11.727478
 40
2.000000
  0
CIRCLE
  8
0
 10
-35.557037
 20
2.827475
 40
2.000000
  0
CIRCLE
  8
0
 10
-24.557037
 20
-21.272522
 40
2.000000
  0
CIRCLE
  8
0
  6
DASHED
 62
     2
 10
-7.057037
 20
10.227478
 40
2.500000
  0
CIRCLE
  8
0
  6
DASHED
 62
     2
 10
-7.057037
 20
10.227478
 40
2.100000
  0
CIRCLE
  8
0
  6
DASHED
 62
     2
 10
-7.057037
 20
-19.772522
 40
2.100000
  0
CIRCLE
  8
0
  6
DASHED
 62
     2
 10
-7.057037
 20
-19.772522
 40
2.500000
  0
CIRCLE
  8
0
 10
-35.557037
 20
-12.372522
 40
2.000000
  0
CIRCLE
  8
0
 62
     4
 10
105.302956
 20
10.177475
 40
1.300000
  0
CIRCLE
  8
0
 62
     4
 10
105.302956
 20
-19.722525
 40
1.300000
  0
CIRCLE
  8
0
 10
113.302956
 20
-22.272526
 40
2.100000
  0
ARC
  8
0
 10
102.502953
 20
-26.972530
 40
0.299999
 50
270.000000
 51
0.000000
  0
ARC
  8
0
 10
105.302956
 20
-19.372528
 40
2.099998
 50
0.000000
 51
180.000000
  0
ARC
  8
0
 10
108.102959
 20
-26.972530
 40
0.300003
 50
180.000000
 51
270.000000
  0
CIRCLE
  8
0
 62
     2
 10
113.302956
 20
-22.272526
 40
2.500000
  0
CIRCLE
  8
0
 62
     2
 10
97.302956
 20
12.727476
 40
2.500000
  0
ARC
  8
0
 10
102.502953
 20
17.427477
 40
0.300003
 50
0.000000
 51
90.000000
  0
ARC
  8
0
 10
108.102959
 20
17.427477
 40
0.299999
 50
90.000000
 51
180.000000
  0
ARC
  8
0
 10
105.302956
 20
9.827474
 40
2.099998
 50
179.999969
 51
0.000000
  0
CIRCLE
  8
0
 10
105.302956
 20
-4.772525
 40
10.500000
  0
CIRCLE
  8
0
 10
97.302956
 20
12.727476
 40
2.100000
  0
CIRCLE
  8
0
 62
     4
 10
-12.057037
 20
60.212494
 40
1.250000
  0
CIRCLE
  8
0
 62
     4
 10
-12.057037
 20
60.212494
 40
1.400000
  0
CIRCLE
  8
0
 10
9.942947
 20
66.712494
 40
2.100000
  0
ARC
  8
0
 10
-6.557053
 20
53.712494
 40
4.250000
 50
105.267410
 51
74.732582
  0
ARC
  8
0
 10
9.942947
 20
66.712494
 40
4.250000
 50
285.267792
 51
254.732208
  0
CIRCLE
  8
0
 62
     2
 10
-6.557053
 20
53.712494
 40
2.500000
  0
CIRCLE
  8
0
 62
     2
 10
9.942947
 20
66.712494
 40
2.500000
  0
CIRCLE
  8
0
 62
     2
 10
-53.557053
 20
60.212494
 40
2.000000
  0
CIRCLE
  8
0
 62
     2
 10
-63.557053
 20
60.212494
 40
2.000000
  0
CIRCLE
  8
0
 10
-63.557053
 20
60.212494
 40
1.650000
  0
CIRCLE
  8
0
 10
-53.557053
 20
60.212494
 40
1.650000
  0
CIRCLE
  8
0
 10
-6.557053
 20
53.712494
 40
2.100000
  0
CIRCLE
  8
0
 62
     4
 10
-0.057014
 20
-81.377510
 40
1.250000
  0
CIRCLE
  8
0
 62
     4
 10
-0.057014
 20
-81.377510
 40
1.400000
  0
CIRCLE
  8
0
 10
-1.057030
 20
-89.377502
 40
2.100000
  0
CIRCLE
  8
0
 62
     2
 10
-1.057030
 20
-89.377502
 40
2.500000
  0
CIRCLE
  8
0
 62
     2
 10
-63.557030
 20
-81.377510
 40
2.000000
  0
CIRCLE
  8
0
 62
     2
 10
-53.557030
 20
-81.377510
 40
2.000000
  0
CIRCLE
  8
0
 62
     2
 10
-1.057030
 20
-73.377510
 40
2.500000
  0
CIRCLE
  8
0
 10
-63.557030
 20
-81.377510
 40
1.650000
  0
CIRCLE
  8
0
 10
-53.557030
 20
-81.377510
 40
1.650000
  0
CIRCLE
  8
0
 10
-1.057030
 20
-73.377510
 40
2.100000
  0
TEXT
  8
0
 10
133.907150
 20
122.050003
 40
4.500000
  1
Ver. 1.0
 50
0.000000
 41
1.052631
 51
0.000000
  7
STANDARD
  0
TEXT
  8
0
 10
113.700279
 20
-130.669998
 40
6.300000
  1
KOGANEI CORP.
 50
0.000000
 41
1.052632
 51
0.000000
  7
STANDARD
  0
TEXT
  8
0
 10
-170.142654
 20
122.050003
 40
4.500000
  1
AIR HAND
 50
0.000000
 41
1.052632
 51
0.000000
  7
STANDARD
  0
TEXT
  8
0
 10
-159.892654
 20
97.550003
 40
4.500000
  1
NHBRP-20-ZE135A2
 50
0.000000
 41
1.052632
 51
0.000000
  7
STANDARD
  0
TEXT
  8
0
 10
-186.892654
 20
104.550003
 40
4.500000
  1
MODEL:NHBDP-20-ZE135A2
 50
0.000000
 41
1.052632
 51
0.000000
  7
STANDARD
  0
ENDSEC
  0
EOF
