  0
SECTION
  2
HEADER
  0
ENDSEC
  0
SECTION
  2
TABLES
  0
TABLE
  2
LTYPE
 70
     4
  0
LTYPE
  2
CONTINUOUS
 70
    64
  3
Solid line
 72
    65
 73
     0
 40
0.000000
  0
LTYPE
  2
DASHED
 70
    64
  3
__ __ __ __ __ __ __ __ __ __ __ __ __ __ __
 72
    65
 73
     2
 40
3.500000
 49
2.000000
 49
-1.500000
  0
LTYPE
  2
CENTER
 70
    64
  3
____ _ ____ _ ____ _ ____ _ ____ _ ____ _ ____
 72
    65
 73
     4
 40
17.500000
 49
13.000000
 49
-1.500000
 49
1.500000
 49
-1.500000
  0
LTYPE
  2
PHANTOM
 70
    64
  3
_____ _ _ _____ _ _ _____ _ _ _____ _ _ ____  
 72
    65
 73
     6
 40
15.500000
 49
8.000000
 49
-1.500000
 49
1.500000
 49
-1.500000
 49
1.500000
 49
-1.500000
  0
LTYPE
  2
DASHED1
 70
    64
  3
__ __ __ __ __ __ __ __ __ __ __ __ __ __ __
 72
    65
 73
     2
 40
1.500000
 49
1.000000
 49
-0.500000
  0
LTYPE
  2
DASHED2
 70
    64
  3
__ __ __ __ __ __ __ __ __ __ __ __ __ __ __
 72
    65
 73
     2
 40
3.500000
 49
2.500000
 49
-1.000000
  0
LTYPE
  2
DASHED3
 70
    64
  3
__ __ __ __ __ __ __ __ __ __ __ __ __ __ __
 72
    65
 73
     2
 40
6.000000
 49
4.000000
 49
-2.000000
  0
LTYPE
  2
DASHED4
 70
    64
  3
__ __ __ __ __ __ __ __ __ __ __ __ __ __ __
 72
    65
 73
     2
 40
12.000000
 49
10.000000
 49
-2.000000
  0
LTYPE
  2
DASHED5
 70
    64
  3
__ __ __ __ __ __ __ __ __ __ __ __ __ __ __
 72
    65
 73
     2
 40
17.000000
 49
15.000000
 49
-2.000000
  0
LTYPE
  2
DASHED6
 70
    64
  3
__ __ __ __ __ __ __ __ __ __ __ __ __ __ __
 72
    65
 73
     2
 40
29.000000
 49
27.000000
 49
-2.000000
  0
LTYPE
  2
PHANTOM1
 70
    64
  3
_____ _ _ _____ _ _ _____ _ _ _____ _ _ ____  
 72
    65
 73
     6
 40
31.000000
 49
25.000000
 49
-1.500000
 49
1.000000
 49
-1.000000
 49
1.000000
 49
-1.500000
  0
LTYPE
  2
PHANTOM2
 70
    64
  3
_____ _ _ _____ _ _ _____ _ _ _____ _ _ ____  
 72
    65
 73
     6
 40
36.000000
 49
27.000000
 49
-1.500000
 49
2.500000
 49
-1.000000
 49
2.500000
 49
-1.500000
  0
LTYPE
  2
PHANTOM3
 70
    64
  3
_____ _ _ _____ _ _ _____ _ _ _____ _ _ ____  
 72
    65
 73
     6
 40
78.000000
 49
64.000000
 49
-2.000000
 49
4.000000
 49
-2.000000
 49
4.000000
 49
-2.000000
  0
LTYPE
  2
CENTER1
 70
    64
  3
____ _ ____ _ ____ _ ____ _ ____ _ ____ _ ____
 72
    65
 73
     4
 40
19.000000
 49
14.000000
 49
-1.000000
 49
3.000000
 49
-1.000000
  0
LTYPE
  2
CENTER2
 70
    64
  3
____ _ ____ _ ____ _ ____ _ ____ _ ____ _ ____
 72
    65
 73
     4
 40
28.500000
 49
25.000000
 49
-1.000000
 49
1.500000
 49
-1.000000
  0
LTYPE
  2
CENTER3
 70
    64
  3
____ _ ____ _ ____ _ ____ _ ____ _ ____ _ ____
 72
    65
 73
     4
 40
31.500000
 49
27.000000
 49
-1.000000
 49
2.500000
 49
-1.000000
  0
LTYPE
  2
CENTER4
 70
    64
  3
____ _ ____ _ ____ _ ____ _ ____ _ ____ _ ____
 72
    65
 73
     4
 40
50.000000
 49
45.000000
 49
-1.000000
 49
3.000000
 49
-1.000000
  0
LTYPE
  2
CENTER5
 70
    64
  3
____ _ ____ _ ____ _ ____ _ ____ _ ____ _ ____
 72
    65
 73
     4
 40
100.000000
 49
92.000000
 49
-2.000000
 49
4.000000
 49
-2.000000
  0
LTYPE
  2
SBK1
 70
    64
  3
______ _ _ _ ______ _ _ _ ______ _ _ _ _____  
 72
    65
 73
     8
 40
60.500000
 49
45.000000
 49
-2.000000
 49
2.500000
 49
-2.000000
 49
2.500000
 49
-2.000000
 49
2.500000
 49
-2.000000
  0
LTYPE
  2
SBK2
 70
    64
  3
______ _ _ _ ______ _ _ _ ______ _ _ _ _____  
 72
    65
 73
     8
 40
84.000000
 49
64.000000
 49
-2.000000
 49
4.000000
 49
-2.000000
 49
4.000000
 49
-2.000000
 49
4.000000
 49
-2.000000
  0
LTYPE
  2
STCH
 70
    64
  3
__ __ __ __ __ __ __ __ __ __ __ __ __ __ __
 72
    65
 73
     2
 40
3.000000
 49
1.000000
 49
-2.000000
  0
LTYPE
  2
MTCH
 70
    64
  3
_____ _ _ _____ _ _ _____ _ _ _____ _ _ ____  
 72
    65
 73
     6
 40
80.000000
 49
66.000000
 49
-2.000000
 49
4.000000
 49
-2.000000
 49
4.000000
 49
-2.000000
  0
ENDTAB
  0
TABLE
  2
LAYER
 70
     1
  0
LAYER
  2
0
 70
     0
 62
     7
  6
CONTINUOUS
  0
ENDTAB
  0
TABLE
  2
STYLE
 70
     1
  0
STYLE
  2
STANDARD
 70
     0
 40
0.000000
 41
1.000000
 50
0.000000
 71
     0
 42
0.200000
  3
txt
  4
BIGFONT
  0
ENDTAB
  0
TABLE
  2
VIEW
 70
     0
  0
ENDTAB
  0
ENDSEC
  0
SECTION
  2
BLOCKS
  0
ENDSEC
  0
SECTION
  2
ENTITIES
  0
LINE
  8
0
  6
CENTER
 62
     2
 10
-74.180298
 20
-10.852533
 11
14.180237
 21
-10.852533
  0
LINE
  8
0
  6
CENTER
 62
     2
 10
-19.197067
 20
12.397434
 11
-19.197067
 21
2.094130
  0
LINE
  8
0
  6
CENTER
 62
     2
 10
-24.035099
 20
7.147467
 11
-14.194862
 21
7.147467
  0
LINE
  8
0
 10
9.302933
 20
15.147467
 11
9.302933
 21
-36.852539
  0
LINE
  8
0
 10
-67.197067
 20
-36.852539
 11
9.302933
 21
-36.852539
  0
LINE
  8
0
 10
-67.197067
 20
15.147467
 11
-67.197067
 21
-36.852539
  0
LINE
  8
0
 10
-67.197067
 20
15.147467
 11
9.302933
 21
15.147467
  0
LINE
  8
0
 10
-91.197067
 20
14.647467
 11
-91.197067
 21
6.647467
  0
LINE
  8
0
 10
-67.697067
 20
6.647467
 11
-67.697067
 21
-3.852537
  0
LINE
  8
0
 10
-91.197067
 20
14.647467
 11
-67.197067
 21
14.647467
  0
LINE
  8
0
 10
-91.197067
 20
6.647467
 11
-67.697067
 21
6.647467
  0
LINE
  8
0
 10
-67.697067
 20
-3.852537
 11
-67.197067
 21
-3.852537
  0
LINE
  8
0
 10
-91.197067
 20
-36.352531
 11
-91.197067
 21
-28.352531
  0
LINE
  8
0
 10
-91.197067
 20
-36.352531
 11
-67.197067
 21
-36.352531
  0
LINE
  8
0
 10
-91.197067
 20
-28.352531
 11
-67.697067
 21
-28.352531
  0
LINE
  8
0
 10
-67.697067
 20
-28.352531
 11
-67.697067
 21
-17.852533
  0
LINE
  8
0
 10
-67.697067
 20
-17.852533
 11
-67.197067
 21
-17.852533
  0
LINE
  8
0
 62
     4
 10
9.302933
 20
-26.002556
 11
10.802933
 21
-26.002556
  0
LINE
  8
0
 62
     4
 10
9.302933
 20
-30.602554
 11
10.802933
 21
-30.602554
  0
LINE
  8
0
 62
     4
 10
10.802933
 20
-26.002556
 11
10.802933
 21
-30.602554
  0
LINE
  8
0
 62
     4
 10
9.302933
 20
-27.002556
 11
10.802933
 21
-27.002556
  0
LINE
  8
0
 62
     4
 10
9.302933
 20
-26.452538
 11
10.802933
 21
-26.452538
  0
LINE
  8
0
 62
     4
 10
10.802933
 20
-27.002541
 11
20.552376
 21
-27.002541
  0
LINE
  8
0
 62
     4
 10
10.802933
 20
-29.602547
 11
22.053490
 21
-29.602547
  0
LINE
  8
0
 62
     1
 10
20.052919
 20
-26.137447
 11
22.552919
 21
-30.467577
  0
LINE
  8
0
 62
     4
 10
9.302933
 20
7.897478
 11
20.552376
 21
7.897478
  0
LINE
  8
0
 62
     1
 10
20.052919
 20
8.762571
 11
22.552921
 21
4.432443
  0
LINE
  8
0
 62
     4
 10
9.302933
 20
5.297472
 11
22.053490
 21
5.297472
  0
LINE
  8
0
  6
CENTER
 62
     2
 10
-38.697067
 20
12.897467
 11
-38.697067
 21
5.397467
  0
LINE
  8
0
  6
CENTER
 62
     2
 10
-42.447067
 20
9.147467
 11
-34.947067
 21
9.147467
  0
LINE
  8
0
  6
CENTER
 62
     2
 10
-19.197067
 20
-23.606247
 11
-19.197067
 21
-33.971970
  0
LINE
  8
0
  6
CENTER
 62
     2
 10
-24.266636
 20
-28.852531
 11
-14.310631
 21
-28.852531
  0
LINE
  8
0
  6
CENTER
 62
     2
 10
-38.697067
 20
-27.102531
 11
-38.697067
 21
-34.602531
  0
LINE
  8
0
  6
CENTER
 62
     2
 10
-42.447067
 20
-30.852531
 11
-34.947067
 21
-30.852531
  0
LINE
  8
0
  6
CENTER
 62
     2
 10
-52.197067
 20
-16.102533
 11
-52.197067
 21
-23.602531
  0
LINE
  8
0
  6
CENTER
 62
     2
 10
-55.947067
 20
-19.852533
 11
-48.447067
 21
-19.852533
  0
LINE
  8
0
  6
CENTER
 62
     2
 10
-52.197067
 20
1.897463
 11
-52.197067
 21
-5.602537
  0
LINE
  8
0
  6
CENTER
 62
     2
 10
-55.947067
 20
-1.852537
 11
-48.447067
 21
-1.852537
  0
LINE
  8
0
  6
CENTER
 62
     2
 10
-86.197067
 20
16.647467
 11
-86.197067
 21
4.647467
  0
LINE
  8
0
  6
CENTER
 62
     2
 10
-74.197067
 20
16.647467
 11
-74.197067
 21
4.647467
  0
LINE
  8
0
  6
CENTER
 62
     2
 10
-74.197067
 20
-38.352531
 11
-74.197067
 21
-26.352533
  0
LINE
  8
0
  6
CENTER
 62
     2
 10
-86.197067
 20
-38.352531
 11
-86.197067
 21
-26.352533
  0
LINE
  8
0
 10
108.762978
 20
-29.552513
 11
108.762978
 21
-27.952507
  0
LINE
  8
0
 10
104.562973
 20
-29.552513
 11
104.562973
 21
-27.952507
  0
LINE
  8
0
 10
105.063026
 20
-30.052473
 11
104.563026
 21
-29.552471
  0
LINE
  8
0
 10
105.062973
 20
-31.052513
 11
105.062973
 21
-30.052513
  0
LINE
  8
0
 10
104.163017
 20
-31.952576
 11
105.063011
 21
-31.052584
  0
LINE
  8
0
 10
104.162979
 20
-36.552505
 11
104.162979
 21
-31.952507
  0
LINE
  8
0
 10
109.162987
 20
-31.952467
 11
108.263008
 21
-31.052477
  0
LINE
  8
0
 10
108.262970
 20
-31.052513
 11
108.262970
 21
-30.052513
  0
LINE
  8
0
 10
108.263016
 20
-30.052582
 11
108.763023
 21
-29.552582
  0
LINE
  8
0
 10
109.162971
 20
-36.552505
 11
109.162971
 21
-31.952507
  0
LINE
  8
0
 10
90.662971
 20
-36.852516
 11
103.862968
 21
-36.852516
  0
LINE
  8
0
 10
109.462975
 20
-36.852516
 11
122.662979
 21
-36.852516
  0
LINE
  8
0
 10
108.762978
 20
7.847486
 11
108.762978
 21
6.247480
  0
LINE
  8
0
 10
104.562973
 20
7.847486
 11
104.562973
 21
6.247480
  0
LINE
  8
0
 10
108.263054
 20
8.347539
 11
108.763046
 21
7.847542
  0
LINE
  8
0
 10
105.063019
 20
8.347461
 11
104.563019
 21
7.847460
  0
LINE
  8
0
 10
90.662971
 20
-36.852516
 11
90.662971
 21
15.147490
  0
LINE
  8
0
 10
108.262970
 20
9.347486
 11
108.262970
 21
8.347486
  0
LINE
  8
0
 10
105.062973
 20
9.347486
 11
105.062973
 21
8.347486
  0
LINE
  8
0
 10
109.162971
 20
14.847486
 11
109.162971
 21
10.247480
  0
LINE
  8
0
 10
104.162979
 20
14.847486
 11
104.162979
 21
10.247480
  0
LINE
  8
0
 10
109.163002
 20
10.247447
 11
108.263008
 21
9.347455
  0
LINE
  8
0
 10
104.163040
 20
10.247558
 11
105.063034
 21
9.347558
  0
LINE
  8
0
 10
90.662971
 20
15.147490
 11
103.862968
 21
15.147490
  0
LINE
  8
0
 10
122.662979
 20
-36.852516
 11
122.662979
 21
15.147490
  0
LINE
  8
0
 10
109.462975
 20
15.147490
 11
122.662979
 21
15.147490
  0
LINE
  8
0
  6
CENTER
 62
     2
 10
92.162971
 20
9.147490
 11
101.162971
 21
9.147490
  0
LINE
  8
0
  6
CENTER
 62
     2
 10
96.662971
 20
13.647490
 11
96.662971
 21
4.647490
  0
LINE
  8
0
 62
     4
 10
108.262970
 20
8.347578
 11
108.163025
 21
8.447514
  0
LINE
  8
0
 62
     4
 10
108.162971
 20
8.897478
 11
108.162971
 21
8.447481
  0
LINE
  8
0
 62
     4
 10
108.162971
 20
8.897478
 11
105.162971
 21
8.897478
  0
LINE
  8
0
 62
     4
 10
105.162971
 20
8.897478
 11
105.162971
 21
8.447481
  0
LINE
  8
0
 62
     4
 10
107.912971
 20
9.397478
 11
107.912971
 21
8.897478
  0
LINE
  8
0
 62
     4
 10
105.412971
 20
9.397478
 11
105.412971
 21
8.897478
  0
LINE
  8
0
 62
     4
 10
107.912971
 20
9.397478
 11
105.412971
 21
9.397478
  0
LINE
  8
0
 62
     4
 10
105.062981
 20
8.347565
 11
105.162926
 21
8.447508
  0
LINE
  8
0
 62
     4
 10
108.262970
 20
-30.052584
 11
108.163033
 21
-30.152523
  0
LINE
  8
0
 62
     4
 10
108.162971
 20
-30.602501
 11
108.162971
 21
-30.152504
  0
LINE
  8
0
 62
     4
 10
108.162971
 20
-30.602501
 11
105.162971
 21
-30.602501
  0
LINE
  8
0
 62
     4
 10
105.162971
 20
-30.602501
 11
105.162971
 21
-30.152504
  0
LINE
  8
0
 62
     4
 10
107.912971
 20
-31.102501
 11
107.912971
 21
-30.602501
  0
LINE
  8
0
 62
     4
 10
105.412971
 20
-31.102501
 11
105.412971
 21
-30.602501
  0
LINE
  8
0
 62
     4
 10
107.912971
 20
-31.102501
 11
105.412971
 21
-31.102501
  0
LINE
  8
0
 62
     4
 10
105.062973
 20
-30.052591
 11
105.162910
 21
-30.152531
  0
LINE
  8
0
  6
CENTER
 62
     2
 10
86.662971
 20
-10.852510
 11
126.662979
 21
-10.852510
  0
LINE
  8
0
  6
CENTER
 62
     2
 10
106.662971
 20
16.647490
 11
106.662971
 21
-38.352509
  0
LINE
  8
0
  6
CENTER
 62
     2
 10
116.662971
 20
-26.352516
 11
116.662971
 21
-35.352516
  0
LINE
  8
0
  6
CENTER
 62
     2
 10
112.162971
 20
-30.852516
 11
121.162971
 21
-30.852516
  0
LINE
  8
0
  6
CENTER
 62
     2
 10
-97.329529
 20
62.127472
 11
22.302963
 21
62.127472
  0
LINE
  8
0
 10
-67.197037
 20
54.927490
 11
-42.697037
 21
54.927490
  0
LINE
  8
0
 10
-42.697037
 20
55.627480
 11
-27.697037
 21
55.627480
  0
LINE
  8
0
 10
-42.697037
 20
54.927490
 11
-42.697037
 21
55.627480
  0
LINE
  8
0
 10
-67.197037
 20
69.327492
 11
-42.697037
 21
69.327492
  0
LINE
  8
0
 10
-42.697037
 20
68.627487
 11
-27.697037
 21
68.627487
  0
LINE
  8
0
 10
-42.697037
 20
68.627487
 11
-42.697037
 21
69.327492
  0
LINE
  8
0
 10
-67.197037
 20
69.327492
 11
-67.197037
 21
78.127502
  0
LINE
  8
0
 10
-67.197037
 20
78.127502
 11
9.302963
 21
78.127502
  0
LINE
  8
0
 10
-67.197037
 20
46.127510
 11
9.302963
 21
46.127510
  0
LINE
  8
0
 10
-67.197037
 20
46.127510
 11
-67.197037
 21
54.927490
  0
LINE
  8
0
 10
-27.697037
 20
55.627480
 11
-27.697037
 21
68.627487
  0
LINE
  8
0
  6
CENTER
 62
     2
 10
-19.197037
 20
83.598160
 11
-19.197037
 21
61.838211
  0
LINE
  8
0
  6
CENTER
 62
     2
 10
-6.602730
 20
71.127487
 11
6.841232
 21
71.127487
  0
LINE
  8
0
  6
CENTER
 62
     2
 10
0.302963
 20
77.424339
 11
0.302963
 21
65.225189
  0
LINE
  8
0
 10
9.302963
 20
46.127510
 11
9.302963
 21
60.827469
  0
LINE
  8
0
 10
-91.197037
 20
55.127472
 11
-91.197037
 21
69.127472
  0
LINE
  8
0
  6
CENTER
 62
     2
 10
-25.523861
 20
53.127472
 11
-12.274311
 21
53.127472
  0
LINE
  8
0
  6
CENTER
 62
     2
 10
-18.697037
 20
58.964188
 11
-18.697037
 21
47.050938
  0
LINE
  8
0
 10
-91.197037
 20
69.127472
 11
-43.697037
 21
69.127472
  0
LINE
  8
0
 10
-91.197037
 20
55.127472
 11
-63.297043
 21
55.127472
  0
LINE
  8
0
 10
-43.697037
 20
55.127472
 11
-43.697037
 21
59.877472
  0
LINE
  8
0
 10
-63.297043
 20
55.127472
 11
-63.297043
 21
64.377472
  0
LINE
  8
0
 10
-63.297043
 20
64.377472
 11
-43.197037
 21
64.377472
  0
LINE
  8
0
 10
-63.197037
 20
59.877472
 11
-34.197037
 21
59.877472
  0
LINE
  8
0
 10
-63.197037
 20
55.127472
 11
-63.197037
 21
59.877472
  0
LINE
  8
0
 10
-63.197037
 20
55.127472
 11
-43.697037
 21
55.127472
  0
LINE
  8
0
 10
-43.697037
 20
64.377472
 11
-43.697037
 21
69.127472
  0
LINE
  8
0
 10
-33.197037
 20
56.127472
 11
-33.197037
 21
68.127472
  0
LINE
  8
0
 10
-43.197037
 20
56.377472
 11
-43.197037
 21
59.877472
  0
LINE
  8
0
 10
-33.197037
 20
68.127472
 11
-27.697037
 21
68.127472
  0
LINE
  8
0
 10
-33.197037
 20
56.127472
 11
-27.697037
 21
56.127472
  0
LINE
  8
0
 10
-43.197037
 20
56.377472
 11
-33.197037
 21
56.377472
  0
LINE
  8
0
 10
-43.197037
 20
67.877472
 11
-41.197037
 21
67.877472
  0
LINE
  8
0
 10
-43.197037
 20
65.027473
 11
-34.197037
 21
65.027473
  0
LINE
  8
0
 10
-34.197037
 20
59.877472
 11
-34.197037
 21
65.027473
  0
LINE
  8
0
 10
-43.197037
 20
57.877472
 11
-34.197037
 21
57.877472
  0
LINE
  8
0
 10
-34.197037
 20
57.877472
 11
-34.197037
 21
59.877472
  0
LINE
  8
0
 10
-42.697037
 20
56.877472
 11
-34.697037
 21
56.877472
  0
LINE
  8
0
 10
-42.697037
 20
56.877472
 11
-42.697037
 21
57.877472
  0
LINE
  8
0
 10
-34.697037
 20
56.877472
 11
-34.697037
 21
57.877472
  0
LINE
  8
0
 10
-36.197037
 20
55.627480
 11
-36.197037
 21
56.377472
  0
LINE
  8
0
 10
-41.197037
 20
55.627480
 11
-41.197037
 21
56.377472
  0
LINE
  8
0
 10
-41.197037
 20
65.027473
 11
-41.197037
 21
68.627487
  0
LINE
  8
0
 10
-36.197037
 20
65.027473
 11
-36.197037
 21
68.627487
  0
LINE
  8
0
 10
-36.197037
 20
67.877472
 11
-33.197037
 21
67.877472
  0
LINE
  8
0
 10
-43.197037
 20
64.377472
 11
-43.197037
 21
67.877472
  0
LINE
  8
0
  6
CENTER
 62
     2
 10
-86.197037
 20
66.127472
 11
-86.197037
 21
58.127472
  0
LINE
  8
0
  6
CENTER
 62
     2
 10
-74.197037
 20
66.127472
 11
-74.197037
 21
58.127472
  0
LINE
  8
0
 10
-27.697037
 20
64.627472
 11
9.302963
 21
64.627472
  0
LINE
  8
0
 10
-27.697037
 20
63.727470
 11
9.302963
 21
63.727470
  0
LINE
  8
0
 10
-27.697037
 20
60.527473
 11
9.302963
 21
60.527473
  0
LINE
  8
0
 10
-27.697037
 20
59.627472
 11
9.302963
 21
59.627472
  0
LINE
  8
0
 62
     4
 10
-26.697037
 20
63.727470
 11
-26.697037
 21
60.527473
  0
LINE
  8
0
 62
     4
 10
-4.697037
 20
63.727470
 11
-4.697037
 21
60.527473
  0
LINE
  8
0
 62
     4
 10
-25.731264
 20
61.425446
 11
-23.994993
 21
63.161716
  0
LINE
  8
0
 62
     4
 10
-25.373337
 20
61.076233
 11
-23.645786
 21
62.803783
  0
LINE
  8
0
 62
     4
 10
-4.697037
 20
63.427475
 11
18.552406
 21
63.427475
  0
LINE
  8
0
 62
     4
 10
-4.697037
 20
60.827469
 11
20.053520
 21
60.827469
  0
LINE
  8
0
 62
     1
 10
18.052948
 20
64.292572
 11
20.552948
 21
59.962452
  0
LINE
  8
0
 10
9.302963
 20
63.427475
 11
9.302963
 21
78.127502
  0
LINE
  8
0
  6
CENTER
 62
     2
 10
-97.329521
 20
-86.832527
 11
22.302971
 21
-86.832527
  0
LINE
  8
0
 10
-67.197029
 20
-94.032509
 11
-42.697029
 21
-94.032509
  0
LINE
  8
0
 10
-42.697029
 20
-93.332520
 11
-27.697029
 21
-93.332520
  0
LINE
  8
0
 10
-42.697029
 20
-94.032509
 11
-42.697029
 21
-93.332520
  0
LINE
  8
0
 10
-67.197029
 20
-79.632515
 11
-42.697029
 21
-79.632515
  0
LINE
  8
0
 10
-42.697029
 20
-80.332512
 11
-27.697029
 21
-80.332512
  0
LINE
  8
0
 10
-42.697029
 20
-80.332512
 11
-42.697029
 21
-79.632515
  0
LINE
  8
0
 10
-67.197029
 20
-79.632515
 11
-67.197029
 21
-70.832512
  0
LINE
  8
0
 10
-67.197029
 20
-70.832512
 11
9.302971
 21
-70.832512
  0
LINE
  8
0
 10
-67.197029
 20
-102.832489
 11
9.302971
 21
-102.832489
  0
LINE
  8
0
 10
-67.197029
 20
-102.832489
 11
-67.197029
 21
-94.032509
  0
LINE
  8
0
 10
-27.697029
 20
-93.332520
 11
-27.697029
 21
-80.332512
  0
LINE
  8
0
  6
CENTER
 62
     2
 10
-19.197029
 20
-105.114655
 11
-19.197029
 21
-86.543266
  0
LINE
  8
0
 10
9.302971
 20
-102.832489
 11
9.302971
 21
-88.432526
  0
LINE
  8
0
 10
-91.197029
 20
-93.832527
 11
-91.197029
 21
-79.832527
  0
LINE
  8
0
 10
-91.197029
 20
-79.832527
 11
-43.697029
 21
-79.832527
  0
LINE
  8
0
 10
-91.197029
 20
-93.832527
 11
-63.297035
 21
-93.832527
  0
LINE
  8
0
 10
-43.697029
 20
-93.832527
 11
-43.697029
 21
-89.082527
  0
LINE
  8
0
 10
-63.297035
 20
-93.832527
 11
-63.297035
 21
-84.582527
  0
LINE
  8
0
 10
-63.297035
 20
-84.582527
 11
-43.197029
 21
-84.582527
  0
LINE
  8
0
 10
-63.197029
 20
-89.082527
 11
-34.197029
 21
-89.082527
  0
LINE
  8
0
 10
-63.197029
 20
-93.832527
 11
-63.197029
 21
-89.082527
  0
LINE
  8
0
 10
-63.197029
 20
-93.832527
 11
-43.697029
 21
-93.832527
  0
LINE
  8
0
 10
-43.697029
 20
-84.582527
 11
-43.697029
 21
-79.832527
  0
LINE
  8
0
 10
-33.197029
 20
-92.832527
 11
-33.197029
 21
-80.832527
  0
LINE
  8
0
 10
-43.197029
 20
-92.582527
 11
-43.197029
 21
-89.082527
  0
LINE
  8
0
 10
-33.197029
 20
-80.832527
 11
-27.697029
 21
-80.832527
  0
LINE
  8
0
 10
-33.197029
 20
-92.832527
 11
-27.697029
 21
-92.832527
  0
LINE
  8
0
 10
-43.197029
 20
-92.582527
 11
-33.197029
 21
-92.582527
  0
LINE
  8
0
 10
-43.197029
 20
-81.082527
 11
-41.197029
 21
-81.082527
  0
LINE
  8
0
 10
-43.197029
 20
-83.932533
 11
-34.197029
 21
-83.932533
  0
LINE
  8
0
 10
-34.197029
 20
-89.082527
 11
-34.197029
 21
-83.932533
  0
LINE
  8
0
 10
-43.197029
 20
-91.082527
 11
-34.197029
 21
-91.082527
  0
LINE
  8
0
 10
-34.197029
 20
-91.082527
 11
-34.197029
 21
-89.082527
  0
LINE
  8
0
 10
-42.697029
 20
-92.082527
 11
-34.697029
 21
-92.082527
  0
LINE
  8
0
 10
-42.697029
 20
-92.082527
 11
-42.697029
 21
-91.082527
  0
LINE
  8
0
 10
-34.697029
 20
-92.082527
 11
-34.697029
 21
-91.082527
  0
LINE
  8
0
 10
-36.197029
 20
-93.332520
 11
-36.197029
 21
-92.582527
  0
LINE
  8
0
 10
-41.197029
 20
-93.332520
 11
-41.197029
 21
-92.582527
  0
LINE
  8
0
 10
-41.197029
 20
-83.932533
 11
-41.197029
 21
-80.332512
  0
LINE
  8
0
 10
-36.197029
 20
-83.932533
 11
-36.197029
 21
-80.332512
  0
LINE
  8
0
 10
-36.197029
 20
-81.082527
 11
-33.197029
 21
-81.082527
  0
LINE
  8
0
 10
-43.197029
 20
-84.582527
 11
-43.197029
 21
-81.082527
  0
LINE
  8
0
  6
CENTER
 62
     2
 10
-8.197029
 20
-76.832527
 11
-16.197029
 21
-76.832527
  0
LINE
  8
0
  6
CENTER
 62
     2
 10
-12.197029
 20
-72.832527
 11
-12.197029
 21
-80.832527
  0
LINE
  8
0
  6
CENTER
 62
     2
 10
-8.197029
 20
-96.832527
 11
-16.197029
 21
-96.832527
  0
LINE
  8
0
  6
CENTER
 62
     2
 10
-12.197029
 20
-92.832527
 11
-12.197029
 21
-100.952835
  0
LINE
  8
0
  6
CENTER
 62
     2
 10
-86.197029
 20
-82.832527
 11
-86.197029
 21
-90.832527
  0
LINE
  8
0
  6
CENTER
 62
     2
 10
-74.197029
 20
-82.832527
 11
-74.197029
 21
-90.832527
  0
LINE
  8
0
 10
-27.697029
 20
-84.332527
 11
9.302971
 21
-84.332527
  0
LINE
  8
0
 10
-27.697029
 20
-85.232529
 11
9.302971
 21
-85.232529
  0
LINE
  8
0
 10
-27.697029
 20
-88.432526
 11
9.302971
 21
-88.432526
  0
LINE
  8
0
 10
-27.697029
 20
-89.332527
 11
9.302971
 21
-89.332527
  0
LINE
  8
0
 62
     4
 10
9.302971
 20
-88.432526
 11
10.802971
 21
-88.432526
  0
LINE
  8
0
 62
     4
 10
9.302971
 20
-88.882530
 11
10.802971
 21
-88.882530
  0
LINE
  8
0
 62
     4
 10
9.302971
 20
-84.782524
 11
10.802971
 21
-84.782524
  0
LINE
  8
0
 62
     4
 10
-11.197029
 20
-85.232529
 11
-11.197029
 21
-88.432526
  0
LINE
  8
0
 62
     4
 10
10.802971
 20
-84.782524
 11
10.802971
 21
-88.882530
  0
LINE
  8
0
 62
     4
 10
-10.231236
 20
-87.534561
 11
-8.494966
 21
-85.798302
  0
LINE
  8
0
 62
     4
 10
-9.873320
 20
-87.883774
 11
-8.145769
 21
-86.156227
  0
LINE
  8
0
 62
     4
 10
10.802971
 20
-85.532524
 11
18.552414
 21
-85.532524
  0
LINE
  8
0
 62
     4
 10
10.802971
 20
-88.132530
 11
20.053528
 21
-88.132530
  0
LINE
  8
0
 62
     1
 10
18.052961
 20
-84.667435
 11
20.552959
 21
-88.997551
  0
LINE
  8
0
 62
     4
 10
9.302971
 20
-85.232529
 11
10.802971
 21
-85.232529
  0
LINE
  8
0
 10
9.302971
 20
-85.232529
 11
9.302971
 21
-70.832512
  0
LINE
  8
0
 10
-194.250000
 20
132.600006
 11
194.800003
 21
132.600006
  0
LINE
  8
0
 10
194.800003
 20
132.600006
 11
194.800003
 21
-133.500000
  0
LINE
  8
0
 10
-194.250000
 20
132.600006
 11
-194.250000
 21
-133.500000
  0
LINE
  8
0
 10
-194.250000
 20
-133.500000
 11
194.800003
 21
-133.500000
  0
LINE
  8
0
 10
109.800003
 20
-118.500000
 11
109.800003
 21
-133.500000
  0
LINE
  8
0
 10
109.800003
 20
-118.500000
 11
194.800003
 21
-118.500000
  0
LINE
  8
0
 10
109.800003
 20
132.600006
 11
109.800003
 21
117.600006
  0
LINE
  8
0
 10
109.800003
 20
117.600006
 11
194.800003
 21
117.600006
  0
LINE
  8
0
 10
-194.250000
 20
117.600006
 11
-109.250000
 21
117.600006
  0
LINE
  8
0
 10
-109.250000
 20
132.600006
 11
-109.250000
 21
117.600006
  0
CIRCLE
  8
0
  6
DASHED
 62
     2
 10
-19.197067
 20
-28.852531
 40
2.500000
  0
CIRCLE
  8
0
  6
DASHED
 62
     2
 10
-19.197067
 20
-28.852531
 40
3.000000
  0
CIRCLE
  8
0
  6
DASHED
 62
     2
 10
-19.197067
 20
7.147467
 40
2.500000
  0
CIRCLE
  8
0
  6
DASHED
 62
     2
 10
-19.197067
 20
7.147467
 40
3.000000
  0
CIRCLE
  8
0
 10
-52.197067
 20
-19.852533
 40
2.500000
  0
CIRCLE
  8
0
 10
-52.197067
 20
-1.852537
 40
2.500000
  0
CIRCLE
  8
0
 10
-38.697067
 20
9.147467
 40
2.500000
  0
CIRCLE
  8
0
 10
-38.697067
 20
-30.852531
 40
2.500000
  0
CIRCLE
  8
0
 62
     4
 10
106.662971
 20
6.597490
 40
1.300000
  0
CIRCLE
  8
0
 10
116.662971
 20
-30.852516
 40
2.500000
  0
CIRCLE
  8
0
 62
     4
 10
106.662971
 20
-28.302513
 40
1.300000
  0
ARC
  8
0
 10
106.662971
 20
-27.952507
 40
2.099998
 50
0.000000
 51
180.000000
  0
ARC
  8
0
 10
103.862968
 20
-36.552505
 40
0.299999
 50
270.000000
 51
0.000000
  0
ARC
  8
0
 10
109.462975
 20
-36.552505
 40
0.300003
 50
180.000000
 51
270.000000
  0
CIRCLE
  8
0
 62
     2
 10
116.662971
 20
-30.852516
 40
3.000000
  0
ARC
  8
0
 10
106.662971
 20
6.247480
 40
2.099998
 50
180.000031
 51
359.999969
  0
ARC
  8
0
 10
103.862968
 20
14.847486
 40
0.300003
 50
0.000000
 51
90.000000
  0
ARC
  8
0
 10
109.462975
 20
14.847486
 40
0.300000
 50
90.000000
 51
180.000000
  0
CIRCLE
  8
0
 62
     2
 10
96.662971
 20
9.147490
 40
3.000000
  0
CIRCLE
  8
0
 10
106.662971
 20
-10.852510
 40
13.000000
  0
CIRCLE
  8
0
 10
96.662971
 20
9.147490
 40
2.500000
  0
CIRCLE
  8
0
 62
     4
 10
-24.697021
 20
62.127472
 40
1.250000
  0
CIRCLE
  8
0
 62
     4
 10
-24.697021
 20
62.127472
 40
1.400000
  0
CIRCLE
  8
0
 10
0.302963
 20
71.127487
 40
2.100000
  0
CIRCLE
  8
0
 10
-18.697037
 20
53.127472
 40
4.250000
  0
CIRCLE
  8
0
 62
     2
 10
-74.197037
 20
62.127472
 40
2.500000
  0
CIRCLE
  8
0
 62
     2
 10
-86.197037
 20
62.127472
 40
2.500000
  0
CIRCLE
  8
0
 62
     2
 10
0.302963
 20
71.127487
 40
2.500000
  0
CIRCLE
  8
0
 10
0.302963
 20
71.127487
 40
4.250000
  0
CIRCLE
  8
0
 62
     2
 10
-18.697037
 20
53.127472
 40
2.500000
  0
CIRCLE
  8
0
 10
-18.697037
 20
53.127472
 40
2.100000
  0
CIRCLE
  8
0
 10
-86.197037
 20
62.127472
 40
2.100000
  0
CIRCLE
  8
0
 10
-74.197037
 20
62.127472
 40
2.100000
  0
CIRCLE
  8
0
 62
     4
 10
-9.197014
 20
-86.832527
 40
1.250000
  0
CIRCLE
  8
0
 62
     4
 10
-9.197014
 20
-86.832527
 40
1.400000
  0
CIRCLE
  8
0
 62
     2
 10
-12.197029
 20
-76.832527
 40
2.500000
  0
CIRCLE
  8
0
 10
-12.197029
 20
-76.832527
 40
2.000000
  0
CIRCLE
  8
0
 62
     2
 10
-12.197029
 20
-96.832527
 40
2.500000
  0
CIRCLE
  8
0
 10
-12.197029
 20
-96.832527
 40
2.000000
  0
CIRCLE
  8
0
 62
     2
 10
-86.197029
 20
-86.832527
 40
2.500000
  0
CIRCLE
  8
0
 62
     2
 10
-74.197029
 20
-86.832527
 40
2.500000
  0
CIRCLE
  8
0
 10
-74.197029
 20
-86.832527
 40
2.000000
  0
CIRCLE
  8
0
 10
-86.197029
 20
-86.832527
 40
2.000000
  0
TEXT
  8
0
 10
133.907150
 20
122.050003
 40
4.500000
  1
Ver. 1.0
 50
0.000000
 41
1.052631
 51
0.000000
  7
STANDARD
  0
TEXT
  8
0
 10
113.700279
 20
-130.669998
 40
6.300000
  1
KOGANEI CORP.
 50
0.000000
 41
1.052632
 51
0.000000
  7
STANDARD
  0
TEXT
  8
0
 10
-170.142654
 20
122.050003
 40
4.500000
  1
AIR HAND
 50
0.000000
 41
1.052632
 51
0.000000
  7
STANDARD
  0
TEXT
  8
0
 10
-186.892654
 20
97.550003
 40
4.500000
  1
      NHBRP-25-ZE135A2
 50
0.000000
 41
1.052632
 51
0.000000
  7
STANDARD
  0
TEXT
  8
0
 10
-186.892654
 20
104.550003
 40
4.500000
  1
MODEL:NHBDP-25-ZE135A2
 50
0.000000
 41
1.052632
 51
0.000000
  7
STANDARD
  0
ENDSEC
  0
EOF
