  0
SECTION
  2
HEADER
  0
ENDSEC
  0
SECTION
  2
TABLES
  0
TABLE
  2
LTYPE
 70
     4
  0
LTYPE
  2
CONTINUOUS
 70
    64
  3
Solid line
 72
    65
 73
     0
 40
0.000000
  0
LTYPE
  2
DASHED
 70
    64
  3
__ __ __ __ __ __ __ __ __ __ __ __ __ __ __
 72
    65
 73
     2
 40
3.500000
 49
2.000000
 49
-1.500000
  0
LTYPE
  2
CENTER
 70
    64
  3
____ _ ____ _ ____ _ ____ _ ____ _ ____ _ ____
 72
    65
 73
     4
 40
17.500000
 49
13.000000
 49
-1.500000
 49
1.500000
 49
-1.500000
  0
LTYPE
  2
PHANTOM
 70
    64
  3
_____ _ _ _____ _ _ _____ _ _ _____ _ _ ____  
 72
    65
 73
     6
 40
15.500000
 49
8.000000
 49
-1.500000
 49
1.500000
 49
-1.500000
 49
1.500000
 49
-1.500000
  0
LTYPE
  2
DASHED1
 70
    64
  3
__ __ __ __ __ __ __ __ __ __ __ __ __ __ __
 72
    65
 73
     2
 40
1.500000
 49
1.000000
 49
-0.500000
  0
LTYPE
  2
DASHED2
 70
    64
  3
__ __ __ __ __ __ __ __ __ __ __ __ __ __ __
 72
    65
 73
     2
 40
3.500000
 49
2.500000
 49
-1.000000
  0
LTYPE
  2
DASHED3
 70
    64
  3
__ __ __ __ __ __ __ __ __ __ __ __ __ __ __
 72
    65
 73
     2
 40
6.000000
 49
4.000000
 49
-2.000000
  0
LTYPE
  2
DASHED4
 70
    64
  3
__ __ __ __ __ __ __ __ __ __ __ __ __ __ __
 72
    65
 73
     2
 40
12.000000
 49
10.000000
 49
-2.000000
  0
LTYPE
  2
DASHED5
 70
    64
  3
__ __ __ __ __ __ __ __ __ __ __ __ __ __ __
 72
    65
 73
     2
 40
17.000000
 49
15.000000
 49
-2.000000
  0
LTYPE
  2
DASHED6
 70
    64
  3
__ __ __ __ __ __ __ __ __ __ __ __ __ __ __
 72
    65
 73
     2
 40
29.000000
 49
27.000000
 49
-2.000000
  0
LTYPE
  2
PHANTOM1
 70
    64
  3
_____ _ _ _____ _ _ _____ _ _ _____ _ _ ____  
 72
    65
 73
     6
 40
31.000000
 49
25.000000
 49
-1.500000
 49
1.000000
 49
-1.000000
 49
1.000000
 49
-1.500000
  0
LTYPE
  2
PHANTOM2
 70
    64
  3
_____ _ _ _____ _ _ _____ _ _ _____ _ _ ____  
 72
    65
 73
     6
 40
36.000000
 49
27.000000
 49
-1.500000
 49
2.500000
 49
-1.000000
 49
2.500000
 49
-1.500000
  0
LTYPE
  2
PHANTOM3
 70
    64
  3
_____ _ _ _____ _ _ _____ _ _ _____ _ _ ____  
 72
    65
 73
     6
 40
78.000000
 49
64.000000
 49
-2.000000
 49
4.000000
 49
-2.000000
 49
4.000000
 49
-2.000000
  0
LTYPE
  2
CENTER1
 70
    64
  3
____ _ ____ _ ____ _ ____ _ ____ _ ____ _ ____
 72
    65
 73
     4
 40
19.000000
 49
14.000000
 49
-1.000000
 49
3.000000
 49
-1.000000
  0
LTYPE
  2
CENTER2
 70
    64
  3
____ _ ____ _ ____ _ ____ _ ____ _ ____ _ ____
 72
    65
 73
     4
 40
28.500000
 49
25.000000
 49
-1.000000
 49
1.500000
 49
-1.000000
  0
LTYPE
  2
CENTER3
 70
    64
  3
____ _ ____ _ ____ _ ____ _ ____ _ ____ _ ____
 72
    65
 73
     4
 40
31.500000
 49
27.000000
 49
-1.000000
 49
2.500000
 49
-1.000000
  0
LTYPE
  2
CENTER4
 70
    64
  3
____ _ ____ _ ____ _ ____ _ ____ _ ____ _ ____
 72
    65
 73
     4
 40
50.000000
 49
45.000000
 49
-1.000000
 49
3.000000
 49
-1.000000
  0
LTYPE
  2
CENTER5
 70
    64
  3
____ _ ____ _ ____ _ ____ _ ____ _ ____ _ ____
 72
    65
 73
     4
 40
100.000000
 49
92.000000
 49
-2.000000
 49
4.000000
 49
-2.000000
  0
LTYPE
  2
SBK1
 70
    64
  3
______ _ _ _ ______ _ _ _ ______ _ _ _ _____  
 72
    65
 73
     8
 40
60.500000
 49
45.000000
 49
-2.000000
 49
2.500000
 49
-2.000000
 49
2.500000
 49
-2.000000
 49
2.500000
 49
-2.000000
  0
LTYPE
  2
SBK2
 70
    64
  3
______ _ _ _ ______ _ _ _ ______ _ _ _ _____  
 72
    65
 73
     8
 40
84.000000
 49
64.000000
 49
-2.000000
 49
4.000000
 49
-2.000000
 49
4.000000
 49
-2.000000
 49
4.000000
 49
-2.000000
  0
LTYPE
  2
STCH
 70
    64
  3
__ __ __ __ __ __ __ __ __ __ __ __ __ __ __
 72
    65
 73
     2
 40
3.000000
 49
1.000000
 49
-2.000000
  0
LTYPE
  2
MTCH
 70
    64
  3
_____ _ _ _____ _ _ _____ _ _ _____ _ _ ____  
 72
    65
 73
     6
 40
80.000000
 49
66.000000
 49
-2.000000
 49
4.000000
 49
-2.000000
 49
4.000000
 49
-2.000000
  0
ENDTAB
  0
TABLE
  2
LAYER
 70
     1
  0
LAYER
  2
0
 70
     0
 62
     7
  6
CONTINUOUS
  0
ENDTAB
  0
TABLE
  2
STYLE
 70
     1
  0
STYLE
  2
STANDARD
 70
     0
 40
0.000000
 41
1.000000
 50
0.000000
 71
     0
 42
0.200000
  3
txt
  4
BIGFONT
  0
ENDTAB
  0
TABLE
  2
VIEW
 70
     0
  0
ENDTAB
  0
ENDSEC
  0
SECTION
  2
BLOCKS
  0
ENDSEC
  0
SECTION
  2
ENTITIES
  0
LINE
  8
0
 10
-42.764671
 20
6.703897
 11
-42.764671
 21
2.203897
  0
LINE
  8
0
 10
16.735329
 20
9.700562
 11
16.735329
 21
-13.299438
  0
LINE
  8
0
 10
-42.764671
 20
2.203897
 11
-26.264671
 21
2.203897
  0
LINE
  8
0
 10
-26.264671
 20
9.700562
 11
-26.264671
 21
-13.299438
  0
LINE
  8
0
 10
-23.464670
 20
10.343895
 11
-19.014671
 21
10.343895
  0
LINE
  8
0
 10
-19.014671
 20
9.700562
 11
-19.014671
 21
10.343895
  0
LINE
  8
0
 10
-42.764671
 20
-5.796105
 11
-26.264671
 21
-5.796105
  0
LINE
  8
0
 10
-42.764671
 20
-5.796105
 11
-42.764671
 21
-10.296104
  0
LINE
  8
0
 10
-23.514669
 20
-13.936106
 11
-19.014671
 21
-13.936106
  0
LINE
  8
0
 10
-19.014671
 20
-13.936106
 11
-19.014671
 21
-13.299438
  0
LINE
  8
0
  6
CENTER
 62
     2
 10
-39.764671
 20
-3.768739
 11
-39.764671
 21
-11.975227
  0
LINE
  8
0
  6
CENTER
 62
     2
 10
-33.764671
 20
-4.612397
 11
-33.764671
 21
-11.668444
  0
LINE
  8
0
  6
CENTER
 62
     2
 10
-39.764671
 20
7.576040
 11
-39.764671
 21
0.519994
  0
LINE
  8
0
  6
CENTER
 62
     2
 10
-33.764671
 20
7.959520
 11
-33.764671
 21
0.443295
  0
LINE
  8
0
  6
CENTER
 62
     2
 10
-14.439670
 20
4.200562
 11
-10.689670
 21
4.200562
  0
LINE
  8
0
 10
-42.764671
 20
-10.296105
 11
-26.264671
 21
-10.296105
  0
LINE
  8
0
 10
-42.764671
 20
6.703897
 11
-26.264671
 21
6.703897
  0
LINE
  8
0
  6
CENTER
 62
     2
 10
-30.926661
 20
-1.799438
 11
20.753204
 21
-1.799438
  0
LINE
  8
0
  6
CENTER
 62
     2
 10
-3.264671
 20
9.494972
 11
-3.264671
 21
4.854356
  0
LINE
  8
0
  6
CENTER
 62
     2
 10
-5.668139
 20
7.200562
 11
-0.816587
 21
7.200562
  0
LINE
  8
0
  6
CENTER
 62
     2
 10
-12.564671
 20
6.075561
 11
-12.564671
 21
2.325561
  0
LINE
  8
0
 10
-22.864670
 20
9.700562
 11
-22.864670
 21
-13.299438
  0
LINE
  8
0
 10
-23.464670
 20
9.700562
 11
-23.464670
 21
10.343895
  0
LINE
  8
0
 10
-23.514669
 20
-13.936106
 11
-23.514669
 21
-13.299438
  0
LINE
  8
0
 10
-26.264671
 20
9.700562
 11
16.735329
 21
9.700562
  0
LINE
  8
0
 10
-26.264671
 20
-13.299438
 11
16.735329
 21
-13.299438
  0
LINE
  8
0
 62
     2
 10
-23.464670
 20
9.840561
 11
-19.014671
 21
9.840561
  0
LINE
  8
0
 62
     2
 10
-23.514669
 20
-13.436106
 11
-19.014671
 21
-13.436106
  0
LINE
  8
0
 62
     4
 10
16.735329
 20
-8.449450
 11
19.735329
 21
-8.449450
  0
LINE
  8
0
 62
     4
 10
16.735329
 20
-13.049449
 11
19.735329
 21
-13.049449
  0
LINE
  8
0
 62
     4
 10
19.735329
 20
-8.449450
 11
19.735329
 21
-13.049449
  0
LINE
  8
0
 62
     4
 10
16.735329
 20
-12.049426
 11
19.735329
 21
-12.049426
  0
LINE
  8
0
 62
     4
 10
16.735329
 20
-12.599444
 11
19.735329
 21
-12.599444
  0
LINE
  8
0
 62
     4
 10
19.735329
 20
-9.449435
 11
25.984772
 21
-9.449435
  0
LINE
  8
0
 62
     4
 10
19.735329
 20
-12.049441
 11
27.485886
 21
-12.049441
  0
LINE
  8
0
 62
     1
 10
25.485308
 20
-8.584339
 11
27.985308
 21
-12.914466
  0
LINE
  8
0
 62
     4
 10
16.735329
 20
8.450565
 11
25.984772
 21
8.450565
  0
LINE
  8
0
 62
     4
 10
16.735329
 20
5.850559
 11
27.485886
 21
5.850559
  0
LINE
  8
0
 62
     1
 10
25.485317
 20
9.315663
 11
27.985319
 21
4.985536
  0
LINE
  8
0
  6
CENTER
 62
     2
 10
-3.264671
 20
-8.504988
 11
-3.264671
 21
-13.299438
  0
LINE
  8
0
  6
CENTER
 62
     2
 10
-5.647306
 20
-10.799438
 11
-0.816587
 21
-10.799438
  0
LINE
  8
0
  6
CENTER
 62
     2
 10
-12.564671
 20
-5.924439
 11
-12.564671
 21
-9.674439
  0
LINE
  8
0
  6
CENTER
 62
     2
 10
-14.439670
 20
-7.799438
 11
-10.689670
 21
-7.799438
  0
LINE
  8
0
  6
CENTER
 62
     2
 10
-131.051620
 20
-1.799438
 11
-110.309212
 21
-1.799438
  0
LINE
  8
0
 10
-128.852707
 20
-13.299438
 11
-112.852707
 21
-13.299438
  0
LINE
  8
0
 10
-128.852676
 20
9.700562
 11
-112.852676
 21
9.700562
  0
LINE
  8
0
 62
     2
 10
-123.602707
 20
-13.436106
 11
-118.102707
 21
-13.436106
  0
LINE
  8
0
  6
CENTER
 62
     2
 10
-120.852692
 20
12.391739
 11
-120.852692
 21
-15.413777
  0
LINE
  8
0
 10
-117.602692
 20
6.500557
 11
-117.602692
 21
0.900558
  0
LINE
  8
0
 10
-124.102692
 20
6.500565
 11
-124.102692
 21
0.900567
  0
LINE
  8
0
 10
-124.102692
 20
-4.499433
 11
-124.102692
 21
-10.099434
  0
LINE
  8
0
 10
-117.602692
 20
-4.499441
 11
-117.602692
 21
-10.099442
  0
LINE
  8
0
 10
-128.852692
 20
9.700572
 11
-128.852692
 21
-13.299428
  0
LINE
  8
0
 10
-112.852692
 20
9.700552
 11
-112.852692
 21
-13.299446
  0
LINE
  8
0
 10
-123.602684
 20
1.243896
 11
-118.102684
 21
1.243896
  0
LINE
  8
0
 10
-123.602699
 20
-4.836105
 11
-118.102699
 21
-4.836105
  0
LINE
  8
0
 10
-118.102692
 20
10.700558
 11
-118.102692
 21
9.700558
  0
LINE
  8
0
 10
-123.602692
 20
10.700565
 11
-123.602692
 21
9.700565
  0
LINE
  8
0
 10
-123.602692
 20
-13.299435
 11
-123.602692
 21
-14.299435
  0
LINE
  8
0
 10
-118.102692
 20
-13.299442
 11
-118.102692
 21
-14.299442
  0
LINE
  8
0
 62
     2
 10
-123.602676
 20
9.840561
 11
-118.102676
 21
9.840561
  0
LINE
  8
0
 10
-122.602692
 20
-2.999437
 11
-119.102692
 21
-2.999437
  0
LINE
  8
0
 10
-122.602692
 20
-0.599438
 11
-119.102692
 21
-0.599438
  0
LINE
  8
0
 10
-122.602676
 20
8.000561
 11
-119.102676
 21
8.000561
  0
LINE
  8
0
 10
-122.602707
 20
-11.599438
 11
-119.102707
 21
-11.599438
  0
LINE
  8
0
 10
-123.602676
 20
10.700562
 11
-118.102676
 21
10.700562
  0
LINE
  8
0
 10
-123.602707
 20
-14.299438
 11
-118.102707
 21
-14.299438
  0
LINE
  8
0
 10
-123.602692
 20
7.618599
 11
-123.602692
 21
1.243900
  0
LINE
  8
0
 10
-118.102692
 20
7.618591
 11
-118.102692
 21
1.243893
  0
LINE
  8
0
 10
-123.602692
 20
-4.836102
 11
-123.602692
 21
-11.217468
  0
LINE
  8
0
 10
-118.102692
 20
-4.836109
 11
-118.102692
 21
-11.217476
  0
LINE
  8
0
 10
-123.602699
 20
-10.299438
 11
-118.102699
 21
-10.299438
  0
LINE
  8
0
 10
-123.602684
 20
6.700562
 11
-118.102684
 21
6.700562
  0
LINE
  8
0
 10
-123.602699
 20
-5.799438
 11
-118.102699
 21
-5.799438
  0
LINE
  8
0
 10
-123.602684
 20
2.200562
 11
-118.102684
 21
2.200562
  0
LINE
  8
0
 10
95.166672
 20
9.700589
 11
95.166672
 21
-13.299411
  0
LINE
  8
0
 10
111.166672
 20
9.700534
 11
111.166672
 21
-13.299466
  0
LINE
  8
0
 10
95.166634
 20
-13.299438
 11
101.916634
 21
-13.299438
  0
LINE
  8
0
 10
95.166710
 20
9.700562
 11
101.916710
 21
9.700562
  0
LINE
  8
0
 10
100.416672
 20
10.340570
 11
100.416672
 21
9.700571
  0
LINE
  8
0
 10
105.916672
 20
10.340551
 11
105.916672
 21
9.700552
  0
LINE
  8
0
 10
100.416672
 20
-13.299429
 11
100.416672
 21
-13.939428
  0
LINE
  8
0
 10
105.916672
 20
-13.299448
 11
105.916672
 21
-13.939447
  0
LINE
  8
0
  6
CENTER
 62
     2
 10
98.166740
 20
8.950579
 11
98.166740
 21
4.450579
  0
LINE
  8
0
  6
CENTER
 62
     2
 10
95.916702
 20
6.700593
 11
100.416702
 21
6.700593
  0
LINE
  8
0
 62
     2
 10
100.416634
 20
-13.439438
 11
101.916634
 21
-13.439438
  0
LINE
  8
0
 10
100.416634
 20
-13.939438
 11
105.916634
 21
-13.939438
  0
LINE
  8
0
 62
     2
 10
100.416710
 20
9.840561
 11
101.916710
 21
9.840561
  0
LINE
  8
0
 10
100.416710
 20
10.340561
 11
105.916710
 21
10.340561
  0
LINE
  8
0
 10
101.066673
 20
-11.999432
 11
101.066673
 21
-10.399433
  0
LINE
  8
0
 10
105.266670
 20
-11.999446
 11
105.266670
 21
-10.399444
  0
LINE
  8
0
 10
104.766693
 20
-12.499512
 11
105.266693
 21
-11.999511
  0
LINE
  8
0
 10
104.766670
 20
-12.799444
 11
104.766670
 21
-12.499445
  0
LINE
  8
0
 10
101.566681
 20
-12.499406
 11
101.066673
 21
-11.999405
  0
LINE
  8
0
 10
101.566673
 20
-12.799433
 11
101.566673
 21
-12.499434
  0
LINE
  8
0
 10
101.066673
 20
6.800571
 11
101.066673
 21
8.400570
  0
LINE
  8
0
 10
101.066696
 20
8.400567
 11
101.566689
 21
8.900562
  0
LINE
  8
0
 10
101.566673
 20
9.200567
 11
101.566673
 21
8.900568
  0
LINE
  8
0
 10
104.766670
 20
9.200556
 11
104.766670
 21
8.900557
  0
LINE
  8
0
 10
105.266724
 20
8.400594
 11
104.766724
 21
8.900595
  0
LINE
  8
0
 10
105.266670
 20
6.800556
 11
105.266670
 21
8.400556
  0
LINE
  8
0
 62
     4
 10
104.766678
 20
8.900621
 11
104.666733
 21
9.000565
  0
LINE
  8
0
 62
     4
 10
104.666672
 20
9.450547
 11
104.666672
 21
9.000550
  0
LINE
  8
0
 62
     4
 10
104.666710
 20
9.450552
 11
101.666710
 21
9.450552
  0
LINE
  8
0
 62
     4
 10
101.666672
 20
9.450558
 11
101.666672
 21
9.000561
  0
LINE
  8
0
 62
     4
 10
104.416672
 20
9.950548
 11
104.416672
 21
9.450548
  0
LINE
  8
0
 62
     4
 10
101.916672
 20
9.950557
 11
101.916672
 21
9.450557
  0
LINE
  8
0
 62
     4
 10
104.416710
 20
9.950552
 11
101.916710
 21
9.950552
  0
LINE
  8
0
 62
     4
 10
101.566704
 20
8.900674
 11
101.666641
 21
9.000613
  0
LINE
  8
0
 62
     4
 10
104.766655
 20
-12.499541
 11
104.666710
 21
-12.599485
  0
LINE
  8
0
 62
     4
 10
104.666672
 20
-13.049434
 11
104.666672
 21
-12.599437
  0
LINE
  8
0
 62
     4
 10
104.666634
 20
-13.049429
 11
101.666634
 21
-13.049429
  0
LINE
  8
0
 62
     4
 10
101.666672
 20
-13.049423
 11
101.666672
 21
-12.599426
  0
LINE
  8
0
 62
     4
 10
104.416672
 20
-13.549433
 11
104.416672
 21
-13.049433
  0
LINE
  8
0
 62
     4
 10
101.916672
 20
-13.549424
 11
101.916672
 21
-13.049424
  0
LINE
  8
0
 62
     4
 10
104.416634
 20
-13.549429
 11
101.916634
 21
-13.549429
  0
LINE
  8
0
 62
     4
 10
101.566658
 20
-12.499502
 11
101.666595
 21
-12.599442
  0
LINE
  8
0
 10
104.416710
 20
9.700562
 11
111.166710
 21
9.700562
  0
LINE
  8
0
 10
104.416634
 20
-13.299438
 11
111.166634
 21
-13.299438
  0
LINE
  8
0
 62
     2
 10
104.416634
 20
-13.439438
 11
105.916634
 21
-13.439438
  0
LINE
  8
0
 62
     2
 10
104.416710
 20
9.840561
 11
105.916710
 21
9.840561
  0
LINE
  8
0
  6
CENTER
 62
     2
 10
91.166672
 20
-1.799438
 11
115.054367
 21
-1.799438
  0
LINE
  8
0
  6
CENTER
 62
     2
 10
103.166672
 20
14.333336
 11
103.166672
 21
-16.637318
  0
LINE
  8
0
  6
CENTER
 62
     2
 10
108.166740
 20
-8.049456
 11
108.166740
 21
-12.549456
  0
LINE
  8
0
  6
CENTER
 62
     2
 10
105.916641
 20
-10.299407
 11
110.416641
 21
-10.299407
  0
LINE
  8
0
 10
-26.264671
 20
73.301613
 11
-26.264671
 21
57.701607
  0
LINE
  8
0
 10
-20.264671
 20
70.551613
 11
-20.264671
 21
68.551613
  0
LINE
  8
0
 10
16.735329
 20
73.501617
 11
16.735329
 21
66.801636
  0
LINE
  8
0
  6
CENTER
 62
     2
 10
-3.264671
 20
75.385468
 11
-3.264671
 21
55.487076
  0
LINE
  8
0
  6
CENTER
 62
     2
 10
-46.302181
 20
65.501610
 11
29.935329
 21
65.501610
  0
LINE
  8
0
 10
-22.864672
 20
73.501610
 11
16.735329
 21
73.501610
  0
LINE
  8
0
 10
-22.864668
 20
57.501610
 11
16.735329
 21
57.501610
  0
LINE
  8
0
 10
-42.764671
 20
68.251610
 11
-42.764671
 21
62.751610
  0
LINE
  8
0
 62
     2
 10
-8.764671
 20
67.501610
 11
-8.764671
 21
63.501610
  0
LINE
  8
0
 10
-16.564671
 20
63.501610
 11
-7.764671
 21
63.501610
  0
LINE
  8
0
 10
-16.564671
 20
67.501610
 11
-7.764671
 21
67.501610
  0
LINE
  8
0
 10
-16.564671
 20
68.551613
 11
-16.564671
 21
66.251610
  0
LINE
  8
0
 10
-42.764671
 20
68.251610
 11
-26.264671
 21
68.251610
  0
LINE
  8
0
 10
-42.764671
 20
62.751610
 11
-26.264671
 21
62.751610
  0
LINE
  8
0
 10
-24.764671
 20
68.751610
 11
-24.764671
 21
62.251610
  0
LINE
  8
0
 10
-24.764671
 20
62.251610
 11
-22.864670
 21
62.251610
  0
LINE
  8
0
 10
-24.764671
 20
68.751610
 11
-22.864670
 21
68.751610
  0
LINE
  8
0
 10
-22.864670
 20
73.501610
 11
-22.864670
 21
68.751610
  0
LINE
  8
0
 10
-22.864670
 20
70.551613
 11
-20.264671
 21
70.551613
  0
LINE
  8
0
 10
-22.864670
 20
60.751610
 11
-20.264671
 21
60.751610
  0
LINE
  8
0
 10
-26.264669
 20
57.701607
 11
-22.864668
 21
57.701607
  0
LINE
  8
0
 10
-26.264673
 20
73.301613
 11
-22.864672
 21
73.301613
  0
LINE
  8
0
 10
-19.118919
 20
64.751610
 11
-10.064671
 21
64.751610
  0
LINE
  8
0
 10
-19.118919
 20
66.251610
 11
-15.064671
 21
66.251610
  0
LINE
  8
0
 10
-10.064671
 20
67.051613
 11
-10.064671
 21
64.751610
  0
LINE
  8
0
 10
-15.064671
 20
67.051613
 11
-10.064671
 21
67.051613
  0
LINE
  8
0
 10
-15.064671
 20
67.051613
 11
-15.064671
 21
66.251610
  0
LINE
  8
0
 10
-14.064671
 20
67.501610
 11
-14.064671
 21
67.051613
  0
LINE
  8
0
 10
-12.064671
 20
67.501610
 11
-12.064671
 21
67.051613
  0
LINE
  8
0
 10
-14.064671
 20
64.751610
 11
-14.064671
 21
63.501610
  0
LINE
  8
0
 10
-12.064671
 20
64.751610
 11
-12.064671
 21
63.501610
  0
LINE
  8
0
 10
-17.064671
 20
68.251610
 11
-17.064671
 21
66.251610
  0
LINE
  8
0
 10
-24.764671
 20
68.251610
 11
-17.064671
 21
68.251610
  0
LINE
  8
0
 10
-24.764671
 20
62.751610
 11
-17.064671
 21
62.751610
  0
LINE
  8
0
 10
-16.564671
 20
64.751610
 11
-16.564671
 21
62.451607
  0
LINE
  8
0
 10
-22.864670
 20
68.851608
 11
-22.464668
 21
68.851608
  0
LINE
  8
0
 10
-22.864670
 20
62.451607
 11
-22.464672
 21
62.451607
  0
LINE
  8
0
  6
CENTER
 62
     2
 10
-39.764671
 20
67.791725
 11
-39.764671
 21
63.221420
  0
LINE
  8
0
  6
CENTER
 62
     2
 10
-33.764671
 20
67.932350
 11
-33.764671
 21
63.151108
  0
LINE
  8
0
 10
-22.464699
 20
68.851639
 11
-21.564705
 21
69.751633
  0
LINE
  8
0
 10
-21.564634
 20
69.751625
 11
-20.664640
 21
68.851631
  0
LINE
  8
0
 10
-20.664669
 20
68.851608
 11
-20.264671
 21
68.851608
  0
LINE
  8
0
 10
-21.564709
 20
61.551620
 11
-20.664705
 21
62.451622
  0
LINE
  8
0
 10
-22.464643
 20
62.451614
 11
-21.564642
 21
61.551617
  0
LINE
  8
0
  6
CENTER
 62
     2
 10
9.235329
 20
74.471405
 11
9.235329
 21
66.455803
  0
LINE
  8
0
  6
CENTER
 62
     2
 10
1.735329
 20
64.140770
 11
1.735329
 21
56.682381
  0
LINE
  8
0
  6
CENTER
 62
     2
 10
-1.976740
 20
60.501610
 11
5.855820
 21
60.501610
  0
LINE
  8
0
  6
CENTER
 62
     2
 10
5.195120
 20
70.501610
 11
13.351349
 21
70.501610
  0
LINE
  8
0
 10
-22.264671
 20
66.915825
 11
-22.264671
 21
66.001610
  0
LINE
  8
0
 10
-21.264671
 20
66.915825
 11
-21.264671
 21
66.001610
  0
LINE
  8
0
 10
-23.178886
 20
65.001610
 11
-22.264671
 21
65.001610
  0
LINE
  8
0
 10
-23.178886
 20
66.001610
 11
-22.264671
 21
66.001610
  0
LINE
  8
0
 10
-21.264671
 20
66.001610
 11
-20.350456
 21
66.001610
  0
LINE
  8
0
 10
-21.264671
 20
65.001610
 11
-20.350456
 21
65.001610
  0
LINE
  8
0
 10
-21.264671
 20
65.001610
 11
-21.264671
 21
64.087395
  0
LINE
  8
0
 10
-22.264671
 20
65.001610
 11
-22.264671
 21
64.087395
  0
LINE
  8
0
 10
-20.264671
 20
68.551613
 11
-16.564671
 21
68.551613
  0
LINE
  8
0
 10
-20.664721
 20
62.451607
 11
-16.564671
 21
62.451607
  0
LINE
  8
0
 62
     2
 10
-24.364670
 20
68.251610
 11
-24.364670
 21
66.397438
  0
LINE
  8
0
 62
     2
 10
-24.364670
 20
64.605782
 11
-24.364670
 21
62.751610
  0
LINE
  8
0
 10
-17.064671
 20
64.751610
 11
-17.064671
 21
62.751610
  0
LINE
  8
0
 10
-20.264671
 20
62.451607
 11
-20.264671
 21
60.751610
  0
LINE
  8
0
 10
-22.864670
 20
62.451607
 11
-22.864670
 21
57.501610
  0
LINE
  8
0
 10
-7.764671
 20
63.901604
 11
16.735329
 21
63.901604
  0
LINE
  8
0
 10
-7.764671
 20
67.101616
 11
16.735329
 21
67.101616
  0
LINE
  8
0
 10
-7.764671
 20
67.501610
 11
-7.764671
 21
63.501610
  0
LINE
  8
0
 62
     4
 10
-6.764671
 20
67.101616
 11
-6.764671
 21
63.901604
  0
LINE
  8
0
 62
     4
 10
15.235329
 20
67.101624
 11
15.235329
 21
63.901611
  0
LINE
  8
0
 62
     4
 10
-5.798898
 20
64.799599
 11
-4.062626
 21
66.535866
  0
LINE
  8
0
 62
     4
 10
-5.440963
 20
64.450386
 11
-3.713413
 21
66.177940
  0
LINE
  8
0
 62
     4
 10
15.235329
 20
66.801628
 11
25.984760
 21
66.801628
  0
LINE
  8
0
 62
     4
 10
15.235329
 20
64.201622
 11
27.485874
 21
64.201622
  0
LINE
  8
0
 62
     1
 10
25.485312
 20
67.666725
 11
27.985312
 21
63.336605
  0
LINE
  8
0
 10
16.735329
 20
64.201630
 11
16.735329
 21
57.501617
  0
LINE
  8
0
 10
-22.864666
 20
-72.295425
 11
16.735332
 21
-72.295425
  0
LINE
  8
0
 10
-22.864674
 20
-88.295418
 11
16.735325
 21
-88.295418
  0
LINE
  8
0
 10
-42.764671
 20
-77.545418
 11
-42.764671
 21
-83.045418
  0
LINE
  8
0
 10
-26.264671
 20
-72.495422
 11
-26.264671
 21
-88.095421
  0
LINE
  8
0
 10
-20.264671
 20
-75.245422
 11
-20.264671
 21
-77.245422
  0
LINE
  8
0
 10
16.735329
 20
-72.295448
 11
16.735329
 21
-78.695442
  0
LINE
  8
0
 10
-8.764671
 20
-78.295433
 11
-8.764671
 21
-82.295433
  0
LINE
  8
0
 10
-16.564671
 20
-77.245430
 11
-16.564671
 21
-79.545433
  0
LINE
  8
0
 10
-42.764671
 20
-77.545425
 11
-26.264669
 21
-77.545425
  0
LINE
  8
0
 10
-42.764671
 20
-83.045425
 11
-26.264673
 21
-83.045425
  0
LINE
  8
0
 10
-24.764671
 20
-77.045425
 11
-24.764671
 21
-83.545425
  0
LINE
  8
0
 10
-24.764673
 20
-83.545425
 11
-22.864672
 21
-83.545425
  0
LINE
  8
0
 10
-24.764669
 20
-77.045425
 11
-22.864668
 21
-77.045425
  0
LINE
  8
0
 10
-22.864670
 20
-72.295425
 11
-22.864670
 21
-77.045425
  0
LINE
  8
0
 10
-22.864668
 20
-75.245422
 11
-20.264669
 21
-75.245422
  0
LINE
  8
0
 10
-22.864672
 20
-85.045418
 11
-20.264673
 21
-85.045418
  0
LINE
  8
0
 10
-26.264675
 20
-88.095421
 11
-22.864674
 21
-88.095421
  0
LINE
  8
0
 10
-26.264668
 20
-72.495422
 11
-22.864666
 21
-72.495422
  0
LINE
  8
0
 10
-19.118919
 20
-81.045425
 11
-10.064671
 21
-81.045425
  0
LINE
  8
0
 10
-19.118919
 20
-79.545425
 11
-15.064671
 21
-79.545425
  0
LINE
  8
0
 10
-10.064671
 20
-78.745430
 11
-10.064671
 21
-81.045433
  0
LINE
  8
0
 10
-15.064671
 20
-78.745422
 11
-10.064671
 21
-78.745422
  0
LINE
  8
0
 10
-15.064671
 20
-78.745430
 11
-15.064671
 21
-79.545433
  0
LINE
  8
0
 10
-14.064671
 20
-78.295433
 11
-14.064671
 21
-78.745430
  0
LINE
  8
0
 10
-12.064671
 20
-78.295433
 11
-12.064671
 21
-78.745430
  0
LINE
  8
0
 10
-14.064671
 20
-81.045433
 11
-14.064671
 21
-82.295433
  0
LINE
  8
0
 10
-12.064671
 20
-81.045433
 11
-12.064671
 21
-82.295433
  0
LINE
  8
0
 10
-17.064671
 20
-77.545433
 11
-17.064671
 21
-79.545433
  0
LINE
  8
0
 10
-24.764669
 20
-77.545425
 11
-17.064669
 21
-77.545425
  0
LINE
  8
0
 10
-24.764673
 20
-83.045425
 11
-17.064672
 21
-83.045425
  0
LINE
  8
0
 10
-16.564671
 20
-81.045433
 11
-16.564671
 21
-83.345428
  0
LINE
  8
0
 10
-20.264671
 20
-83.345421
 11
-20.264671
 21
-85.045418
  0
LINE
  8
0
 10
-22.864668
 20
-76.945419
 11
-22.414671
 21
-76.945419
  0
LINE
  8
0
 10
-22.864672
 20
-83.345421
 11
-22.414679
 21
-83.345421
  0
LINE
  8
0
  6
CENTER
 62
     2
 10
-39.764671
 20
-78.137650
 11
-39.764671
 21
-82.567329
  0
LINE
  8
0
  6
CENTER
 62
     2
 10
-33.764671
 20
-78.067337
 11
-33.764671
 21
-82.567329
  0
LINE
  8
0
  6
CENTER
 62
     2
 10
0.735329
 20
-73.004868
 11
0.735329
 21
-77.645485
  0
LINE
  8
0
  6
CENTER
 62
     2
 10
-1.484556
 20
-85.295418
 11
3.226370
 21
-85.295418
  0
LINE
  8
0
  6
CENTER
 62
     2
 10
-1.479929
 20
-75.295425
 11
3.226374
 21
-75.295425
  0
LINE
  8
0
 10
-22.414663
 20
-76.945435
 11
-21.514660
 21
-76.045418
  0
LINE
  8
0
 10
-20.614668
 20
-76.945427
 11
-21.514668
 21
-76.045425
  0
LINE
  8
0
 10
-20.614668
 20
-76.945419
 11
-20.264669
 21
-76.945419
  0
LINE
  8
0
 10
-21.514658
 20
-84.245399
 11
-22.414661
 21
-83.345398
  0
LINE
  8
0
 10
-21.514664
 20
-84.245453
 11
-20.614656
 21
-83.345451
  0
LINE
  8
0
 10
-20.614672
 20
-83.345421
 11
-20.264673
 21
-83.345421
  0
LINE
  8
0
  6
CENTER
 62
     2
 10
-42.456333
 20
-80.295425
 11
29.735332
 21
-80.295425
  0
LINE
  8
0
 10
-22.264671
 20
-78.881210
 11
-22.264671
 21
-79.795425
  0
LINE
  8
0
 10
-21.264671
 20
-78.881210
 11
-21.264671
 21
-79.795425
  0
LINE
  8
0
 10
-23.178886
 20
-79.795425
 11
-22.264671
 21
-79.795425
  0
LINE
  8
0
 10
-23.178886
 20
-80.795425
 11
-22.264671
 21
-80.795425
  0
LINE
  8
0
 10
-21.264671
 20
-79.795425
 11
-20.350456
 21
-79.795425
  0
LINE
  8
0
 10
-21.264671
 20
-80.795425
 11
-20.350456
 21
-80.795425
  0
LINE
  8
0
 10
-22.264671
 20
-80.795425
 11
-22.264671
 21
-81.709641
  0
LINE
  8
0
 10
-21.264671
 20
-80.795425
 11
-21.264671
 21
-81.709641
  0
LINE
  8
0
  6
CENTER
 62
     2
 10
-3.264671
 20
-71.077759
 11
-3.264671
 21
-90.119797
  0
LINE
  8
0
 10
-20.264669
 20
-77.245422
 11
-16.564669
 21
-77.245422
  0
LINE
  8
0
 10
-20.264673
 20
-83.345421
 11
-16.564672
 21
-83.345421
  0
LINE
  8
0
 62
     2
 10
-24.364670
 20
-77.545425
 11
-24.364670
 21
-79.399597
  0
LINE
  8
0
 62
     2
 10
-24.364670
 20
-81.191246
 11
-24.364670
 21
-83.045425
  0
LINE
  8
0
 10
-17.064671
 20
-81.045433
 11
-17.064671
 21
-83.045433
  0
LINE
  8
0
 10
-22.864670
 20
-83.345421
 11
-22.864670
 21
-88.295418
  0
LINE
  8
0
 10
-7.764671
 20
-81.895432
 11
16.735329
 21
-81.895432
  0
LINE
  8
0
 10
-7.764671
 20
-78.695419
 11
16.735329
 21
-78.695419
  0
LINE
  8
0
 10
-7.764671
 20
-78.295433
 11
-7.764671
 21
-82.295433
  0
LINE
  8
0
 10
-16.564669
 20
-78.295425
 11
-7.764669
 21
-78.295425
  0
LINE
  8
0
 10
-16.564672
 20
-82.295425
 11
-7.764673
 21
-82.295425
  0
LINE
  8
0
  6
CENTER
 62
     2
 10
0.735329
 20
-82.989227
 11
0.735329
 21
-87.700150
  0
LINE
  8
0
 62
     4
 10
16.735329
 20
-82.345421
 11
19.735329
 21
-82.345421
  0
LINE
  8
0
 62
     4
 10
16.735329
 20
-78.245415
 11
19.735336
 21
-78.245415
  0
LINE
  8
0
 62
     4
 10
-4.264668
 20
-78.695435
 11
-4.264668
 21
-81.895447
  0
LINE
  8
0
 62
     4
 10
19.735332
 20
-78.245438
 11
19.735332
 21
-82.345444
  0
LINE
  8
0
 62
     4
 10
-3.298892
 20
-80.997452
 11
-1.562622
 21
-79.261177
  0
LINE
  8
0
 62
     4
 10
-2.940971
 20
-81.346657
 11
-1.213421
 21
-79.619110
  0
LINE
  8
0
 62
     4
 10
19.735332
 20
-78.995415
 11
25.984772
 21
-78.995415
  0
LINE
  8
0
 62
     4
 10
19.735332
 20
-81.595421
 11
27.485886
 21
-81.595421
  0
LINE
  8
0
 62
     1
 10
25.485323
 20
-78.130348
 11
27.985321
 21
-82.460464
  0
LINE
  8
0
 62
     4
 10
16.735329
 20
-78.695419
 11
19.735332
 21
-78.695419
  0
LINE
  8
0
 62
     4
 10
16.735329
 20
-81.895432
 11
19.735332
 21
-81.895432
  0
LINE
  8
0
 10
16.735329
 20
-81.895454
 11
16.735329
 21
-88.295441
  0
LINE
  8
0
 10
-194.250000
 20
132.600006
 11
194.800003
 21
132.600006
  0
LINE
  8
0
 10
194.800003
 20
132.600006
 11
194.800003
 21
-133.500000
  0
LINE
  8
0
 10
-194.250000
 20
132.600006
 11
-194.250000
 21
-133.500000
  0
LINE
  8
0
 10
-194.250000
 20
-133.500000
 11
194.800003
 21
-133.500000
  0
LINE
  8
0
 10
109.800003
 20
-118.500000
 11
109.800003
 21
-133.500000
  0
LINE
  8
0
 10
109.800003
 20
-118.500000
 11
194.800003
 21
-118.500000
  0
LINE
  8
0
 10
109.800003
 20
132.600006
 11
109.800003
 21
117.600006
  0
LINE
  8
0
 10
109.800003
 20
117.600006
 11
194.800003
 21
117.600006
  0
LINE
  8
0
 10
-194.250000
 20
117.600006
 11
-109.250000
 21
117.600006
  0
LINE
  8
0
 10
-109.250000
 20
132.600006
 11
-109.250000
 21
117.600006
  0
CIRCLE
  8
0
 10
-3.264671
 20
7.200562
 40
1.250000
  0
CIRCLE
  8
0
 10
-3.264671
 20
-10.799438
 40
1.250000
  0
CIRCLE
  8
0
 10
-12.564671
 20
4.200562
 40
1.250000
  0
CIRCLE
  8
0
 10
-12.564671
 20
-7.799438
 40
1.250000
  0
CIRCLE
  8
0
 62
     2
 10
-3.264671
 20
-10.799438
 40
1.500000
  0
CIRCLE
  8
0
 62
     2
 10
-3.264671
 20
7.200562
 40
1.500000
  0
ARC
  8
0
 10
-119.102699
 20
-10.099440
 40
1.500000
 50
270.000000
 51
0.000000
  0
ARC
  8
0
 10
-122.602699
 20
-10.099436
 40
1.500000
 50
179.999969
 51
270.000000
  0
ARC
  8
0
 10
-119.102692
 20
-4.499439
 40
1.500000
 50
0.000000
 51
90.000000
  0
ARC
  8
0
 10
-122.602684
 20
6.500563
 40
1.500000
 50
90.000000
 51
179.999969
  0
ARC
  8
0
 10
-119.102684
 20
6.500559
 40
1.500000
 50
0.000000
 51
90.000000
  0
ARC
  8
0
 10
-119.102692
 20
0.900560
 40
1.500000
 50
270.000000
 51
0.000000
  0
ARC
  8
0
 10
-122.602692
 20
0.900565
 40
1.500000
 50
179.999985
 51
270.000000
  0
ARC
  8
0
 10
-122.602692
 20
-4.499435
 40
1.500000
 50
90.000000
 51
179.999969
  0
CIRCLE
  8
0
 62
     4
 10
103.166702
 20
7.150564
 40
1.300000
  0
CIRCLE
  8
0
 62
     4
 10
103.166641
 20
-10.749441
 40
1.300000
  0
CIRCLE
  8
0
 10
108.166641
 20
-10.299456
 40
1.250000
  0
ARC
  8
0
 10
105.266701
 20
9.200554
 40
0.500000
 50
90.000000
 51
180.000000
  0
ARC
  8
0
 10
103.166702
 20
6.800564
 40
2.099998
 50
179.999969
 51
0.000013
  0
ARC
  8
0
 10
101.066711
 20
9.200569
 40
0.500000
 50
0.000000
 51
90.000000
  0
ARC
  8
0
 10
101.066635
 20
-12.799431
 40
0.500000
 50
270.000000
 51
0.000000
  0
CIRCLE
  8
0
 10
103.166672
 20
-1.799438
 40
5.500000
  0
CIRCLE
  8
0
 62
     2
 10
98.166702
 20
6.700579
 40
1.500000
  0
CIRCLE
  8
0
 62
     2
 10
108.166641
 20
-10.299456
 40
1.500000
  0
ARC
  8
0
 10
103.166641
 20
-10.399441
 40
2.099998
 50
0.000026
 51
179.999969
  0
ARC
  8
0
 10
105.266640
 20
-12.799446
 40
0.500000
 50
180.000000
 51
270.000000
  0
CIRCLE
  8
0
 10
98.166702
 20
6.700579
 40
1.250000
  0
CIRCLE
  8
0
 62
     4
 10
-4.764656
 20
65.501633
 40
1.250000
  0
CIRCLE
  8
0
 62
     4
 10
-4.764656
 20
65.501633
 40
1.400000
  0
CIRCLE
  8
0
 10
1.735329
 20
60.501614
 40
1.250000
  0
CIRCLE
  8
0
 10
-21.764671
 20
65.501610
 40
1.500000
  0
CIRCLE
  8
0
 10
-21.764671
 20
65.501610
 40
2.750000
  0
CIRCLE
  8
0
 62
     2
 10
-39.764671
 20
65.501610
 40
1.500000
  0
CIRCLE
  8
0
 62
     2
 10
-33.764671
 20
65.501610
 40
1.500000
  0
CIRCLE
  8
0
 62
     2
 10
9.235329
 20
70.501617
 40
1.500000
  0
CIRCLE
  8
0
 62
     2
 10
1.735329
 20
60.501614
 40
1.500000
  0
CIRCLE
  8
0
 10
9.235329
 20
70.501617
 40
3.000000
  0
CIRCLE
  8
0
 10
1.735329
 20
60.501614
 40
3.000000
  0
CIRCLE
  8
0
 10
-39.764671
 20
65.501610
 40
1.250000
  0
CIRCLE
  8
0
 10
-33.764671
 20
65.501610
 40
1.250000
  0
CIRCLE
  8
0
 10
9.235329
 20
70.501617
 40
1.250000
  0
CIRCLE
  8
0
 62
     4
 10
-2.264652
 20
-80.295433
 40
1.250000
  0
CIRCLE
  8
0
 62
     4
 10
-2.264652
 20
-80.295433
 40
1.400000
  0
CIRCLE
  8
0
 10
0.735327
 20
-85.295433
 40
1.250000
  0
CIRCLE
  8
0
 10
-21.764671
 20
-80.295425
 40
1.500000
  0
CIRCLE
  8
0
 10
-21.764671
 20
-80.295425
 40
2.750000
  0
CIRCLE
  8
0
 62
     2
 10
-39.764671
 20
-80.295418
 40
1.500000
  0
CIRCLE
  8
0
 62
     2
 10
-33.764671
 20
-80.295418
 40
1.500000
  0
CIRCLE
  8
0
 62
     2
 10
0.735331
 20
-75.295441
 40
1.500000
  0
CIRCLE
  8
0
 62
     2
 10
0.735327
 20
-85.295433
 40
1.500000
  0
CIRCLE
  8
0
 10
-39.764671
 20
-80.295418
 40
1.250000
  0
CIRCLE
  8
0
 10
-33.764671
 20
-80.295418
 40
1.250000
  0
CIRCLE
  8
0
 10
0.735331
 20
-75.295441
 40
1.250000
  0
TEXT
  8
0
 10
133.907150
 20
122.050003
 40
4.500000
  1
Ver. 1.0
 50
0.000000
 41
1.052631
 51
0.000000
  7
STANDARD
  0
TEXT
  8
0
 10
113.700279
 20
-130.669998
 40
6.300000
  1
KOGANEI CORP.
 50
0.000000
 41
1.052632
 51
0.000000
  7
STANDARD
  0
TEXT
  8
0
 10
-170.142654
 20
122.050003
 40
4.500000
  1
AIR HAND
 50
0.000000
 41
1.052632
 51
0.000000
  7
STANDARD
  0
TEXT
  8
0
 10
-159.892654
 20
97.550003
 40
4.500000
  1
NHBDRA-10-ZE135A2
 50
0.000000
 41
1.052632
 51
0.000000
  7
STANDARD
  0
TEXT
  8
0
 10
-186.892654
 20
104.550003
 40
4.500000
  1
MODEL:NHBDPA-10-ZE135A2
 50
0.000000
 41
1.052632
 51
0.000000
  7
STANDARD
  0
ENDSEC
  0
EOF
