  0
SECTION
  2
HEADER
  0
ENDSEC
  0
SECTION
  2
TABLES
  0
TABLE
  2
LTYPE
 70
     4
  0
LTYPE
  2
CONTINUOUS
 70
    64
  3
Solid line
 72
    65
 73
     0
 40
0.000000
  0
LTYPE
  2
DASHED
 70
    64
  3
__ __ __ __ __ __ __ __ __ __ __ __ __ __ __
 72
    65
 73
     2
 40
3.500000
 49
2.000000
 49
-1.500000
  0
LTYPE
  2
CENTER
 70
    64
  3
____ _ ____ _ ____ _ ____ _ ____ _ ____ _ ____
 72
    65
 73
     4
 40
17.500000
 49
13.000000
 49
-1.500000
 49
1.500000
 49
-1.500000
  0
LTYPE
  2
PHANTOM
 70
    64
  3
_____ _ _ _____ _ _ _____ _ _ _____ _ _ ____  
 72
    65
 73
     6
 40
15.500000
 49
8.000000
 49
-1.500000
 49
1.500000
 49
-1.500000
 49
1.500000
 49
-1.500000
  0
LTYPE
  2
DASHED1
 70
    64
  3
__ __ __ __ __ __ __ __ __ __ __ __ __ __ __
 72
    65
 73
     2
 40
1.500000
 49
1.000000
 49
-0.500000
  0
LTYPE
  2
DASHED2
 70
    64
  3
__ __ __ __ __ __ __ __ __ __ __ __ __ __ __
 72
    65
 73
     2
 40
3.500000
 49
2.500000
 49
-1.000000
  0
LTYPE
  2
DASHED3
 70
    64
  3
__ __ __ __ __ __ __ __ __ __ __ __ __ __ __
 72
    65
 73
     2
 40
6.000000
 49
4.000000
 49
-2.000000
  0
LTYPE
  2
DASHED4
 70
    64
  3
__ __ __ __ __ __ __ __ __ __ __ __ __ __ __
 72
    65
 73
     2
 40
12.000000
 49
10.000000
 49
-2.000000
  0
LTYPE
  2
DASHED5
 70
    64
  3
__ __ __ __ __ __ __ __ __ __ __ __ __ __ __
 72
    65
 73
     2
 40
17.000000
 49
15.000000
 49
-2.000000
  0
LTYPE
  2
DASHED6
 70
    64
  3
__ __ __ __ __ __ __ __ __ __ __ __ __ __ __
 72
    65
 73
     2
 40
29.000000
 49
27.000000
 49
-2.000000
  0
LTYPE
  2
PHANTOM1
 70
    64
  3
_____ _ _ _____ _ _ _____ _ _ _____ _ _ ____  
 72
    65
 73
     6
 40
31.000000
 49
25.000000
 49
-1.500000
 49
1.000000
 49
-1.000000
 49
1.000000
 49
-1.500000
  0
LTYPE
  2
PHANTOM2
 70
    64
  3
_____ _ _ _____ _ _ _____ _ _ _____ _ _ ____  
 72
    65
 73
     6
 40
36.000000
 49
27.000000
 49
-1.500000
 49
2.500000
 49
-1.000000
 49
2.500000
 49
-1.500000
  0
LTYPE
  2
PHANTOM3
 70
    64
  3
_____ _ _ _____ _ _ _____ _ _ _____ _ _ ____  
 72
    65
 73
     6
 40
78.000000
 49
64.000000
 49
-2.000000
 49
4.000000
 49
-2.000000
 49
4.000000
 49
-2.000000
  0
LTYPE
  2
CENTER1
 70
    64
  3
____ _ ____ _ ____ _ ____ _ ____ _ ____ _ ____
 72
    65
 73
     4
 40
19.000000
 49
14.000000
 49
-1.000000
 49
3.000000
 49
-1.000000
  0
LTYPE
  2
CENTER2
 70
    64
  3
____ _ ____ _ ____ _ ____ _ ____ _ ____ _ ____
 72
    65
 73
     4
 40
28.500000
 49
25.000000
 49
-1.000000
 49
1.500000
 49
-1.000000
  0
LTYPE
  2
CENTER3
 70
    64
  3
____ _ ____ _ ____ _ ____ _ ____ _ ____ _ ____
 72
    65
 73
     4
 40
31.500000
 49
27.000000
 49
-1.000000
 49
2.500000
 49
-1.000000
  0
LTYPE
  2
CENTER4
 70
    64
  3
____ _ ____ _ ____ _ ____ _ ____ _ ____ _ ____
 72
    65
 73
     4
 40
50.000000
 49
45.000000
 49
-1.000000
 49
3.000000
 49
-1.000000
  0
LTYPE
  2
CENTER5
 70
    64
  3
____ _ ____ _ ____ _ ____ _ ____ _ ____ _ ____
 72
    65
 73
     4
 40
100.000000
 49
92.000000
 49
-2.000000
 49
4.000000
 49
-2.000000
  0
LTYPE
  2
SBK1
 70
    64
  3
______ _ _ _ ______ _ _ _ ______ _ _ _ _____  
 72
    65
 73
     8
 40
60.500000
 49
45.000000
 49
-2.000000
 49
2.500000
 49
-2.000000
 49
2.500000
 49
-2.000000
 49
2.500000
 49
-2.000000
  0
LTYPE
  2
SBK2
 70
    64
  3
______ _ _ _ ______ _ _ _ ______ _ _ _ _____  
 72
    65
 73
     8
 40
84.000000
 49
64.000000
 49
-2.000000
 49
4.000000
 49
-2.000000
 49
4.000000
 49
-2.000000
 49
4.000000
 49
-2.000000
  0
LTYPE
  2
STCH
 70
    64
  3
__ __ __ __ __ __ __ __ __ __ __ __ __ __ __
 72
    65
 73
     2
 40
3.000000
 49
1.000000
 49
-2.000000
  0
LTYPE
  2
MTCH
 70
    64
  3
_____ _ _ _____ _ _ _____ _ _ _____ _ _ ____  
 72
    65
 73
     6
 40
80.000000
 49
66.000000
 49
-2.000000
 49
4.000000
 49
-2.000000
 49
4.000000
 49
-2.000000
  0
ENDTAB
  0
TABLE
  2
LAYER
 70
     1
  0
LAYER
  2
0
 70
     0
 62
     7
  6
CONTINUOUS
  0
ENDTAB
  0
TABLE
  2
STYLE
 70
     1
  0
STYLE
  2
STANDARD
 70
     0
 40
0.000000
 41
1.000000
 50
0.000000
 71
     0
 42
0.200000
  3
txt
  4
BIGFONT
  0
ENDTAB
  0
TABLE
  2
VIEW
 70
     0
  0
ENDTAB
  0
ENDSEC
  0
SECTION
  2
BLOCKS
  0
ENDSEC
  0
SECTION
  2
ENTITIES
  0
LINE
  8
0
 10
-27.974998
 20
-18.192984
 11
20.625000
 21
-18.192984
  0
LINE
  8
0
 10
20.625000
 20
15.807016
 11
20.625000
 21
-18.192984
  0
LINE
  8
0
 10
-31.375000
 20
15.807016
 11
-31.375000
 21
-18.192984
  0
LINE
  8
0
 10
-50.375000
 20
-14.192986
 11
-31.375000
 21
-14.192986
  0
LINE
  8
0
 10
-50.375000
 20
-7.692986
 11
-31.375000
 21
-7.692986
  0
LINE
  8
0
 10
-22.474998
 20
-19.342981
 11
-22.474998
 21
-19.942984
  0
LINE
  8
0
 10
-29.474998
 20
-18.192984
 11
-29.474998
 21
-19.942984
  0
LINE
  8
0
  6
CENTER
 62
     2
 10
-35.890949
 20
-1.192984
 11
24.283188
 21
-1.192984
  0
LINE
  8
0
 10
-27.974998
 20
-1.192984
 11
-27.974998
 21
-18.192984
  0
LINE
  8
0
 10
-50.375000
 20
-7.692986
 11
-50.375000
 21
-14.192986
  0
LINE
  8
0
 10
-31.375000
 20
-18.192984
 11
-27.974998
 21
-18.192984
  0
LINE
  8
0
 10
-27.974998
 20
15.807016
 11
20.625000
 21
15.807016
  0
LINE
  8
0
 10
-50.375000
 20
11.807018
 11
-31.375000
 21
11.807018
  0
LINE
  8
0
 10
-50.375000
 20
5.307018
 11
-31.375000
 21
5.307018
  0
LINE
  8
0
 10
-22.474998
 20
16.957014
 11
-22.474998
 21
17.557016
  0
LINE
  8
0
 10
-29.474998
 20
15.807016
 11
-29.474998
 21
17.557016
  0
LINE
  8
0
 10
-27.974998
 20
-1.192984
 11
-27.974998
 21
15.807016
  0
LINE
  8
0
 10
-50.375000
 20
5.307018
 11
-50.375000
 21
11.807018
  0
LINE
  8
0
 10
-31.375000
 20
15.807016
 11
-27.974998
 21
15.807016
  0
LINE
  8
0
  6
CENTER
 62
     2
 10
-10.625000
 20
6.807016
 11
-15.125000
 21
6.807016
  0
LINE
  8
0
  6
CENTER
 62
     2
 10
-12.875000
 20
9.057016
 11
-12.875000
 21
4.557016
  0
LINE
  8
0
  6
CENTER
 62
     2
 10
-39.375000
 20
-5.960579
 11
-39.375000
 21
-16.482826
  0
LINE
  8
0
  6
CENTER
 62
     2
 10
-47.375000
 20
-5.952545
 11
-47.375000
 21
-16.627247
  0
LINE
  8
0
 62
     4
 10
20.625000
 20
-11.342995
 11
22.625000
 21
-11.342995
  0
LINE
  8
0
 62
     4
 10
20.625000
 20
-15.942993
 11
22.625000
 21
-15.942993
  0
LINE
  8
0
 62
     4
 10
22.625000
 20
-11.342995
 11
22.625000
 21
-15.942993
  0
LINE
  8
0
 62
     4
 10
20.625000
 20
-14.942970
 11
22.625000
 21
-14.942970
  0
LINE
  8
0
 62
     4
 10
20.625000
 20
-15.492989
 11
22.625000
 21
-15.492989
  0
LINE
  8
0
 62
     4
 10
22.625000
 20
-12.342979
 11
29.874443
 21
-12.342979
  0
LINE
  8
0
 62
     4
 10
22.625000
 20
-14.942986
 11
31.375557
 21
-14.942986
  0
LINE
  8
0
 62
     1
 10
29.374985
 20
-11.477886
 11
31.874985
 21
-15.808013
  0
LINE
  8
0
 62
     4
 10
20.625000
 20
12.557019
 11
29.874443
 21
12.557019
  0
LINE
  8
0
 62
     4
 10
20.625000
 20
9.957013
 11
31.375557
 21
9.957013
  0
LINE
  8
0
 62
     1
 10
29.374983
 20
13.422114
 11
31.874983
 21
9.091987
  0
LINE
  8
0
 10
-29.474998
 20
-19.942984
 11
-22.474998
 21
-19.942984
  0
LINE
  8
0
 10
-29.474998
 20
17.557016
 11
-22.474998
 21
17.557016
  0
LINE
  8
0
 10
-29.474998
 20
-19.342983
 11
-22.474998
 21
-19.342983
  0
LINE
  8
0
 10
-29.474998
 20
16.957016
 11
-22.474998
 21
16.957016
  0
LINE
  8
0
 10
-22.474998
 20
16.957016
 11
-21.325001
 21
15.807017
  0
LINE
  8
0
 10
-22.474997
 20
-19.342983
 11
-21.324995
 21
-18.192982
  0
LINE
  8
0
  6
CENTER
 62
     2
 10
-2.375000
 20
-10.192984
 11
-2.375000
 21
-16.192984
  0
LINE
  8
0
  6
CENTER
 62
     2
 10
0.625000
 20
-13.192984
 11
-5.375000
 21
-13.192984
  0
LINE
  8
0
  6
CENTER
 62
     2
 10
-2.375000
 20
13.807016
 11
-2.375000
 21
7.807016
  0
LINE
  8
0
  6
CENTER
 62
     2
 10
0.625000
 20
10.807016
 11
-5.375000
 21
10.807016
  0
LINE
  8
0
  6
CENTER
 62
     2
 10
-12.875000
 20
-6.942984
 11
-12.875000
 21
-11.442984
  0
LINE
  8
0
  6
CENTER
 62
     2
 10
-10.625000
 20
-9.192984
 11
-15.125000
 21
-9.192984
  0
LINE
  8
0
  6
CENTER
 62
     2
 10
-39.375000
 20
3.574612
 11
-39.375000
 21
14.096859
  0
LINE
  8
0
  6
CENTER
 62
     2
 10
-47.375000
 20
3.566578
 11
-47.375000
 21
14.241280
  0
LINE
  8
0
 10
-109.625015
 20
15.807001
 11
-109.625015
 21
-18.192999
  0
LINE
  8
0
 10
-131.125015
 20
15.807001
 11
-131.125015
 21
-18.192999
  0
LINE
  8
0
 10
-124.375015
 20
11.707003
 11
-124.375015
 21
2.207003
  0
LINE
  8
0
 10
-116.375015
 20
11.707003
 11
-116.375015
 21
2.207003
  0
LINE
  8
0
 10
-122.875015
 20
13.206999
 11
-117.875015
 21
13.206999
  0
LINE
  8
0
 10
-122.875015
 20
-15.592999
 11
-117.875015
 21
-15.592999
  0
LINE
  8
0
 10
-124.375015
 20
-4.592997
 11
-124.375015
 21
-14.092999
  0
LINE
  8
0
 10
-116.375015
 20
-4.592997
 11
-116.375015
 21
-14.092999
  0
LINE
  8
0
 10
-123.875015
 20
-6.192999
 11
-116.875015
 21
-6.192999
  0
LINE
  8
0
 10
-123.875015
 20
3.807002
 11
-116.875015
 21
3.807002
  0
LINE
  8
0
 10
-116.875015
 20
12.707003
 11
-116.875015
 21
3.207003
  0
LINE
  8
0
 10
-123.875015
 20
12.707003
 11
-123.875015
 21
3.207003
  0
LINE
  8
0
 10
-123.875015
 20
-5.592997
 11
-123.875015
 21
-15.211033
  0
LINE
  8
0
 10
-116.875015
 20
-5.592997
 11
-116.875015
 21
-15.211033
  0
LINE
  8
0
 10
-123.875015
 20
17.557001
 11
-123.875015
 21
15.807001
  0
LINE
  8
0
 10
-116.875015
 20
17.557001
 11
-116.875015
 21
15.807001
  0
LINE
  8
0
 10
-123.875015
 20
-18.192999
 11
-123.875015
 21
-19.942999
  0
LINE
  8
0
 10
-116.875015
 20
-18.192999
 11
-116.875015
 21
-19.942999
  0
LINE
  8
0
 10
-123.875015
 20
-5.592997
 11
-116.875015
 21
-5.592997
  0
LINE
  8
0
 10
-123.875015
 20
3.207003
 11
-116.875015
 21
3.207003
  0
LINE
  8
0
 10
-122.875015
 20
-3.092999
 11
-117.875015
 21
-3.092999
  0
LINE
  8
0
 10
-122.875015
 20
0.707003
 11
-117.875015
 21
0.707003
  0
LINE
  8
0
 10
-131.125015
 20
15.807001
 11
-109.625015
 21
15.807001
  0
LINE
  8
0
 10
-131.125015
 20
-18.192999
 11
-109.625015
 21
-18.192999
  0
LINE
  8
0
  6
CENTER
 62
     2
 10
-132.875015
 20
-1.192998
 11
-107.875015
 21
-1.192998
  0
LINE
  8
0
  6
CENTER
 62
     2
 10
-120.375015
 20
21.307001
 11
-120.375015
 21
-23.692999
  0
LINE
  8
0
 10
-123.875015
 20
17.557001
 11
-116.875015
 21
17.557001
  0
LINE
  8
0
 10
-123.875015
 20
-19.942999
 11
-116.875015
 21
-19.942999
  0
LINE
  8
0
 10
-123.875015
 20
11.807001
 11
-116.875015
 21
11.807001
  0
LINE
  8
0
 10
-123.875015
 20
-14.192999
 11
-116.875015
 21
-14.192999
  0
LINE
  8
0
 10
-123.875015
 20
-7.692999
 11
-116.875015
 21
-7.692999
  0
LINE
  8
0
 10
-123.875015
 20
5.307002
 11
-116.875015
 21
5.307002
  0
LINE
  8
0
 10
116.208252
 20
15.806997
 11
116.208252
 21
-18.193003
  0
LINE
  8
0
 10
94.208252
 20
15.806997
 11
94.208252
 21
-18.193003
  0
LINE
  8
0
 10
94.208252
 20
15.806997
 11
116.208252
 21
15.806997
  0
LINE
  8
0
 10
94.208252
 20
-18.193003
 11
116.208252
 21
-18.193003
  0
LINE
  8
0
 10
101.708252
 20
17.556997
 11
101.708252
 21
15.806997
  0
LINE
  8
0
 10
108.708252
 20
17.556997
 11
108.708252
 21
15.806997
  0
LINE
  8
0
 10
108.708252
 20
-18.193003
 11
108.708252
 21
-19.943003
  0
LINE
  8
0
 10
101.708252
 20
-18.193003
 11
101.708252
 21
-19.943003
  0
LINE
  8
0
 10
103.608253
 20
-16.393003
 11
103.608253
 21
-15.393003
  0
LINE
  8
0
 10
103.108253
 20
-14.893003
 11
103.108253
 21
-13.293005
  0
LINE
  8
0
 10
107.608315
 20
-17.192966
 11
106.808311
 21
-16.392960
  0
LINE
  8
0
 10
107.308250
 20
-14.893003
 11
107.308250
 21
-13.293005
  0
LINE
  8
0
 10
106.808250
 20
-16.393003
 11
106.808250
 21
-15.393003
  0
LINE
  8
0
 10
103.608299
 20
-15.392966
 11
103.108299
 21
-14.892965
  0
LINE
  8
0
 10
106.808304
 20
-15.393064
 11
107.308304
 21
-14.893064
  0
LINE
  8
0
 10
102.808311
 20
-17.193060
 11
103.608307
 21
-16.393063
  0
LINE
  8
0
 10
107.608253
 20
-17.893003
 11
107.608253
 21
-17.193003
  0
LINE
  8
0
 10
102.808258
 20
-17.893003
 11
102.808258
 21
-17.193003
  0
LINE
  8
0
 10
102.808258
 20
15.506998
 11
102.808258
 21
14.806997
  0
LINE
  8
0
 10
103.108253
 20
10.906996
 11
103.108253
 21
12.506998
  0
LINE
  8
0
 10
103.108276
 20
12.506933
 11
103.608276
 21
13.006934
  0
LINE
  8
0
 10
102.808281
 20
14.807071
 11
103.608284
 21
14.007065
  0
LINE
  8
0
 10
103.608253
 20
14.006998
 11
103.608253
 21
13.006994
  0
LINE
  8
0
 10
107.608253
 20
15.506998
 11
107.608253
 21
14.807001
  0
LINE
  8
0
 10
107.308250
 20
10.906996
 11
107.308250
 21
12.506998
  0
LINE
  8
0
 10
107.308327
 20
12.507079
 11
106.808311
 21
13.007082
  0
LINE
  8
0
 10
107.608292
 20
14.806983
 11
106.808281
 21
14.006975
  0
LINE
  8
0
 10
106.808250
 20
14.006998
 11
106.808250
 21
13.006998
  0
LINE
  8
0
  6
CENTER
 62
     2
 10
112.208252
 20
-11.193003
 11
112.208252
 21
-17.193003
  0
LINE
  8
0
  6
CENTER
 62
     2
 10
109.208252
 20
-14.193003
 11
115.208252
 21
-14.193003
  0
LINE
  8
0
 62
     4
 10
106.808250
 20
13.007074
 11
106.708313
 21
13.107014
  0
LINE
  8
0
 62
     4
 10
106.708252
 20
13.556984
 11
106.708252
 21
13.106987
  0
LINE
  8
0
 62
     4
 10
106.708252
 20
13.556984
 11
103.708252
 21
13.556984
  0
LINE
  8
0
 62
     4
 10
103.708252
 20
13.556984
 11
103.708252
 21
13.106987
  0
LINE
  8
0
 62
     4
 10
103.608253
 20
13.007019
 11
103.708267
 21
13.107030
  0
LINE
  8
0
 62
     4
 10
106.458252
 20
14.056984
 11
106.458252
 21
13.556984
  0
LINE
  8
0
 62
     4
 10
103.958252
 20
14.056984
 11
103.958252
 21
13.556984
  0
LINE
  8
0
 62
     4
 10
106.458252
 20
14.056984
 11
103.958252
 21
14.056984
  0
LINE
  8
0
 62
     4
 10
106.808250
 20
-15.393086
 11
106.708305
 21
-15.493024
  0
LINE
  8
0
 62
     4
 10
106.708252
 20
-15.942989
 11
106.708252
 21
-15.492992
  0
LINE
  8
0
 62
     4
 10
106.708252
 20
-15.942989
 11
103.708252
 21
-15.942989
  0
LINE
  8
0
 62
     4
 10
103.708252
 20
-15.942989
 11
103.708252
 21
-15.492992
  0
LINE
  8
0
 62
     4
 10
103.608253
 20
-15.393019
 11
103.708260
 21
-15.493029
  0
LINE
  8
0
 62
     4
 10
106.458252
 20
-16.442989
 11
106.458252
 21
-15.942989
  0
LINE
  8
0
 62
     4
 10
103.958252
 20
-16.442989
 11
103.958252
 21
-15.942989
  0
LINE
  8
0
 62
     4
 10
106.458252
 20
-16.442989
 11
103.958252
 21
-16.442989
  0
LINE
  8
0
 10
101.708252
 20
-19.943003
 11
108.708252
 21
-19.943003
  0
LINE
  8
0
 10
101.708252
 20
17.556997
 11
108.708252
 21
17.556997
  0
LINE
  8
0
 10
101.708252
 20
-19.343002
 11
108.708252
 21
-19.343002
  0
LINE
  8
0
 10
101.708252
 20
16.956997
 11
108.708252
 21
16.956997
  0
LINE
  8
0
  6
CENTER
 62
     2
 10
90.785530
 20
-1.193003
 11
120.376038
 21
-1.193003
  0
LINE
  8
0
  6
CENTER
 62
     2
 10
105.208252
 20
18.806997
 11
105.208252
 21
-21.193003
  0
LINE
  8
0
  6
CENTER
 62
     2
 10
98.208252
 20
14.806997
 11
98.208252
 21
8.806997
  0
LINE
  8
0
  6
CENTER
 62
     2
 10
95.208252
 20
11.806997
 11
101.208252
 21
11.806997
  0
LINE
  8
0
 10
-27.975010
 20
75.973717
 11
20.624989
 21
75.973717
  0
LINE
  8
0
 10
-27.975010
 20
53.973717
 11
20.624989
 21
53.973717
  0
LINE
  8
0
 10
20.624989
 20
75.973717
 11
20.624989
 21
66.573715
  0
LINE
  8
0
 10
-31.375011
 20
75.723717
 11
-31.375011
 21
54.223717
  0
LINE
  8
0
  6
CENTER
 62
     2
 10
-52.390419
 20
64.973717
 11
33.725010
 21
64.973717
  0
LINE
  8
0
 10
-8.875011
 20
67.473717
 11
-8.875011
 21
62.473717
  0
LINE
  8
0
 10
-18.875011
 20
67.473717
 11
-7.975517
 21
67.473717
  0
LINE
  8
0
 10
-18.875011
 20
62.473717
 11
-7.975517
 21
62.473717
  0
LINE
  8
0
 10
-23.875011
 20
61.073715
 11
-18.875011
 21
61.073715
  0
LINE
  8
0
 10
-23.875011
 20
68.873718
 11
-18.875011
 21
68.873718
  0
LINE
  8
0
 10
-18.875011
 20
68.873718
 11
-18.875011
 21
67.473717
  0
LINE
  8
0
 10
-18.875011
 20
62.473717
 11
-18.875011
 21
61.073715
  0
LINE
  8
0
 10
-31.375011
 20
54.223717
 11
-27.975010
 21
54.223717
  0
LINE
  8
0
 10
-31.375011
 20
75.723717
 11
-27.975010
 21
75.723717
  0
LINE
  8
0
 10
-50.375008
 20
61.473717
 11
-31.375011
 21
61.473717
  0
LINE
  8
0
 10
-50.375008
 20
68.473717
 11
-31.375011
 21
68.473717
  0
LINE
  8
0
 10
-19.975010
 20
68.473717
 11
-19.975010
 21
66.173714
  0
LINE
  8
0
  6
CENTER
 62
     2
 10
-47.375008
 20
69.792076
 11
-47.375008
 21
59.632469
  0
LINE
  8
0
  6
CENTER
 62
     2
 10
-39.375011
 20
69.865814
 11
-39.375011
 21
59.899429
  0
LINE
  8
0
 10
-29.875011
 20
68.973717
 11
-29.875011
 21
60.973717
  0
LINE
  8
0
 10
-29.875011
 20
60.973717
 11
-27.975010
 21
60.973717
  0
LINE
  8
0
 10
-29.875011
 20
68.973717
 11
-27.975010
 21
68.973717
  0
LINE
  8
0
 10
-27.975010
 20
75.973717
 11
-27.975010
 21
68.973717
  0
LINE
  8
0
 10
-27.975010
 20
71.573715
 11
-23.875011
 21
71.573715
  0
LINE
  8
0
 10
-27.975010
 20
58.573715
 11
-23.875011
 21
58.573715
  0
LINE
  8
0
 10
-29.875011
 20
68.473717
 11
-19.975010
 21
68.473717
  0
LINE
  8
0
 10
-29.875011
 20
61.473717
 11
-19.975010
 21
61.473717
  0
LINE
  8
0
 10
-23.875011
 20
71.573715
 11
-23.875011
 21
68.873718
  0
LINE
  8
0
 10
-27.975010
 20
69.073715
 11
-27.175011
 21
69.073715
  0
LINE
  8
0
 10
-27.975010
 20
61.073715
 11
-27.175007
 21
61.073715
  0
LINE
  8
0
 10
-27.175087
 20
69.073769
 11
-25.975090
 21
70.273766
  0
LINE
  8
0
 10
-24.775034
 20
69.073700
 11
-25.975031
 21
70.273697
  0
LINE
  8
0
 10
-25.975063
 20
59.873787
 11
-24.775064
 21
61.073792
  0
LINE
  8
0
 10
-25.975031
 20
59.873707
 11
-27.175037
 21
61.073715
  0
LINE
  8
0
 10
-24.775009
 20
61.073715
 11
-23.875011
 21
61.073715
  0
LINE
  8
0
 10
-24.775013
 20
69.073715
 11
-23.875011
 21
69.073715
  0
LINE
  8
0
 10
-22.687153
 20
66.173714
 11
-13.687298
 21
66.173714
  0
LINE
  8
0
 10
-22.687153
 20
63.773720
 11
-9.685013
 21
63.773720
  0
LINE
  8
0
 10
-19.975010
 20
63.773720
 11
-19.975010
 21
61.473717
  0
LINE
  8
0
 10
-9.685013
 20
67.273720
 11
-9.685013
 21
63.773720
  0
LINE
  8
0
 10
-15.685013
 20
67.273720
 11
-9.685013
 21
67.273720
  0
LINE
  8
0
 10
-15.685013
 20
67.273720
 11
-15.685013
 21
66.173714
  0
LINE
  8
0
 10
-11.375011
 20
67.473717
 11
-11.375011
 21
67.273720
  0
LINE
  8
0
 62
     2
 10
-14.375011
 20
67.473717
 11
-14.375011
 21
67.273720
  0
LINE
  8
0
 10
-14.375011
 20
63.773720
 11
-14.375011
 21
62.473717
  0
LINE
  8
0
 10
-11.375011
 20
63.773720
 11
-11.375011
 21
62.473717
  0
LINE
  8
0
  6
CENTER
 62
     2
 10
13.124989
 20
76.849823
 11
13.124989
 21
65.876587
  0
LINE
  8
0
  6
CENTER
 62
     2
 10
3.124989
 20
63.942245
 11
3.124989
 21
52.937332
  0
LINE
  8
0
  6
CENTER
 62
     2
 10
6.448662
 20
70.973717
 11
18.977463
 21
70.973717
  0
LINE
  8
0
  6
CENTER
 62
     2
 10
-2.272366
 20
58.973717
 11
8.948612
 21
58.973717
  0
LINE
  8
0
  6
CENTER
 62
     2
 10
-2.375011
 20
75.973717
 11
-2.375011
 21
53.973717
  0
LINE
  8
0
 62
     2
 10
-29.475010
 20
68.473717
 11
-29.475010
 21
61.473717
  0
LINE
  8
0
 10
-50.375008
 20
68.473717
 11
-50.375008
 21
61.473717
  0
LINE
  8
0
 10
-27.975010
 20
61.073715
 11
-27.975010
 21
53.973717
  0
LINE
  8
0
 10
-23.875011
 20
61.073715
 11
-23.875011
 21
58.573715
  0
LINE
  8
0
 10
-7.975517
 20
62.473717
 11
-7.975517
 21
67.473717
  0
LINE
  8
0
 10
-25.233891
 20
65.159378
 11
-24.675011
 21
65.159378
  0
LINE
  8
0
 10
-25.789349
 20
66.273720
 11
-25.789349
 21
65.714836
  0
LINE
  8
0
 10
-26.160671
 20
66.273720
 11
-25.789345
 21
66.273720
  0
LINE
  8
0
 10
-26.160671
 20
66.273720
 11
-26.160671
 21
65.714836
  0
LINE
  8
0
 10
-26.160706
 20
63.673714
 11
-26.160706
 21
64.232597
  0
LINE
  8
0
 10
-25.789379
 20
63.673714
 11
-25.789379
 21
64.232597
  0
LINE
  8
0
 10
-26.716129
 20
65.159378
 11
-27.275009
 21
65.159378
  0
LINE
  8
0
 10
-26.716129
 20
64.788048
 11
-27.275009
 21
64.788048
  0
LINE
  8
0
 10
-25.233891
 20
64.788055
 11
-24.675011
 21
64.788055
  0
LINE
  8
0
 10
-26.160671
 20
63.673714
 11
-25.789349
 21
63.673714
  0
LINE
  8
0
 10
-27.275009
 20
65.159378
 11
-27.275009
 21
64.788055
  0
LINE
  8
0
 10
-24.675011
 20
65.159378
 11
-24.675011
 21
64.788055
  0
LINE
  8
0
 62
     4
 10
-6.975517
 20
66.573715
 11
-6.975517
 21
63.373718
  0
LINE
  8
0
 62
     4
 10
15.024483
 20
66.573715
 11
15.024483
 21
63.373718
  0
LINE
  8
0
 62
     4
 10
-6.009739
 20
64.271683
 11
-4.273468
 21
66.007957
  0
LINE
  8
0
 62
     4
 10
-5.651810
 20
63.922478
 11
-3.924260
 21
65.650024
  0
LINE
  8
0
 62
     4
 10
15.024483
 20
66.273720
 11
29.874458
 21
66.273720
  0
LINE
  8
0
 62
     4
 10
15.024483
 20
63.673714
 11
31.375572
 21
63.673714
  0
LINE
  8
0
 62
     1
 10
29.375006
 20
67.138817
 11
31.875006
 21
62.808693
  0
LINE
  8
0
 10
-7.975517
 20
67.373688
 11
20.624989
 21
67.373688
  0
LINE
  8
0
 10
-7.975517
 20
66.573715
 11
20.624989
 21
66.573715
  0
LINE
  8
0
 10
-7.975517
 20
63.373718
 11
20.624989
 21
63.373718
  0
LINE
  8
0
 10
-7.975517
 20
62.573746
 11
20.624989
 21
62.573746
  0
LINE
  8
0
 10
20.624989
 20
63.373718
 11
20.624989
 21
53.973717
  0
LINE
  8
0
  6
CENTER
 62
     2
 10
-0.471800
 20
-94.276352
 11
6.043285
 21
-94.276352
  0
LINE
  8
0
  6
CENTER
 62
     2
 10
-0.652775
 20
-80.276360
 11
5.952801
 21
-80.276360
  0
LINE
  8
0
  6
CENTER
 62
     2
 10
2.624973
 20
-76.783592
 11
2.624973
 21
-83.354782
  0
LINE
  8
0
  6
CENTER
 62
     2
 10
2.624973
 20
-91.148521
 11
2.624973
 21
-97.566902
  0
LINE
  8
0
 10
-27.975025
 20
-76.276352
 11
20.624973
 21
-76.276352
  0
LINE
  8
0
 10
-27.975025
 20
-98.276352
 11
20.624973
 21
-98.276352
  0
LINE
  8
0
 10
20.624973
 20
-76.276352
 11
20.624973
 21
-85.676353
  0
LINE
  8
0
 10
-31.375027
 20
-76.526360
 11
-31.375027
 21
-98.026352
  0
LINE
  8
0
 10
-23.875027
 20
-80.676353
 11
-23.875027
 21
-83.376350
  0
LINE
  8
0
  6
CENTER
 62
     2
 10
-54.962219
 20
-87.276360
 11
33.724972
 21
-87.276360
  0
LINE
  8
0
 10
-8.875027
 20
-84.776360
 11
-8.875027
 21
-89.776360
  0
LINE
  8
0
 10
-18.875027
 20
-84.776360
 11
-7.875027
 21
-84.776360
  0
LINE
  8
0
 10
-18.875027
 20
-89.776360
 11
-7.875027
 21
-89.776360
  0
LINE
  8
0
 10
-23.875027
 20
-91.176353
 11
-18.875027
 21
-91.176353
  0
LINE
  8
0
 10
-23.875027
 20
-83.376350
 11
-18.875027
 21
-83.376350
  0
LINE
  8
0
 10
-18.875027
 20
-83.376350
 11
-18.875027
 21
-84.776360
  0
LINE
  8
0
 10
-18.875027
 20
-89.776360
 11
-18.875027
 21
-91.176353
  0
LINE
  8
0
 10
-31.375027
 20
-98.026352
 11
-27.975025
 21
-98.026352
  0
LINE
  8
0
 10
-31.375027
 20
-76.526360
 11
-27.975025
 21
-76.526360
  0
LINE
  8
0
 10
-50.375023
 20
-90.776360
 11
-31.375027
 21
-90.776360
  0
LINE
  8
0
 10
-50.375023
 20
-83.776360
 11
-31.375027
 21
-83.776360
  0
LINE
  8
0
 10
-19.975025
 20
-83.776360
 11
-19.975025
 21
-86.076355
  0
LINE
  8
0
 10
-29.875027
 20
-83.276360
 11
-29.875027
 21
-91.276360
  0
LINE
  8
0
 10
-29.875027
 20
-91.276360
 11
-27.975025
 21
-91.276360
  0
LINE
  8
0
 10
-29.875027
 20
-83.276360
 11
-27.975025
 21
-83.276360
  0
LINE
  8
0
 10
-27.975025
 20
-80.676353
 11
-27.975025
 21
-83.276360
  0
LINE
  8
0
 10
-27.975025
 20
-80.676353
 11
-23.875027
 21
-80.676353
  0
LINE
  8
0
 10
-27.975025
 20
-93.676353
 11
-23.875027
 21
-93.676353
  0
LINE
  8
0
 10
-27.975025
 20
-76.276352
 11
-27.975025
 21
-80.676353
  0
LINE
  8
0
 10
-29.875027
 20
-83.776360
 11
-19.975025
 21
-83.776360
  0
LINE
  8
0
 10
-29.875027
 20
-90.776360
 11
-19.975025
 21
-90.776360
  0
LINE
  8
0
 10
-23.875027
 20
-91.176353
 11
-23.875027
 21
-93.676353
  0
LINE
  8
0
 10
-27.975025
 20
-83.176353
 11
-27.175026
 21
-83.176353
  0
LINE
  8
0
 10
-27.975025
 20
-91.176353
 11
-27.175022
 21
-91.176353
  0
LINE
  8
0
 10
-27.175016
 20
-83.176376
 11
-25.975019
 21
-81.976379
  0
LINE
  8
0
 10
-24.775007
 20
-83.176338
 11
-25.975004
 21
-81.976341
  0
LINE
  8
0
 10
-25.975006
 20
-92.376396
 11
-24.774996
 21
-91.176392
  0
LINE
  8
0
 10
-25.974977
 20
-92.376320
 11
-27.174978
 21
-91.176323
  0
LINE
  8
0
 10
-24.775024
 20
-91.176353
 11
-23.875027
 21
-91.176353
  0
LINE
  8
0
 10
-24.775028
 20
-83.176353
 11
-23.875027
 21
-83.176353
  0
LINE
  8
0
 10
-22.687168
 20
-86.076355
 11
-13.687313
 21
-86.076355
  0
LINE
  8
0
 10
-22.687168
 20
-88.476357
 11
-9.685028
 21
-88.476357
  0
LINE
  8
0
 10
-19.975025
 20
-88.476357
 11
-19.975025
 21
-90.776360
  0
LINE
  8
0
 10
-9.685028
 20
-84.976357
 11
-9.685028
 21
-88.476357
  0
LINE
  8
0
 10
-15.685028
 20
-84.976357
 11
-9.685028
 21
-84.976357
  0
LINE
  8
0
 10
-15.685028
 20
-84.976357
 11
-15.685028
 21
-86.076355
  0
LINE
  8
0
 62
     2
 10
-11.375027
 20
-84.776360
 11
-11.375027
 21
-84.976357
  0
LINE
  8
0
 62
     2
 10
-14.375027
 20
-84.776360
 11
-14.375027
 21
-84.976357
  0
LINE
  8
0
 10
-14.375027
 20
-88.476357
 11
-14.375027
 21
-89.776360
  0
LINE
  8
0
 10
-11.375027
 20
-88.476357
 11
-11.375027
 21
-89.776360
  0
LINE
  8
0
  6
CENTER
 62
     2
 10
-2.375027
 20
-73.819565
 11
-2.375027
 21
-101.096489
  0
LINE
  8
0
 62
     2
 10
-29.475025
 20
-87.276360
 11
-29.475025
 21
-90.776360
  0
LINE
  8
0
 62
     2
 10
-29.475025
 20
-83.776360
 11
-29.475025
 21
-87.276360
  0
LINE
  8
0
 10
-50.375023
 20
-83.776360
 11
-50.375023
 21
-90.776360
  0
LINE
  8
0
 10
-27.975025
 20
-91.176353
 11
-27.975025
 21
-98.276352
  0
LINE
  8
0
 10
-7.875027
 20
-89.676353
 11
20.624973
 21
-89.676353
  0
LINE
  8
0
 10
-7.875027
 20
-88.876366
 11
20.624973
 21
-88.876366
  0
LINE
  8
0
 10
-7.875027
 20
-85.676353
 11
20.624973
 21
-85.676353
  0
LINE
  8
0
 10
-7.875027
 20
-84.876366
 11
20.624973
 21
-84.876366
  0
LINE
  8
0
 10
-7.875027
 20
-89.776360
 11
-7.875027
 21
-84.776360
  0
LINE
  8
0
  6
CENTER
 62
     2
 10
-47.375023
 20
-84.776360
 11
-47.375023
 21
-89.776360
  0
LINE
  8
0
  6
CENTER
 62
     2
 10
-39.375027
 20
-84.776360
 11
-39.375027
 21
-89.776360
  0
LINE
  8
0
 10
-25.233906
 20
-87.090691
 11
-24.675026
 21
-87.090691
  0
LINE
  8
0
 10
-25.789364
 20
-85.976357
 11
-25.789364
 21
-86.535240
  0
LINE
  8
0
 10
-26.160686
 20
-85.976357
 11
-25.789360
 21
-85.976357
  0
LINE
  8
0
 10
-26.160686
 20
-85.976357
 11
-26.160686
 21
-86.535240
  0
LINE
  8
0
 10
-26.160667
 20
-88.576355
 11
-26.160667
 21
-88.017471
  0
LINE
  8
0
 10
-25.789341
 20
-88.576355
 11
-25.789341
 21
-88.017471
  0
LINE
  8
0
 10
-26.716145
 20
-87.090691
 11
-27.275024
 21
-87.090691
  0
LINE
  8
0
 10
-26.716145
 20
-87.462029
 11
-27.275024
 21
-87.462029
  0
LINE
  8
0
 10
-25.233906
 20
-87.462021
 11
-24.675026
 21
-87.462021
  0
LINE
  8
0
 10
-26.160686
 20
-88.576355
 11
-25.789364
 21
-88.576355
  0
LINE
  8
0
 10
-27.275024
 20
-87.090691
 11
-27.275024
 21
-87.462021
  0
LINE
  8
0
 10
-24.675026
 20
-87.090691
 11
-24.675026
 21
-87.462021
  0
LINE
  8
0
 62
     4
 10
20.624973
 20
-88.876366
 11
22.624973
 21
-88.876366
  0
LINE
  8
0
 62
     4
 10
20.624973
 20
-89.326363
 11
22.624973
 21
-89.326363
  0
LINE
  8
0
 62
     4
 10
20.624973
 20
-85.226357
 11
22.624973
 21
-85.226357
  0
LINE
  8
0
 62
     4
 10
0.624973
 20
-85.676353
 11
0.624973
 21
-88.876366
  0
LINE
  8
0
 62
     4
 10
22.624973
 20
-85.226357
 11
22.624973
 21
-89.326363
  0
LINE
  8
0
 62
     4
 10
1.590762
 20
-87.978386
 11
3.327033
 21
-86.242111
  0
LINE
  8
0
 62
     4
 10
1.948681
 20
-88.327606
 11
3.676230
 21
-86.600060
  0
LINE
  8
0
 62
     4
 10
22.624973
 20
-85.976357
 11
29.874416
 21
-85.976357
  0
LINE
  8
0
 62
     4
 10
22.624973
 20
-88.576363
 11
31.375530
 21
-88.576363
  0
LINE
  8
0
 62
     1
 10
29.374952
 20
-85.111252
 11
31.874956
 21
-89.441376
  0
LINE
  8
0
 62
     4
 10
20.624973
 20
-85.676353
 11
22.624973
 21
-85.676353
  0
LINE
  8
0
 10
20.624973
 20
-88.876366
 11
20.624973
 21
-98.276352
  0
LINE
  8
0
 10
-194.250000
 20
132.600006
 11
194.800003
 21
132.600006
  0
LINE
  8
0
 10
194.800003
 20
132.600006
 11
194.800003
 21
-133.500000
  0
LINE
  8
0
 10
-194.250000
 20
132.600006
 11
-194.250000
 21
-133.500000
  0
LINE
  8
0
 10
-194.250000
 20
-133.500000
 11
194.800003
 21
-133.500000
  0
LINE
  8
0
 10
109.800003
 20
-118.500000
 11
109.800003
 21
-133.500000
  0
LINE
  8
0
 10
109.800003
 20
-118.500000
 11
194.800003
 21
-118.500000
  0
LINE
  8
0
 10
109.800003
 20
132.600006
 11
109.800003
 21
117.600006
  0
LINE
  8
0
 10
109.800003
 20
117.600006
 11
194.800003
 21
117.600006
  0
LINE
  8
0
 10
-194.250000
 20
117.600006
 11
-109.250000
 21
117.600006
  0
LINE
  8
0
 10
-109.250000
 20
132.600006
 11
-109.250000
 21
117.600006
  0
CIRCLE
  8
0
 10
-2.375000
 20
10.807016
 40
1.650000
  0
CIRCLE
  8
0
 10
-2.375000
 20
-13.192984
 40
1.650000
  0
CIRCLE
  8
0
 10
-12.875000
 20
-9.192984
 40
1.500000
  0
CIRCLE
  8
0
 62
     2
 10
-2.375000
 20
-13.192984
 40
2.000000
  0
CIRCLE
  8
0
 62
     2
 10
-2.375000
 20
10.807016
 40
2.000000
  0
CIRCLE
  8
0
 10
-12.875000
 20
6.807016
 40
1.500000
  0
ARC
  8
0
 10
-117.875015
 20
2.207003
 40
1.500000
 50
270.000000
 51
0.000000
  0
ARC
  8
0
 10
-122.875015
 20
2.207003
 40
1.500000
 50
179.999985
 51
270.000000
  0
ARC
  8
0
 10
-117.875015
 20
11.706999
 40
1.500000
 50
0.000000
 51
90.000000
  0
ARC
  8
0
 10
-122.875015
 20
-14.092999
 40
1.500000
 50
179.999969
 51
270.000000
  0
ARC
  8
0
 10
-117.875015
 20
-14.092999
 40
1.500000
 50
270.000000
 51
0.000000
  0
ARC
  8
0
 10
-117.875015
 20
-4.592999
 40
1.500000
 50
0.000000
 51
90.000000
  0
ARC
  8
0
 10
-122.875015
 20
-4.592999
 40
1.500000
 50
90.000000
 51
179.999969
  0
ARC
  8
0
 10
-122.875015
 20
11.706999
 40
1.500000
 50
90.000000
 51
179.999969
  0
CIRCLE
  8
0
 10
98.208252
 20
11.806997
 40
1.650000
  0
CIRCLE
  8
0
 10
112.208252
 20
-14.193003
 40
1.650000
  0
CIRCLE
  8
0
 62
     2
 10
112.208252
 20
-14.193003
 40
2.000000
  0
ARC
  8
0
 10
107.908257
 20
-17.893003
 40
0.300003
 50
180.000000
 51
270.000000
  0
ARC
  8
0
 10
102.508255
 20
-17.893003
 40
0.299999
 50
270.000000
 51
0.000000
  0
ARC
  8
0
 10
102.508247
 20
15.506998
 40
0.300003
 50
0.000000
 51
90.000000
  0
CIRCLE
  8
0
 10
105.208252
 20
-1.193003
 40
8.500000
  0
ARC
  8
0
 10
105.208252
 20
10.906996
 40
2.099998
 50
179.999969
 51
0.000000
  0
ARC
  8
0
 10
105.208252
 20
-13.293005
 40
2.099998
 50
0.000026
 51
179.999969
  0
ARC
  8
0
 10
107.908257
 20
15.506998
 40
0.300000
 50
90.000000
 51
180.000000
  0
CIRCLE
  8
0
 62
     4
 10
105.208252
 20
11.256996
 40
1.300000
  0
CIRCLE
  8
0
 62
     4
 10
105.208252
 20
-13.643002
 40
1.300000
  0
CIRCLE
  8
0
 62
     2
 10
98.208252
 20
11.806997
 40
2.000000
  0
CIRCLE
  8
0
 62
     4
 10
-4.975502
 20
64.973717
 40
1.250000
  0
CIRCLE
  8
0
 62
     4
 10
-4.975502
 20
64.973717
 40
1.400000
  0
CIRCLE
  8
0
 10
3.124989
 20
58.973717
 40
2.100000
  0
CIRCLE
  8
0
 10
-25.975010
 20
64.973717
 40
2.500000
  0
ARC
  8
0
 10
-26.716129
 20
64.232597
 40
0.555454
 50
0.000000
 51
90.000000
  0
ARC
  8
0
 10
-25.233891
 20
64.232597
 40
0.555458
 50
90.000000
 51
180.000000
  0
ARC
  8
0
 10
-26.716129
 20
65.714836
 40
0.555458
 50
270.000000
 51
0.000000
  0
CIRCLE
  8
0
 62
     2
 10
-47.375008
 20
64.973717
 40
1.500000
  0
CIRCLE
  8
0
 62
     2
 10
-39.375011
 20
64.973717
 40
1.500000
  0
CIRCLE
  8
0
 10
-25.975010
 20
64.973717
 40
3.500000
  0
CIRCLE
  8
0
 62
     2
 10
13.124989
 20
70.973717
 40
2.500000
  0
CIRCLE
  8
0
 62
     2
 10
3.124989
 20
58.973717
 40
2.500000
  0
ARC
  8
0
 10
13.124989
 20
70.973717
 40
4.249999
 50
302.106049
 51
237.893906
  0
ARC
  8
0
 10
3.124989
 20
58.973717
 40
4.250000
 50
122.106064
 51
57.893948
  0
ARC
  8
0
 10
-25.233891
 20
65.714836
 40
0.555454
 50
180.000000
 51
270.000000
  0
CIRCLE
  8
0
 10
-47.375008
 20
64.973717
 40
1.250000
  0
CIRCLE
  8
0
 10
-39.375011
 20
64.973717
 40
1.250000
  0
CIRCLE
  8
0
 10
13.124989
 20
70.973717
 40
2.100000
  0
CIRCLE
  8
0
 62
     4
 10
2.624989
 20
-87.276360
 40
1.250000
  0
CIRCLE
  8
0
 62
     4
 10
2.624989
 20
-87.276360
 40
1.400000
  0
CIRCLE
  8
0
 10
2.624973
 20
-94.276352
 40
1.650000
  0
CIRCLE
  8
0
 10
-25.975025
 20
-87.276360
 40
2.500000
  0
ARC
  8
0
 10
-26.716145
 20
-88.017479
 40
0.555454
 50
0.000000
 51
90.000000
  0
ARC
  8
0
 10
-25.233906
 20
-88.017479
 40
0.555458
 50
90.000000
 51
180.000000
  0
CIRCLE
  8
0
 62
     2
 10
2.624973
 20
-80.276360
 40
2.000000
  0
CIRCLE
  8
0
 62
     2
 10
2.624973
 20
-94.276352
 40
2.000000
  0
CIRCLE
  8
0
 10
-25.975025
 20
-87.276360
 40
3.500000
  0
CIRCLE
  8
0
 62
     2
 10
-47.375023
 20
-87.276360
 40
1.500000
  0
CIRCLE
  8
0
 62
     2
 10
-39.375027
 20
-87.276360
 40
1.500000
  0
ARC
  8
0
 10
-25.233906
 20
-86.535240
 40
0.555454
 50
180.000000
 51
270.000000
  0
ARC
  8
0
 10
-26.716145
 20
-86.535240
 40
0.555458
 50
270.000000
 51
0.000000
  0
CIRCLE
  8
0
 10
-47.375023
 20
-87.276360
 40
1.250000
  0
CIRCLE
  8
0
 10
-39.375027
 20
-87.276360
 40
1.250000
  0
CIRCLE
  8
0
 10
2.624973
 20
-80.276360
 40
1.650000
  0
TEXT
  8
0
 10
133.907150
 20
122.050003
 40
4.500000
  1
Ver. 1.0
 50
0.000000
 41
1.052631
 51
0.000000
  7
STANDARD
  0
TEXT
  8
0
 10
113.700279
 20
-130.669998
 40
6.300000
  1
KOGANEI CORP.
 50
0.000000
 41
1.052632
 51
0.000000
  7
STANDARD
  0
TEXT
  8
0
 10
-170.142654
 20
122.050003
 40
4.500000
  1
AIR HAND
 50
0.000000
 41
1.052632
 51
0.000000
  7
STANDARD
  0
TEXT
  8
0
 10
-159.892654
 20
97.550003
 40
4.500000
  1
NHBDRA-16-ZE135A2
 50
0.000000
 41
1.052632
 51
0.000000
  7
STANDARD
  0
TEXT
  8
0
 10
-186.892654
 20
104.550003
 40
4.500000
  1
MODEL:NHBDPA-16-ZE135A2
 50
0.000000
 41
1.052632
 51
0.000000
  7
STANDARD
  0
ENDSEC
  0
EOF
