  0
SECTION
  2
HEADER
  9
$ACADVER
  1
AC1012
  9
$DWGCODEPAGE
  3
dos932
  9
$INSBASE
 10
0.0
 20
0.0
 30
0.0
  9
$EXTMIN
 10
-194.25
 20
-133.5
 30
0.0
  9
$EXTMAX
 10
194.800003
 20
132.600006
 30
0.0
  9
$LIMMIN
 10
0.0
 20
0.0
  9
$LIMMAX
 10
12.0
 20
9.0
  9
$ORTHOMODE
 70
     0
  9
$REGENMODE
 70
     1
  9
$FILLMODE
 70
     1
  9
$QTEXTMODE
 70
     0
  9
$MIRRTEXT
 70
     1
  9
$DRAGMODE
 70
     2
  9
$LTSCALE
 40
1.0
  9
$OSMODE
 70
     0
  9
$ATTMODE
 70
     1
  9
$TEXTSIZE
 40
0.2
  9
$TRACEWID
 40
0.05
  9
$TEXTSTYLE
  7
STANDARD
  9
$CLAYER
  8
0
  9
$CELTYPE
  6
CONTINUOUS
  9
$CECOLOR
 62
   256
  9
$CELTSCALE
 40
1.0
  9
$DELOBJ
 70
     1
  9
$DISPSILH
 70
     0
  9
$DIMSCALE
 40
1.0
  9
$DIMASZ
 40
0.18
  9
$DIMEXO
 40
0.0625
  9
$DIMDLI
 40
0.38
  9
$DIMRND
 40
0.0
  9
$DIMDLE
 40
0.0
  9
$DIMEXE
 40
0.18
  9
$DIMTP
 40
0.0
  9
$DIMTM
 40
0.0
  9
$DIMTXT
 40
0.18
  9
$DIMCEN
 40
0.09
  9
$DIMTSZ
 40
0.0
  9
$DIMTOL
 70
     0
  9
$DIMLIM
 70
     0
  9
$DIMTIH
 70
     1
  9
$DIMTOH
 70
     1
  9
$DIMSE1
 70
     0
  9
$DIMSE2
 70
     0
  9
$DIMTAD
 70
     0
  9
$DIMZIN
 70
     0
  9
$DIMBLK
  1

  9
$DIMASO
 70
     1
  9
$DIMSHO
 70
     1
  9
$DIMPOST
  1

  9
$DIMAPOST
  1

  9
$DIMALT
 70
     0
  9
$DIMALTD
 70
     2
  9
$DIMALTF
 40
25.4
  9
$DIMLFAC
 40
1.0
  9
$DIMTOFL
 70
     0
  9
$DIMTVP
 40
0.0
  9
$DIMTIX
 70
     0
  9
$DIMSOXD
 70
     0
  9
$DIMSAH
 70
     0
  9
$DIMBLK1
  1

  9
$DIMBLK2
  1

  9
$DIMSTYLE
  2
STANDARD
  9
$DIMCLRD
 70
     0
  9
$DIMCLRE
 70
     0
  9
$DIMCLRT
 70
     0
  9
$DIMTFAC
 40
1.0
  9
$DIMGAP
 40
0.09
  9
$DIMJUST
 70
     0
  9
$DIMSD1
 70
     0
  9
$DIMSD2
 70
     0
  9
$DIMTOLJ
 70
     1
  9
$DIMTZIN
 70
     0
  9
$DIMALTZ
 70
     0
  9
$DIMALTTZ
 70
     0
  9
$DIMFIT
 70
     3
  9
$DIMUPT
 70
     0
  9
$DIMUNIT
 70
     2
  9
$DIMDEC
 70
     4
  9
$DIMTDEC
 70
     4
  9
$DIMALTU
 70
     2
  9
$DIMALTTD
 70
     2
  9
$DIMTXSTY
  7
STANDARD
  9
$DIMAUNIT
 70
     0
  9
$LUNITS
 70
     2
  9
$LUPREC
 70
     4
  9
$SKETCHINC
 40
0.1
  9
$FILLETRAD
 40
0.0
  9
$AUNITS
 70
     0
  9
$AUPREC
 70
     0
  9
$MENU
  1
.
  9
$ELEVATION
 40
0.0
  9
$PELEVATION
 40
0.0
  9
$THICKNESS
 40
0.0
  9
$LIMCHECK
 70
     0
  9
$BLIPMODE
 70
     1
  9
$CHAMFERA
 40
0.0
  9
$CHAMFERB
 40
0.0
  9
$CHAMFERC
 40
0.0
  9
$CHAMFERD
 40
0.0
  9
$SKPOLY
 70
     0
  9
$TDCREATE
 40
2452475.405588426
  9
$TDUPDATE
 40
2452475.405588426
  9
$TDINDWG
 40
0.0000000000
  9
$TDUSRTIMER
 40
0.0000000000
  9
$USRTIMER
 70
     1
  9
$ANGBASE
 50
0.0
  9
$ANGDIR
 70
     0
  9
$PDMODE
 70
     0
  9
$PDSIZE
 40
0.0
  9
$PLINEWID
 40
0.0
  9
$COORDS
 70
     1
  9
$SPLFRAME
 70
     0
  9
$SPLINETYPE
 70
     6
  9
$SPLINESEGS
 70
     8
  9
$ATTDIA
 70
     0
  9
$ATTREQ
 70
     1
  9
$HANDLING
 70
     1
  9
$HANDSEED
  5
1E8
  9
$SURFTAB1
 70
     6
  9
$SURFTAB2
 70
     6
  9
$SURFTYPE
 70
     6
  9
$SURFU
 70
     6
  9
$SURFV
 70
     6
  9
$UCSNAME
  2

  9
$UCSORG
 10
0.0
 20
0.0
 30
0.0
  9
$UCSXDIR
 10
1.0
 20
0.0
 30
0.0
  9
$UCSYDIR
 10
0.0
 20
1.0
 30
0.0
  9
$PUCSNAME
  2

  9
$PUCSORG
 10
0.0
 20
0.0
 30
0.0
  9
$PUCSXDIR
 10
1.0
 20
0.0
 30
0.0
  9
$PUCSYDIR
 10
0.0
 20
1.0
 30
0.0
  9
$USERI1
 70
     0
  9
$USERI2
 70
     0
  9
$USERI3
 70
     0
  9
$USERI4
 70
     0
  9
$USERI5
 70
     0
  9
$USERR1
 40
0.0
  9
$USERR2
 40
0.0
  9
$USERR3
 40
0.0
  9
$USERR4
 40
0.0
  9
$USERR5
 40
0.0
  9
$WORLDVIEW
 70
     1
  9
$SHADEDGE
 70
     3
  9
$SHADEDIF
 70
    70
  9
$TILEMODE
 70
     1
  9
$MAXACTVP
 70
    16
  9
$PINSBASE
 10
0.0
 20
0.0
 30
0.0
  9
$PLIMCHECK
 70
     0
  9
$PEXTMIN
 10
1.000000E+20
 20
1.000000E+20
 30
1.000000E+20
  9
$PEXTMAX
 10
-1.000000E+20
 20
-1.000000E+20
 30
-1.000000E+20
  9
$PLIMMIN
 10
0.0
 20
0.0
  9
$PLIMMAX
 10
12.0
 20
9.0
  9
$UNITMODE
 70
     0
  9
$VISRETAIN
 70
     0
  9
$PLINEGEN
 70
     0
  9
$PSLTSCALE
 70
     1
  9
$TREEDEPTH
 70
  3020
  9
$PICKSTYLE
 70
     1
  9
$CMLSTYLE
  2
STANDARD
  9
$CMLJUST
 70
     0
  9
$CMLSCALE
 40
1.0
  9
$SAVEIMAGES
 70
     0
  0
ENDSEC
  0
SECTION
  2
CLASSES
  0
ENDSEC
  0
SECTION
  2
TABLES
  0
TABLE
  2
VPORT
  5
1B6
100
AcDbSymbolTable
 70
     2
  0
VPORT
  5
1E7
100
AcDbSymbolTableRecord
100
AcDbViewportTableRecord
  2
*ACTIVE
 70
     0
 10
0.0
 20
0.0
 11
1.0
 21
1.0
 12
42.075123
 22
-0.449997
 13
0.0
 23
0.0
 14
1.0
 24
1.0
 15
0.0
 25
0.0
 16
0.0
 26
0.0
 36
1.0
 17
0.0
 27
0.0
 37
0.0
 40
266.100006
 41
1.776213
 42
50.0
 43
0.0
 44
0.0
 50
0.0
 51
0.0
 71
     0
 72
   100
 73
     1
 74
     1
 75
     0
 76
     0
 77
     0
 78
     0
  0
ENDTAB
  0
TABLE
  2
LTYPE
  5
1B3
100
AcDbSymbolTable
 70
    22
  0
LTYPE
  5
1C0
100
AcDbSymbolTableRecord
100
AcDbLinetypeTableRecord
  2
BYBLOCK
 70
     0
  3

 72
    65
 73
     0
 40
0.0
  0
LTYPE
  5
1C1
100
AcDbSymbolTableRecord
100
AcDbLinetypeTableRecord
  2
BYLAYER
 70
     0
  3

 72
    65
 73
     0
 40
0.0
  0
LTYPE
  5
1C2
100
AcDbSymbolTableRecord
100
AcDbLinetypeTableRecord
  2
CONTINUOUS
 70
    64
  3
Solid line
 72
    65
 73
     0
 40
0.0
  0
LTYPE
  5
1CA
100
AcDbSymbolTableRecord
100
AcDbLinetypeTableRecord
  2
DASHED
 70
    64
  3
__ __ __ __ __ __ __ __ __ __ __ __ __ __ __
 72
    65
 73
     2
 40
3.5
 49
2.0
 74
     0
 49
-1.5
 74
     0
  0
LTYPE
  5
1CB
100
AcDbSymbolTableRecord
100
AcDbLinetypeTableRecord
  2
CENTER
 70
    64
  3
____ _ ____ _ ____ _ ____ _ ____ _ ____ _ ____
 72
    65
 73
     4
 40
17.5
 49
13.0
 74
     0
 49
-1.5
 74
     0
 49
1.5
 74
     0
 49
-1.5
 74
     0
  0
LTYPE
  5
1CC
100
AcDbSymbolTableRecord
100
AcDbLinetypeTableRecord
  2
PHANTOM
 70
    64
  3
_____ _ _ _____ _ _ _____ _ _ _____ _ _ ____  
 72
    65
 73
     6
 40
15.5
 49
8.0
 74
     0
 49
-1.5
 74
     0
 49
1.5
 74
     0
 49
-1.5
 74
     0
 49
1.5
 74
     0
 49
-1.5
 74
     0
  0
LTYPE
  5
1CD
100
AcDbSymbolTableRecord
100
AcDbLinetypeTableRecord
  2
DASHED1
 70
    64
  3
__ __ __ __ __ __ __ __ __ __ __ __ __ __ __
 72
    65
 73
     2
 40
1.5
 49
1.0
 74
     0
 49
-0.5
 74
     0
  0
LTYPE
  5
1CE
100
AcDbSymbolTableRecord
100
AcDbLinetypeTableRecord
  2
DASHED2
 70
    64
  3
__ __ __ __ __ __ __ __ __ __ __ __ __ __ __
 72
    65
 73
     2
 40
3.5
 49
2.5
 74
     0
 49
-1.0
 74
     0
  0
LTYPE
  5
1CF
100
AcDbSymbolTableRecord
100
AcDbLinetypeTableRecord
  2
DASHED3
 70
    64
  3
__ __ __ __ __ __ __ __ __ __ __ __ __ __ __
 72
    65
 73
     2
 40
6.0
 49
4.0
 74
     0
 49
-2.0
 74
     0
  0
LTYPE
  5
1D0
100
AcDbSymbolTableRecord
100
AcDbLinetypeTableRecord
  2
DASHED4
 70
    64
  3
__ __ __ __ __ __ __ __ __ __ __ __ __ __ __
 72
    65
 73
     2
 40
12.0
 49
10.0
 74
     0
 49
-2.0
 74
     0
  0
LTYPE
  5
1D1
100
AcDbSymbolTableRecord
100
AcDbLinetypeTableRecord
  2
DASHED5
 70
    64
  3
__ __ __ __ __ __ __ __ __ __ __ __ __ __ __
 72
    65
 73
     2
 40
17.0
 49
15.0
 74
     0
 49
-2.0
 74
     0
  0
LTYPE
  5
1D2
100
AcDbSymbolTableRecord
100
AcDbLinetypeTableRecord
  2
DASHED6
 70
    64
  3
__ __ __ __ __ __ __ __ __ __ __ __ __ __ __
 72
    65
 73
     2
 40
29.0
 49
27.0
 74
     0
 49
-2.0
 74
     0
  0
LTYPE
  5
1D3
100
AcDbSymbolTableRecord
100
AcDbLinetypeTableRecord
  2
PHANTOM1
 70
    64
  3
_____ _ _ _____ _ _ _____ _ _ _____ _ _ ____  
 72
    65
 73
     6
 40
31.0
 49
25.0
 74
     0
 49
-1.5
 74
     0
 49
1.0
 74
     0
 49
-1.0
 74
     0
 49
1.0
 74
     0
 49
-1.5
 74
     0
  0
LTYPE
  5
1D4
100
AcDbSymbolTableRecord
100
AcDbLinetypeTableRecord
  2
PHANTOM2
 70
    64
  3
_____ _ _ _____ _ _ _____ _ _ _____ _ _ ____  
 72
    65
 73
     6
 40
36.0
 49
27.0
 74
     0
 49
-1.5
 74
     0
 49
2.5
 74
     0
 49
-1.0
 74
     0
 49
2.5
 74
     0
 49
-1.5
 74
     0
  0
LTYPE
  5
1D5
100
AcDbSymbolTableRecord
100
AcDbLinetypeTableRecord
  2
PHANTOM3
 70
    64
  3
_____ _ _ _____ _ _ _____ _ _ _____ _ _ ____  
 72
    65
 73
     6
 40
78.0
 49
64.0
 74
     0
 49
-2.0
 74
     0
 49
4.0
 74
     0
 49
-2.0
 74
     0
 49
4.0
 74
     0
 49
-2.0
 74
     0
  0
LTYPE
  5
1D6
100
AcDbSymbolTableRecord
100
AcDbLinetypeTableRecord
  2
CENTER1
 70
    64
  3
____ _ ____ _ ____ _ ____ _ ____ _ ____ _ ____
 72
    65
 73
     4
 40
19.0
 49
14.0
 74
     0
 49
-1.0
 74
     0
 49
3.0
 74
     0
 49
-1.0
 74
     0
  0
LTYPE
  5
1D7
100
AcDbSymbolTableRecord
100
AcDbLinetypeTableRecord
  2
CENTER2
 70
    64
  3
____ _ ____ _ ____ _ ____ _ ____ _ ____ _ ____
 72
    65
 73
     4
 40
28.5
 49
25.0
 74
     0
 49
-1.0
 74
     0
 49
1.5
 74
     0
 49
-1.0
 74
     0
  0
LTYPE
  5
1D8
100
AcDbSymbolTableRecord
100
AcDbLinetypeTableRecord
  2
CENTER3
 70
    64
  3
____ _ ____ _ ____ _ ____ _ ____ _ ____ _ ____
 72
    65
 73
     4
 40
31.5
 49
27.0
 74
     0
 49
-1.0
 74
     0
 49
2.5
 74
     0
 49
-1.0
 74
     0
  0
LTYPE
  5
1D9
100
AcDbSymbolTableRecord
100
AcDbLinetypeTableRecord
  2
CENTER4
 70
    64
  3
____ _ ____ _ ____ _ ____ _ ____ _ ____ _ ____
 72
    65
 73
     4
 40
50.0
 49
45.0
 74
     0
 49
-1.0
 74
     0
 49
3.0
 74
     0
 49
-1.0
 74
     0
  0
LTYPE
  5
1DA
100
AcDbSymbolTableRecord
100
AcDbLinetypeTableRecord
  2
CENTER5
 70
    64
  3
____ _ ____ _ ____ _ ____ _ ____ _ ____ _ ____
 72
    65
 73
     4
 40
100.0
 49
92.0
 74
     0
 49
-2.0
 74
     0
 49
4.0
 74
     0
 49
-2.0
 74
     0
  0
LTYPE
  5
1DB
100
AcDbSymbolTableRecord
100
AcDbLinetypeTableRecord
  2
SBK1
 70
    64
  3
______ _ _ _ ______ _ _ _ ______ _ _ _ _____  
 72
    65
 73
     8
 40
60.5
 49
45.0
 74
     0
 49
-2.0
 74
     0
 49
2.5
 74
     0
 49
-2.0
 74
     0
 49
2.5
 74
     0
 49
-2.0
 74
     0
 49
2.5
 74
     0
 49
-2.0
 74
     0
  0
LTYPE
  5
1DC
100
AcDbSymbolTableRecord
100
AcDbLinetypeTableRecord
  2
SBK2
 70
    64
  3
______ _ _ _ ______ _ _ _ ______ _ _ _ _____  
 72
    65
 73
     8
 40
84.0
 49
64.0
 74
     0
 49
-2.0
 74
     0
 49
4.0
 74
     0
 49
-2.0
 74
     0
 49
4.0
 74
     0
 49
-2.0
 74
     0
 49
4.0
 74
     0
 49
-2.0
 74
     0
  0
LTYPE
  5
1DD
100
AcDbSymbolTableRecord
100
AcDbLinetypeTableRecord
  2
STCH
 70
    64
  3
__ __ __ __ __ __ __ __ __ __ __ __ __ __ __
 72
    65
 73
     2
 40
3.0
 49
1.0
 74
     0
 49
-2.0
 74
     0
  0
LTYPE
  5
1DE
100
AcDbSymbolTableRecord
100
AcDbLinetypeTableRecord
  2
MTCH
 70
    64
  3
_____ _ _ _____ _ _ _____ _ _ _____ _ _ ____  
 72
    65
 73
     6
 40
80.0
 49
66.0
 74
     0
 49
-2.0
 74
     0
 49
4.0
 74
     0
 49
-2.0
 74
     0
 49
4.0
 74
     0
 49
-2.0
 74
     0
  0
ENDTAB
  0
TABLE
  2
LAYER
  5
1B0
100
AcDbSymbolTable
 70
     1
  0
LAYER
  5
1BD
100
AcDbSymbolTableRecord
100
AcDbLayerTableRecord
  2
0
 70
     0
 62
     7
  6
CONTINUOUS
  0
ENDTAB
  0
TABLE
  2
STYLE
  5
1B1
100
AcDbSymbolTable
 70
     1
  0
STYLE
  5
1BE
100
AcDbSymbolTableRecord
100
AcDbTextStyleTableRecord
  2
STANDARD
 70
     0
 40
0.0
 41
1.0
 50
0.0
 71
     0
 42
0.2
  3
txt
  4
BIGFONT
  0
ENDTAB
  0
TABLE
  2
VIEW
  5
1B4
100
AcDbSymbolTable
 70
     0
  0
ENDTAB
  0
TABLE
  2
UCS
  5
1B5
100
AcDbSymbolTable
 70
     0
  0
ENDTAB
  0
TABLE
  2
APPID
  5
1B7
100
AcDbSymbolTable
 70
     1
  0
APPID
  5
1BF
100
AcDbSymbolTableRecord
100
AcDbRegAppTableRecord
  2
ACAD
 70
     0
  0
ENDTAB
  0
TABLE
  2
DIMSTYLE
  5
1B8
100
AcDbSymbolTable
 70
     1
  0
DIMSTYLE
105
1E0
100
AcDbSymbolTableRecord
100
AcDbDimStyleTableRecord
  2
STANDARD
 70
     0
  3

  4

  5

  6

  7

 40
1.0
 41
0.18
 42
0.0625
 43
0.38
 44
0.18
 45
0.0
 46
0.0
 47
0.0
 48
0.0
140
0.18
141
0.09
142
0.0
143
25.4
144
1.0
145
0.0
146
1.0
147
0.09
 71
     0
 72
     0
 73
     1
 74
     1
 75
     0
 76
     0
 77
     0
 78
     0
170
     0
171
     2
172
     0
173
     0
174
     0
175
     0
176
     0
177
     0
178
     0
270
     2
271
     4
272
     4
273
     2
274
     2
340
1BE
275
     0
280
     0
281
     0
282
     0
283
     1
284
     0
285
     0
286
     0
287
     5
288
     0
  0
ENDTAB
  0
TABLE
  2
BLOCK_RECORD
  5
1AF
100
AcDbSymbolTable
 70
     0
  0
BLOCK_RECORD
  5
1C6
100
AcDbSymbolTableRecord
100
AcDbBlockTableRecord
  2
*MODEL_SPACE
  0
BLOCK_RECORD
  5
1C3
100
AcDbSymbolTableRecord
100
AcDbBlockTableRecord
  2
*PAPER_SPACE
  0
ENDTAB
  0
ENDSEC
  0
SECTION
  2
BLOCKS
  0
BLOCK
  5
1E3
100
AcDbEntity
  8
0
  6
CONTINUOUS
100
AcDbBlockBegin
  2
*MODEL_SPACE
 70
     0
 10
0.0
 20
0.0
 30
0.0
  3
*MODEL_SPACE
  1

  0
ENDBLK
  5
1E4
100
AcDbEntity
  8
0
  6
CONTINUOUS
100
AcDbBlockEnd
  0
BLOCK
  5
1E1
100
AcDbEntity
 67
     1
  8
0
  6
CONTINUOUS
100
AcDbBlockBegin
  2
*PAPER_SPACE
 70
     0
 10
0.0
 20
0.0
 30
0.0
  3
*PAPER_SPACE
  1

  0
ENDBLK
  5
1E2
100
AcDbEntity
 67
     1
  8
0
  6
CONTINUOUS
100
AcDbBlockEnd
  0
ENDSEC
  0
SECTION
  2
ENTITIES
  0
LINE
  5
34
100
AcDbEntity
  8
0
100
AcDbLine
 10
-37.375004
 20
13.390344
 30
0.0
 11
23.124996
 21
13.390344
 31
0.0
  0
LINE
  5
35
100
AcDbEntity
  8
0
100
AcDbLine
 10
-37.375004
 20
-31.609657
 30
0.0
 11
23.124996
 21
-31.609657
 31
0.0
  0
LINE
  5
36
100
AcDbEntity
  8
0
100
AcDbLine
 10
-60.375008
 20
8.890344
 30
0.0
 11
-60.375008
 21
0.390345
 31
0.0
  0
LINE
  5
37
100
AcDbEntity
  8
0
100
AcDbLine
 10
-37.375004
 20
13.390344
 30
0.0
 11
-37.375004
 21
-31.609657
 31
0.0
  0
LINE
  5
38
100
AcDbEntity
  8
0
100
AcDbLine
 10
23.124996
 20
13.390344
 30
0.0
 11
23.124996
 21
-31.609657
 31
0.0
  0
LINE
  5
39
100
AcDbEntity
  8
0
100
AcDbLine
 10
-60.375008
 20
8.890344
 30
0.0
 11
-37.375004
 21
8.890344
 31
0.0
  0
LINE
  5
3A
100
AcDbEntity
  8
0
100
AcDbLine
 10
-60.375008
 20
-27.109653
 30
0.0
 11
-37.375004
 21
-27.109653
 31
0.0
  0
LINE
  5
3B
100
AcDbEntity
  8
0
100
AcDbLine
 10
-60.375008
 20
-18.609655
 30
0.0
 11
-37.375004
 21
-18.609655
 31
0.0
  0
LINE
  5
3C
100
AcDbEntity
  8
0
100
AcDbLine
 10
-60.375008
 20
0.390345
 30
0.0
 11
-37.375004
 21
0.390345
 31
0.0
  0
LINE
  5
3D
100
AcDbEntity
  8
0
100
AcDbLine
 10
-60.375008
 20
-18.609655
 30
0.0
 11
-60.375008
 21
-27.109653
 31
0.0
  0
LINE
  5
3E
100
AcDbEntity
  8
0
100
AcDbLine
 10
-27.175005
 20
15.390344
 30
0.0
 11
-27.175005
 21
14.590344
 31
0.0
  0
LINE
  5
3F
100
AcDbEntity
  8
0
100
AcDbLine
 10
-35.175007
 20
15.390344
 30
0.0
 11
-35.175007
 21
13.390344
 31
0.0
  0
LINE
  5
40
100
AcDbEntity
  8
0
100
AcDbLine
 10
-35.175007
 20
-31.609657
 30
0.0
 11
-35.175007
 21
-33.609657
 31
0.0
  0
LINE
  5
41
100
AcDbEntity
  8
0
100
AcDbLine
 10
-27.175005
 20
-32.809658
 30
0.0
 11
-27.175005
 21
-33.609657
 31
0.0
  0
LINE
  5
42
100
AcDbEntity
  8
0
  6
CENTER
 62
     2
100
AcDbLine
 10
-56.375008
 20
-14.775055
 30
0.0
 11
-56.375008
 21
-30.332554
 31
0.0
  0
LINE
  5
43
100
AcDbEntity
  8
0
  6
CENTER
 62
     2
100
AcDbLine
 10
-56.375008
 20
13.557225
 30
0.0
 11
-56.375008
 21
-2.435054
 31
0.0
  0
LINE
  5
44
100
AcDbEntity
  8
0
  6
CENTER
 62
     2
100
AcDbLine
 10
-46.375008
 20
13.612445
 30
0.0
 11
-46.375008
 21
-2.717131
 31
0.0
  0
LINE
  5
45
100
AcDbEntity
  8
0
  6
CENTER
 62
     2
100
AcDbLine
 10
-46.375008
 20
-14.734985
 30
0.0
 11
-46.375008
 21
-30.433258
 31
0.0
  0
LINE
  5
46
100
AcDbEntity
  8
0
  6
CENTER
 62
     2
100
AcDbLine
 10
-40.165707
 20
-9.109656
 30
0.0
 11
26.166664
 21
-9.109656
 31
0.0
  0
LINE
  5
47
100
AcDbEntity
  8
0
100
AcDbLine
 10
-33.675003
 20
13.390344
 30
0.0
 11
-33.675003
 21
-31.609657
 31
0.0
  0
LINE
  5
48
100
AcDbEntity
  8
0
100
AcDbLine
 10
-35.175007
 20
-33.609657
 30
0.0
 11
-27.175005
 21
-33.609657
 31
0.0
  0
LINE
  5
49
100
AcDbEntity
  8
0
100
AcDbLine
 10
-35.175007
 20
15.390344
 30
0.0
 11
-27.175005
 21
15.390344
 31
0.0
  0
LINE
  5
4A
100
AcDbEntity
  8
0
100
AcDbLine
 10
-35.175007
 20
-32.809658
 30
0.0
 11
-27.175005
 21
-32.809658
 31
0.0
  0
LINE
  5
4B
100
AcDbEntity
  8
0
100
AcDbLine
 10
-35.175007
 20
14.590344
 30
0.0
 11
-27.175005
 21
14.590344
 31
0.0
  0
LINE
  5
4C
100
AcDbEntity
  8
0
100
AcDbLine
 10
-27.175003
 20
-32.809654
 30
0.0
 11
-25.975006
 21
-31.609655
 31
0.0
  0
LINE
  5
4D
100
AcDbEntity
  8
0
100
AcDbLine
 10
-27.175009
 20
14.590343
 30
0.0
 11
-25.975008
 21
13.390344
 31
0.0
  0
LINE
  5
4E
100
AcDbEntity
  8
0
  6
CENTER
 62
     2
100
AcDbLine
 10
-14.575005
 20
-17.109657
 30
0.0
 11
-14.575005
 21
-23.109657
 31
0.0
  0
LINE
  5
4F
100
AcDbEntity
  8
0
  6
CENTER
 62
     2
100
AcDbLine
 10
-17.575003
 20
-20.109657
 30
0.0
 11
-11.575003
 21
-20.109657
 31
0.0
  0
LINE
  5
50
100
AcDbEntity
  8
0
  6
CENTER
 62
     2
100
AcDbLine
 10
-2.875004
 20
-19.997555
 30
0.0
 11
-2.875004
 21
-28.327553
 31
0.0
  0
LINE
  5
51
100
AcDbEntity
  8
0
  6
CENTER
 62
     2
100
AcDbLine
 10
-7.121433
 20
-24.109657
 30
0.0
 11
1.331066
 21
-24.109657
 31
0.0
  0
LINE
  5
52
100
AcDbEntity
  8
0
 62
     4
100
AcDbLine
 10
23.124996
 20
-21.759668
 30
0.0
 11
25.124996
 21
-21.759668
 31
0.0
  0
LINE
  5
53
100
AcDbEntity
  8
0
 62
     4
100
AcDbLine
 10
23.124996
 20
-26.359669
 30
0.0
 11
25.124996
 21
-26.359669
 31
0.0
  0
LINE
  5
54
100
AcDbEntity
  8
0
 62
     4
100
AcDbLine
 10
25.124996
 20
-21.759668
 30
0.0
 11
25.124996
 21
-26.359669
 31
0.0
  0
LINE
  5
55
100
AcDbEntity
  8
0
 62
     4
100
AcDbLine
 10
23.124996
 20
-25.359646
 30
0.0
 11
25.124996
 21
-25.359646
 31
0.0
  0
LINE
  5
56
100
AcDbEntity
  8
0
 62
     4
100
AcDbLine
 10
23.124996
 20
-25.909664
 30
0.0
 11
25.124996
 21
-25.909664
 31
0.0
  0
LINE
  5
57
100
AcDbEntity
  8
0
 62
     4
100
AcDbLine
 10
25.124996
 20
-22.759653
 30
0.0
 11
34.374439
 21
-22.759653
 31
0.0
  0
LINE
  5
58
100
AcDbEntity
  8
0
 62
     4
100
AcDbLine
 10
25.124996
 20
-25.359661
 30
0.0
 11
35.875561
 21
-25.359661
 31
0.0
  0
LINE
  5
59
100
AcDbEntity
  8
0
 62
     1
100
AcDbLine
 10
33.874985
 20
-21.89455
 30
0.0
 11
36.374985
 21
-26.224676
 31
0.0
  0
LINE
  5
5A
100
AcDbEntity
  8
0
 62
     1
100
AcDbLine
 10
33.874985
 20
8.005451
 30
0.0
 11
36.374989
 21
3.675321
 31
0.0
  0
LINE
  5
5B
100
AcDbEntity
  8
0
 62
     4
100
AcDbLine
 10
23.124996
 20
7.140347
 30
0.0
 11
34.374439
 21
7.140347
 31
0.0
  0
LINE
  5
5C
100
AcDbEntity
  8
0
 62
     4
100
AcDbLine
 10
23.124996
 20
4.540339
 30
0.0
 11
35.875561
 21
4.540339
 31
0.0
  0
LINE
  5
5D
100
AcDbEntity
  8
0
  6
CENTER
 62
     2
100
AcDbLine
 10
-2.875004
 20
9.892446
 30
0.0
 11
-2.875004
 21
1.807446
 31
0.0
  0
LINE
  5
5E
100
AcDbEntity
  8
0
  6
CENTER
 62
     2
100
AcDbLine
 10
-6.753933
 20
5.890344
 30
0.0
 11
1.208569
 21
5.890344
 31
0.0
  0
LINE
  5
5F
100
AcDbEntity
  8
0
  6
CENTER
 62
     2
100
AcDbLine
 10
-14.575005
 20
4.890344
 30
0.0
 11
-14.575005
 21
-1.109656
 31
0.0
  0
LINE
  5
60
100
AcDbEntity
  8
0
  6
CENTER
 62
     2
100
AcDbLine
 10
-17.575003
 20
1.890344
 30
0.0
 11
-11.575003
 21
1.890344
 31
0.0
  0
LINE
  5
61
100
AcDbEntity
  8
0
100
AcDbLine
 10
-114.874992
 20
13.390355
 30
0.0
 11
-114.874992
 21
-31.609646
 31
0.0
  0
LINE
  5
62
100
AcDbEntity
  8
0
100
AcDbLine
 10
-140.875
 20
13.390355
 30
0.0
 11
-140.875
 21
-31.60965
 31
0.0
  0
LINE
  5
63
100
AcDbEntity
  8
0
  6
CENTER
 62
     2
100
AcDbLine
 10
-145.0
 20
-9.109645
 30
0.0
 11
-111.5
 21
-9.109645
 31
0.0
  0
LINE
  5
64
100
AcDbEntity
  8
0
  6
CENTER
 62
     2
100
AcDbLine
 10
-127.875
 20
17.732464
 30
0.0
 11
-127.875
 21
-36.902534
 31
0.0
  0
LINE
  5
65
100
AcDbEntity
  8
0
100
AcDbLine
 10
-132.375
 20
-13.009643
 30
0.0
 11
-132.375
 21
-27.209644
 31
0.0
  0
LINE
  5
66
100
AcDbEntity
  8
0
100
AcDbLine
 10
-123.375
 20
-13.009643
 30
0.0
 11
-123.375
 21
-27.209644
 31
0.0
  0
LINE
  5
67
100
AcDbEntity
  8
0
100
AcDbLine
 10
-131.875
 20
-16.309643
 30
0.0
 11
-123.875
 21
-16.309643
 31
0.0
  0
LINE
  5
68
100
AcDbEntity
  8
0
100
AcDbLine
 10
-131.875
 20
-15.509643
 30
0.0
 11
-123.875
 21
-15.509643
 31
0.0
  0
LINE
  5
69
100
AcDbEntity
  8
0
100
AcDbLine
 10
-131.875
 20
-15.509643
 30
0.0
 11
-131.875
 21
-28.209644
 31
0.0
  0
LINE
  5
6A
100
AcDbEntity
  8
0
100
AcDbLine
 10
-123.875
 20
-15.509643
 30
0.0
 11
-123.875
 21
-28.209644
 31
0.0
  0
LINE
  5
6B
100
AcDbEntity
  8
0
100
AcDbLine
 10
-123.875
 20
15.390355
 30
0.0
 11
-123.875
 21
13.390355
 31
0.0
  0
LINE
  5
6C
100
AcDbEntity
  8
0
100
AcDbLine
 10
-131.875
 20
15.390355
 30
0.0
 11
-131.875
 21
13.390355
 31
0.0
  0
LINE
  5
6D
100
AcDbEntity
  8
0
100
AcDbLine
 10
-131.875
 20
-31.609646
 30
0.0
 11
-131.875
 21
-33.609646
 31
0.0
  0
LINE
  5
6E
100
AcDbEntity
  8
0
100
AcDbLine
 10
-123.875
 20
-31.609646
 30
0.0
 11
-123.875
 21
-33.609646
 31
0.0
  0
LINE
  5
6F
100
AcDbEntity
  8
0
100
AcDbLine
 10
-130.875
 20
-11.509643
 30
0.0
 11
-124.875
 21
-11.509643
 31
0.0
  0
LINE
  5
70
100
AcDbEntity
  8
0
100
AcDbLine
 10
-130.875
 20
-28.709644
 30
0.0
 11
-124.875
 21
-28.709644
 31
0.0
  0
LINE
  5
71
100
AcDbEntity
  8
0
100
AcDbLine
 10
-131.875
 20
-28.309643
 30
0.0
 11
-123.875
 21
-28.309643
 31
0.0
  0
LINE
  5
72
100
AcDbEntity
  8
0
100
AcDbLine
 10
-123.375
 20
-5.209647
 30
0.0
 11
-123.375
 21
8.990357
 31
0.0
  0
LINE
  5
73
100
AcDbEntity
  8
0
100
AcDbLine
 10
-131.875
 20
-1.909644
 30
0.0
 11
-123.875
 21
-1.909644
 31
0.0
  0
LINE
  5
74
100
AcDbEntity
  8
0
100
AcDbLine
 10
-131.875
 20
-2.709647
 30
0.0
 11
-123.875
 21
-2.709647
 31
0.0
  0
LINE
  5
75
100
AcDbEntity
  8
0
100
AcDbLine
 10
-131.875
 20
-2.709647
 30
0.0
 11
-131.875
 21
9.990357
 31
0.0
  0
LINE
  5
76
100
AcDbEntity
  8
0
100
AcDbLine
 10
-123.875
 20
-2.709647
 30
0.0
 11
-123.875
 21
9.990357
 31
0.0
  0
LINE
  5
77
100
AcDbEntity
  8
0
100
AcDbLine
 10
-132.375
 20
-5.209647
 30
0.0
 11
-132.375
 21
8.990357
 31
0.0
  0
LINE
  5
78
100
AcDbEntity
  8
0
100
AcDbLine
 10
-130.875
 20
-6.709647
 30
0.0
 11
-124.875
 21
-6.709647
 31
0.0
  0
LINE
  5
79
100
AcDbEntity
  8
0
100
AcDbLine
 10
-130.875
 20
10.490357
 30
0.0
 11
-124.875
 21
10.490357
 31
0.0
  0
LINE
  5
7A
100
AcDbEntity
  8
0
100
AcDbLine
 10
-131.875
 20
10.090356
 30
0.0
 11
-123.875
 21
10.090356
 31
0.0
  0
LINE
  5
7B
100
AcDbEntity
  8
0
100
AcDbLine
 10
-140.875
 20
-31.609646
 30
0.0
 11
-114.874992
 21
-31.609646
 31
0.0
  0
LINE
  5
7C
100
AcDbEntity
  8
0
100
AcDbLine
 10
-140.875
 20
13.390355
 30
0.0
 11
-114.874992
 21
13.390355
 31
0.0
  0
LINE
  5
7D
100
AcDbEntity
  8
0
100
AcDbLine
 10
-131.875
 20
15.390355
 30
0.0
 11
-123.875
 21
15.390355
 31
0.0
  0
LINE
  5
7E
100
AcDbEntity
  8
0
100
AcDbLine
 10
-131.875
 20
-33.609646
 30
0.0
 11
-123.875
 21
-33.609646
 31
0.0
  0
LINE
  5
7F
100
AcDbEntity
  8
0
100
AcDbLine
 10
-131.875
 20
-32.809647
 30
0.0
 11
-123.875
 21
-32.809647
 31
0.0
  0
LINE
  5
80
100
AcDbEntity
  8
0
100
AcDbLine
 10
-131.875
 20
14.590356
 30
0.0
 11
-123.875
 21
14.590356
 31
0.0
  0
LINE
  5
81
100
AcDbEntity
  8
0
100
AcDbLine
 10
-131.875
 20
-27.109646
 30
0.0
 11
-123.875
 21
-27.109646
 31
0.0
  0
LINE
  5
82
100
AcDbEntity
  8
0
100
AcDbLine
 10
-131.875
 20
8.890355
 30
0.0
 11
-123.875
 21
8.890355
 31
0.0
  0
LINE
  5
83
100
AcDbEntity
  8
0
100
AcDbLine
 10
-131.875
 20
0.390355
 30
0.0
 11
-123.875
 21
0.390355
 31
0.0
  0
LINE
  5
84
100
AcDbEntity
  8
0
100
AcDbLine
 10
-131.875
 20
-18.609646
 30
0.0
 11
-123.875
 21
-18.609646
 31
0.0
  0
LINE
  5
85
100
AcDbEntity
  8
0
100
AcDbLine
 10
118.875008
 20
13.390328
 30
0.0
 11
118.875008
 21
-31.609673
 31
0.0
  0
LINE
  5
86
100
AcDbEntity
  8
0
100
AcDbLine
 10
92.875008
 20
13.390328
 30
0.0
 11
92.875008
 21
-31.609673
 31
0.0
  0
LINE
  5
87
100
AcDbEntity
  8
0
100
AcDbLine
 10
92.875008
 20
13.390328
 30
0.0
 11
118.875008
 21
13.390328
 31
0.0
  0
LINE
  5
88
100
AcDbEntity
  8
0
100
AcDbLine
 10
92.875008
 20
-31.609673
 30
0.0
 11
118.875008
 21
-31.609673
 31
0.0
  0
LINE
  5
89
100
AcDbEntity
  8
0
  6
CENTER
 62
     2
100
AcDbLine
 10
97.875008
 20
12.140328
 30
0.0
 11
97.875008
 21
4.640329
 31
0.0
  0
LINE
  5
8A
100
AcDbEntity
  8
0
100
AcDbLine
 10
109.875008
 20
15.390328
 30
0.0
 11
109.875008
 21
13.390328
 31
0.0
  0
LINE
  5
8B
100
AcDbEntity
  8
0
100
AcDbLine
 10
101.875008
 20
15.390328
 30
0.0
 11
101.875008
 21
13.390328
 31
0.0
  0
LINE
  5
8C
100
AcDbEntity
  8
0
100
AcDbLine
 10
101.875008
 20
-31.609673
 30
0.0
 11
101.875008
 21
-33.609673
 31
0.0
  0
LINE
  5
8D
100
AcDbEntity
  8
0
100
AcDbLine
 10
109.875008
 20
-31.609673
 30
0.0
 11
109.875008
 21
-33.609673
 31
0.0
  0
LINE
  5
8E
100
AcDbEntity
  8
0
  6
CENTER
 62
     2
100
AcDbLine
 10
94.125008
 20
8.390328
 30
0.0
 11
101.625008
 21
8.390328
 31
0.0
  0
LINE
  5
8F
100
AcDbEntity
  8
0
100
AcDbLine
 10
101.875008
 20
15.390328
 30
0.0
 11
109.875008
 21
15.390328
 31
0.0
  0
LINE
  5
90
100
AcDbEntity
  8
0
100
AcDbLine
 10
101.875008
 20
14.590329
 30
0.0
 11
109.875008
 21
14.590329
 31
0.0
  0
LINE
  5
91
100
AcDbEntity
  8
0
100
AcDbLine
 10
101.875008
 20
-33.609673
 30
0.0
 11
109.875008
 21
-33.609673
 31
0.0
  0
LINE
  5
92
100
AcDbEntity
  8
0
100
AcDbLine
 10
101.875008
 20
-32.809669
 30
0.0
 11
109.875008
 21
-32.809669
 31
0.0
  0
LINE
  5
93
100
AcDbEntity
  8
0
100
AcDbLine
 10
103.375008
 20
-31.309673
 30
0.0
 11
103.375008
 21
-27.709675
 31
0.0
  0
LINE
  5
94
100
AcDbEntity
  8
0
100
AcDbLine
 10
103.375061
 20
-27.709723
 30
0.0
 11
104.275063
 21
-26.809719
 31
0.0
  0
LINE
  5
95
100
AcDbEntity
  8
0
100
AcDbLine
 10
104.275017
 20
-26.809673
 30
0.0
 11
104.275017
 21
-25.809673
 31
0.0
  0
LINE
  5
96
100
AcDbEntity
  8
0
100
AcDbLine
 10
104.275032
 20
-25.809631
 30
0.0
 11
103.775032
 21
-25.309631
 31
0.0
  0
LINE
  5
97
100
AcDbEntity
  8
0
100
AcDbLine
 10
103.775017
 20
-25.309673
 30
0.0
 11
103.775017
 21
-23.709673
 31
0.0
  0
LINE
  5
98
100
AcDbEntity
  8
0
100
AcDbLine
 10
107.975014
 20
-25.309673
 30
0.0
 11
107.975014
 21
-23.709673
 31
0.0
  0
LINE
  5
99
100
AcDbEntity
  8
0
100
AcDbLine
 10
107.475067
 20
-25.809738
 30
0.0
 11
107.975067
 21
-25.309744
 31
0.0
  0
LINE
  5
9A
100
AcDbEntity
  8
0
100
AcDbLine
 10
107.475014
 20
-26.809673
 30
0.0
 11
107.475014
 21
-25.809673
 31
0.0
  0
LINE
  5
9B
100
AcDbEntity
  8
0
100
AcDbLine
 10
108.375031
 20
-27.709644
 30
0.0
 11
107.475029
 21
-26.809639
 31
0.0
  0
LINE
  5
9C
100
AcDbEntity
  8
0
100
AcDbLine
 10
108.375008
 20
-31.309673
 30
0.0
 11
108.375008
 21
-27.709675
 31
0.0
  0
LINE
  5
9D
100
AcDbEntity
  8
0
100
AcDbLine
 10
103.775017
 20
5.490328
 30
0.0
 11
103.775017
 21
7.090329
 31
0.0
  0
LINE
  5
9E
100
AcDbEntity
  8
0
100
AcDbLine
 10
107.975014
 20
5.490328
 30
0.0
 11
107.975014
 21
7.090329
 31
0.0
  0
LINE
  5
9F
100
AcDbEntity
  8
0
100
AcDbLine
 10
107.475014
 20
8.590329
 30
0.0
 11
107.475014
 21
7.590402
 31
0.0
  0
LINE
  5
A0
100
AcDbEntity
  8
0
100
AcDbLine
 10
107.975067
 20
7.090385
 30
0.0
 11
107.475067
 21
7.590386
 31
0.0
  0
LINE
  5
A1
100
AcDbEntity
  8
0
100
AcDbLine
 10
103.775032
 20
7.090279
 30
0.0
 11
104.275032
 21
7.590279
 31
0.0
  0
LINE
  5
A2
100
AcDbEntity
  8
0
100
AcDbLine
 10
104.275017
 20
8.590329
 30
0.0
 11
104.275017
 21
7.590325
 31
0.0
  0
LINE
  5
A3
100
AcDbEntity
  8
0
100
AcDbLine
 10
103.375053
 20
9.490379
 30
0.0
 11
104.275063
 21
8.590376
 31
0.0
  0
LINE
  5
A4
100
AcDbEntity
  8
0
100
AcDbLine
 10
103.375008
 20
13.090329
 30
0.0
 11
103.375008
 21
9.490331
 31
0.0
  0
LINE
  5
A5
100
AcDbEntity
  8
0
100
AcDbLine
 10
108.375008
 20
13.090329
 30
0.0
 11
108.375008
 21
9.490331
 31
0.0
  0
LINE
  5
A6
100
AcDbEntity
  8
0
100
AcDbLine
 10
108.375046
 20
9.490273
 30
0.0
 11
107.475044
 21
8.59027
 31
0.0
  0
LINE
  5
A7
100
AcDbEntity
  8
0
 62
     4
100
AcDbLine
 10
107.475014
 20
7.590407
 30
0.0
 11
107.375069
 21
7.690358
 31
0.0
  0
LINE
  5
A8
100
AcDbEntity
  8
0
 62
     4
100
AcDbLine
 10
107.375008
 20
8.140317
 30
0.0
 11
107.375008
 21
7.69032
 31
0.0
  0
LINE
  5
A9
100
AcDbEntity
  8
0
 62
     4
100
AcDbLine
 10
107.375008
 20
8.140317
 30
0.0
 11
104.375008
 21
8.140317
 31
0.0
  0
LINE
  5
AA
100
AcDbEntity
  8
0
 62
     4
100
AcDbLine
 10
104.375008
 20
8.140317
 30
0.0
 11
104.375008
 21
7.69032
 31
0.0
  0
LINE
  5
AB
100
AcDbEntity
  8
0
 62
     4
100
AcDbLine
 10
104.275009
 20
7.590352
 30
0.0
 11
104.375015
 21
7.690354
 31
0.0
  0
LINE
  5
AC
100
AcDbEntity
  8
0
 62
     4
100
AcDbLine
 10
107.125008
 20
8.640317
 30
0.0
 11
107.125008
 21
8.140317
 31
0.0
  0
LINE
  5
AD
100
AcDbEntity
  8
0
 62
     4
100
AcDbLine
 10
104.625008
 20
8.640317
 30
0.0
 11
104.625008
 21
8.140317
 31
0.0
  0
LINE
  5
AE
100
AcDbEntity
  8
0
 62
     4
100
AcDbLine
 10
107.125008
 20
8.640317
 30
0.0
 11
104.625008
 21
8.640317
 31
0.0
  0
LINE
  5
AF
100
AcDbEntity
  8
0
 62
     4
100
AcDbLine
 10
107.475014
 20
-25.809736
 30
0.0
 11
107.375069
 21
-25.909685
 31
0.0
  0
LINE
  5
B0
100
AcDbEntity
  8
0
 62
     4
100
AcDbLine
 10
107.375008
 20
-26.359657
 30
0.0
 11
107.375008
 21
-25.90966
 31
0.0
  0
LINE
  5
B1
100
AcDbEntity
  8
0
 62
     4
100
AcDbLine
 10
107.375008
 20
-26.359657
 30
0.0
 11
104.375008
 21
-26.359657
 31
0.0
  0
LINE
  5
B2
100
AcDbEntity
  8
0
 62
     4
100
AcDbLine
 10
104.375008
 20
-26.359657
 30
0.0
 11
104.375008
 21
-25.90966
 31
0.0
  0
LINE
  5
B3
100
AcDbEntity
  8
0
 62
     4
100
AcDbLine
 10
104.275002
 20
-25.80969
 30
0.0
 11
104.375008
 21
-25.909691
 31
0.0
  0
LINE
  5
B4
100
AcDbEntity
  8
0
 62
     4
100
AcDbLine
 10
107.125008
 20
-26.859657
 30
0.0
 11
107.125008
 21
-26.359657
 31
0.0
  0
LINE
  5
B5
100
AcDbEntity
  8
0
 62
     4
100
AcDbLine
 10
104.625008
 20
-26.859657
 30
0.0
 11
104.625008
 21
-26.359657
 31
0.0
  0
LINE
  5
B6
100
AcDbEntity
  8
0
 62
     4
100
AcDbLine
 10
107.125008
 20
-26.859657
 30
0.0
 11
104.625008
 21
-26.859657
 31
0.0
  0
LINE
  5
B7
100
AcDbEntity
  8
0
  6
CENTER
 62
     2
100
AcDbLine
 10
105.875008
 20
19.814938
 30
0.0
 11
105.875008
 21
-37.14756
 31
0.0
  0
LINE
  5
B8
100
AcDbEntity
  8
0
  6
CENTER
 62
     2
100
AcDbLine
 10
88.46859
 20
-9.109671
 30
0.0
 11
122.400002
 21
-9.109671
 31
0.0
  0
LINE
  5
B9
100
AcDbEntity
  8
0
  6
CENTER
 62
     2
100
AcDbLine
 10
113.875008
 20
-22.859671
 30
0.0
 11
113.875008
 21
-30.359673
 31
0.0
  0
LINE
  5
BA
100
AcDbEntity
  8
0
  6
CENTER
 62
     2
100
AcDbLine
 10
110.125008
 20
-26.609673
 30
0.0
 11
117.625008
 21
-26.609673
 31
0.0
  0
LINE
  5
BB
100
AcDbEntity
  8
0
100
AcDbLine
 10
-33.675003
 20
54.500015
 30
0.0
 11
23.125
 21
54.500015
 31
0.0
  0
LINE
  5
BC
100
AcDbEntity
  8
0
100
AcDbLine
 10
-33.675003
 20
80.500015
 30
0.0
 11
23.125
 21
80.500015
 31
0.0
  0
LINE
  5
BD
100
AcDbEntity
  8
0
100
AcDbLine
 10
-60.375004
 20
71.500015
 30
0.0
 11
-60.375004
 21
63.500015
 31
0.0
  0
LINE
  5
BE
100
AcDbEntity
  8
0
100
AcDbLine
 10
-37.375
 20
80.250015
 30
0.0
 11
-37.375
 21
54.750015
 31
0.0
  0
LINE
  5
BF
100
AcDbEntity
  8
0
100
AcDbLine
 10
-28.575001
 20
75.20002
 30
0.0
 11
-28.575001
 21
72.000015
 31
0.0
  0
LINE
  5
C0
100
AcDbEntity
  8
0
100
AcDbLine
 10
23.125
 20
80.500015
 30
0.0
 11
23.125
 21
68.800011
 31
0.0
  0
LINE
  5
C1
100
AcDbEntity
  8
0
  6
CENTER
 62
     2
100
AcDbLine
 10
-64.734283
 20
67.500008
 30
0.0
 11
35.924999
 21
67.500008
 31
0.0
  0
LINE
  5
C2
100
AcDbEntity
  8
0
100
AcDbLine
 10
-8.375
 20
70.750015
 30
0.0
 11
-8.375
 21
64.250015
 31
0.0
  0
LINE
  5
C3
100
AcDbEntity
  8
0
100
AcDbLine
 10
-22.875
 20
72.000015
 30
0.0
 11
-22.875
 21
70.750015
 31
0.0
  0
LINE
  5
C4
100
AcDbEntity
  8
0
100
AcDbLine
 10
-22.875
 20
64.250015
 30
0.0
 11
-7.375
 21
64.250015
 31
0.0
  0
LINE
  5
C5
100
AcDbEntity
  8
0
100
AcDbLine
 10
-22.875
 20
70.750015
 30
0.0
 11
-7.375
 21
70.750015
 31
0.0
  0
LINE
  5
C6
100
AcDbEntity
  8
0
100
AcDbLine
 10
-28.575001
 20
72.000015
 30
0.0
 11
-22.875
 21
72.000015
 31
0.0
  0
LINE
  5
C7
100
AcDbEntity
  8
0
100
AcDbLine
 10
-28.575001
 20
63.000015
 30
0.0
 11
-22.875
 21
63.000015
 31
0.0
  0
LINE
  5
C8
100
AcDbEntity
  8
0
100
AcDbLine
 10
-22.875
 20
64.250015
 30
0.0
 11
-22.875
 21
63.000015
 31
0.0
  0
LINE
  5
C9
100
AcDbEntity
  8
0
100
AcDbLine
 10
-37.375
 20
54.750015
 30
0.0
 11
-33.675003
 21
54.750015
 31
0.0
  0
LINE
  5
CA
100
AcDbEntity
  8
0
100
AcDbLine
 10
-37.375
 20
80.250015
 30
0.0
 11
-33.675003
 21
80.250015
 31
0.0
  0
LINE
  5
CB
100
AcDbEntity
  8
0
100
AcDbLine
 10
-35.575001
 20
72.000015
 30
0.0
 11
-35.575001
 21
63.000015
 31
0.0
  0
LINE
  5
CC
100
AcDbEntity
  8
0
100
AcDbLine
 10
-35.575001
 20
63.000015
 30
0.0
 11
-33.675003
 21
63.000015
 31
0.0
  0
LINE
  5
CD
100
AcDbEntity
  8
0
100
AcDbLine
 10
-35.575001
 20
72.000015
 30
0.0
 11
-33.675003
 21
72.000015
 31
0.0
  0
LINE
  5
CE
100
AcDbEntity
  8
0
100
AcDbLine
 10
-33.675003
 20
80.500015
 30
0.0
 11
-33.675003
 21
72.000015
 31
0.0
  0
LINE
  5
CF
100
AcDbEntity
  8
0
100
AcDbLine
 10
-33.675003
 20
75.20002
 30
0.0
 11
-28.575001
 21
75.20002
 31
0.0
  0
LINE
  5
D0
100
AcDbEntity
  8
0
100
AcDbLine
 10
-33.675003
 20
60.100014
 30
0.0
 11
-28.575001
 21
60.100014
 31
0.0
  0
LINE
  5
D1
100
AcDbEntity
  8
0
100
AcDbLine
 10
-60.375004
 20
71.500015
 30
0.0
 11
-37.375
 21
71.500015
 31
0.0
  0
LINE
  5
D2
100
AcDbEntity
  8
0
100
AcDbLine
 10
-60.375004
 20
63.500015
 30
0.0
 11
-37.375
 21
63.500015
 31
0.0
  0
LINE
  5
D3
100
AcDbEntity
  8
0
100
AcDbLine
 10
-23.675001
 20
71.500015
 30
0.0
 11
-23.675001
 21
69.100014
 31
0.0
  0
LINE
  5
D4
100
AcDbEntity
  8
0
 62
     2
100
AcDbLine
 10
-35.175003
 20
71.500015
 30
0.0
 11
-35.175003
 21
63.500015
 31
0.0
  0
LINE
  5
D5
100
AcDbEntity
  8
0
100
AcDbLine
 10
-28.575001
 20
63.100014
 30
0.0
 11
-28.575001
 21
60.100014
 31
0.0
  0
LINE
  5
D6
100
AcDbEntity
  8
0
100
AcDbLine
 10
-27.50894
 20
69.100014
 30
0.0
 11
-15.240114
 21
69.100014
 31
0.0
  0
LINE
  5
D7
100
AcDbEntity
  8
0
100
AcDbLine
 10
-27.50894
 20
65.900017
 30
0.0
 11
-9.575001
 21
65.900017
 31
0.0
  0
LINE
  5
D8
100
AcDbEntity
  8
0
100
AcDbLine
 10
-23.675001
 20
65.900017
 30
0.0
 11
-23.675001
 21
63.500015
 31
0.0
  0
LINE
  5
D9
100
AcDbEntity
  8
0
  6
CENTER
 62
     2
100
AcDbLine
 10
-56.375004
 20
71.039665
 30
0.0
 11
-56.375004
 21
64.013252
 31
0.0
  0
LINE
  5
DA
100
AcDbEntity
  8
0
  6
CENTER
 62
     2
100
AcDbLine
 10
-46.375004
 20
71.039665
 30
0.0
 11
-46.375004
 21
64.145821
 31
0.0
  0
LINE
  5
DB
100
AcDbEntity
  8
0
 62
     2
100
AcDbLine
 10
-12.575001
 20
70.750015
 30
0.0
 11
-12.575001
 21
70.400017
 31
0.0
  0
LINE
  5
DC
100
AcDbEntity
  8
0
 62
     2
100
AcDbLine
 10
-16.575001
 20
70.750015
 30
0.0
 11
-16.575001
 21
70.400017
 31
0.0
  0
LINE
  5
DD
100
AcDbEntity
  8
0
100
AcDbLine
 10
-9.575001
 20
70.400017
 30
0.0
 11
-9.575001
 21
65.900017
 31
0.0
  0
LINE
  5
DE
100
AcDbEntity
  8
0
100
AcDbLine
 10
-17.575001
 20
70.400017
 30
0.0
 11
-9.575001
 21
70.400017
 31
0.0
  0
LINE
  5
DF
100
AcDbEntity
  8
0
100
AcDbLine
 10
-17.575001
 20
70.400017
 30
0.0
 11
-17.575001
 21
69.100014
 31
0.0
  0
LINE
  5
E0
100
AcDbEntity
  8
0
100
AcDbLine
 10
-16.575001
 20
65.900017
 30
0.0
 11
-16.575001
 21
64.250015
 31
0.0
  0
LINE
  5
E1
100
AcDbEntity
  8
0
100
AcDbLine
 10
-12.575001
 20
65.900017
 30
0.0
 11
-12.575001
 21
64.250015
 31
0.0
  0
LINE
  5
E2
100
AcDbEntity
  8
0
100
AcDbLine
 10
-35.575001
 20
71.500015
 30
0.0
 11
-23.675001
 21
71.500015
 31
0.0
  0
LINE
  5
E3
100
AcDbEntity
  8
0
100
AcDbLine
 10
-35.575001
 20
63.500015
 30
0.0
 11
-23.675001
 21
63.500015
 31
0.0
  0
LINE
  5
E4
100
AcDbEntity
  8
0
100
AcDbLine
 10
-33.675003
 20
72.20002
 30
0.0
 11
-32.675003
 21
72.20002
 31
0.0
  0
LINE
  5
E5
100
AcDbEntity
  8
0
100
AcDbLine
 10
-33.675003
 20
63.100014
 30
0.0
 11
-32.675003
 21
63.100014
 31
0.0
  0
LINE
  5
E6
100
AcDbEntity
  8
0
100
AcDbLine
 10
-31.175011
 20
61.60004
 30
0.0
 11
-29.675009
 21
63.100044
 31
0.0
  0
LINE
  5
E7
100
AcDbEntity
  8
0
100
AcDbLine
 10
-32.675026
 20
72.200043
 30
0.0
 11
-31.175028
 21
73.700043
 31
0.0
  0
LINE
  5
E8
100
AcDbEntity
  8
0
100
AcDbLine
 10
-29.675005
 20
72.200005
 30
0.0
 11
-31.175001
 21
73.700005
 31
0.0
  0
LINE
  5
E9
100
AcDbEntity
  8
0
100
AcDbLine
 10
-31.175016
 20
61.600014
 30
0.0
 11
-32.675014
 21
63.10001
 31
0.0
  0
LINE
  5
EA
100
AcDbEntity
  8
0
100
AcDbLine
 10
-29.674999
 20
63.100014
 30
0.0
 11
-28.575001
 21
63.100014
 31
0.0
  0
LINE
  5
EB
100
AcDbEntity
  8
0
100
AcDbLine
 10
-29.675003
 20
72.20002
 30
0.0
 11
-28.575001
 21
72.20002
 31
0.0
  0
LINE
  5
EC
100
AcDbEntity
  8
0
  6
CENTER
 62
     2
100
AcDbLine
 10
8.51395
 20
74.000008
 30
0.0
 11
21.373619
 21
74.000008
 31
0.0
  0
LINE
  5
ED
100
AcDbEntity
  8
0
  6
CENTER
 62
     2
100
AcDbLine
 10
-2.875
 20
61.000008
 30
0.0
 11
9.574539
 21
61.000008
 31
0.0
  0
LINE
  5
EE
100
AcDbEntity
  8
0
  6
CENTER
 62
     2
100
AcDbLine
 10
15.125
 20
79.922119
 30
0.0
 11
15.125
 21
69.973381
 31
0.0
  0
LINE
  5
EF
100
AcDbEntity
  8
0
  6
CENTER
 62
     2
100
AcDbLine
 10
3.125
 20
66.333351
 30
0.0
 11
3.125
 21
54.998222
 31
0.0
  0
LINE
  5
F0
100
AcDbEntity
  8
0
  6
CENTER
 62
     2
100
AcDbLine
 10
-2.875
 20
82.767197
 30
0.0
 11
-2.875
 21
52.062675
 31
0.0
  0
LINE
  5
F1
100
AcDbEntity
  8
0
100
AcDbLine
 10
-33.675003
 20
63.100014
 30
0.0
 11
-33.675003
 21
54.500015
 31
0.0
  0
LINE
  5
F2
100
AcDbEntity
  8
0
100
AcDbLine
 10
-7.375
 20
65.099998
 30
0.0
 11
23.125
 21
65.099998
 31
0.0
  0
LINE
  5
F3
100
AcDbEntity
  8
0
100
AcDbLine
 10
-7.375
 20
65.900002
 30
0.0
 11
23.125
 21
65.900002
 31
0.0
  0
LINE
  5
F4
100
AcDbEntity
  8
0
100
AcDbLine
 10
-7.375
 20
69.099998
 30
0.0
 11
23.125
 21
69.099998
 31
0.0
  0
LINE
  5
F5
100
AcDbEntity
  8
0
100
AcDbLine
 10
-7.375
 20
69.899994
 30
0.0
 11
23.125
 21
69.899994
 31
0.0
  0
LINE
  5
F6
100
AcDbEntity
  8
0
100
AcDbLine
 10
-7.375
 20
70.75
 30
0.0
 11
-7.375
 21
64.250008
 31
0.0
  0
LINE
  5
F7
100
AcDbEntity
  8
0
  6
CENTER
 62
     2
100
AcDbLine
 10
15.125
 20
69.535187
 30
0.0
 11
15.125
 21
68.666679
 31
0.0
  0
LINE
  5
F8
100
AcDbEntity
  8
0
100
AcDbLine
 10
-30.177347
 20
67.749939
 30
0.0
 11
-29.425009
 21
67.749939
 31
0.0
  0
LINE
  5
F9
100
AcDbEntity
  8
0
100
AcDbLine
 10
-30.925072
 20
69.25
 30
0.0
 11
-30.925072
 21
68.497665
 31
0.0
  0
LINE
  5
FA
100
AcDbEntity
  8
0
100
AcDbLine
 10
-31.424931
 20
69.25
 30
0.0
 11
-30.92507
 21
69.25
 31
0.0
  0
LINE
  5
FB
100
AcDbEntity
  8
0
100
AcDbLine
 10
-31.424932
 20
69.25
 30
0.0
 11
-31.424932
 21
68.497665
 31
0.0
  0
LINE
  5
FC
100
AcDbEntity
  8
0
100
AcDbLine
 10
-31.424969
 20
65.750015
 30
0.0
 11
-31.424969
 21
66.502357
 31
0.0
  0
LINE
  5
FD
100
AcDbEntity
  8
0
100
AcDbLine
 10
-30.9251
 20
65.750008
 30
0.0
 11
-30.9251
 21
66.50235
 31
0.0
  0
LINE
  5
FE
100
AcDbEntity
  8
0
100
AcDbLine
 10
-32.172653
 20
67.749939
 30
0.0
 11
-32.924995
 21
67.749939
 31
0.0
  0
LINE
  5
FF
100
AcDbEntity
  8
0
100
AcDbLine
 10
-32.172653
 20
67.250069
 30
0.0
 11
-32.924995
 21
67.250069
 31
0.0
  0
LINE
  5
100
100
AcDbEntity
  8
0
100
AcDbLine
 10
-30.177347
 20
67.250076
 30
0.0
 11
-29.425009
 21
67.250076
 31
0.0
  0
LINE
  5
101
100
AcDbEntity
  8
0
100
AcDbLine
 10
-31.424932
 20
65.750015
 30
0.0
 11
-30.925072
 21
65.750015
 31
0.0
  0
LINE
  5
102
100
AcDbEntity
  8
0
100
AcDbLine
 10
-32.924995
 20
67.749939
 30
0.0
 11
-32.924995
 21
67.250076
 31
0.0
  0
LINE
  5
103
100
AcDbEntity
  8
0
100
AcDbLine
 10
-29.425011
 20
67.749939
 30
0.0
 11
-29.425011
 21
67.250076
 31
0.0
  0
LINE
  5
104
100
AcDbEntity
  8
0
 62
     4
100
AcDbLine
 10
-6.375
 20
69.099998
 30
0.0
 11
-6.375
 21
65.900002
 31
0.0
  0
LINE
  5
105
100
AcDbEntity
  8
0
 62
     4
100
AcDbLine
 10
15.625
 20
69.099998
 30
0.0
 11
15.625
 21
65.900002
 31
0.0
  0
LINE
  5
106
100
AcDbEntity
  8
0
 62
     4
100
AcDbLine
 10
-5.40923
 20
66.797974
 30
0.0
 11
-3.672959
 21
68.534248
 31
0.0
  0
LINE
  5
107
100
AcDbEntity
  8
0
 62
     4
100
AcDbLine
 10
-5.051301
 20
66.448769
 30
0.0
 11
-3.32375
 21
68.176315
 31
0.0
  0
LINE
  5
108
100
AcDbEntity
  8
0
 62
     4
100
AcDbLine
 10
15.625
 20
68.800011
 30
0.0
 11
32.374447
 21
68.800011
 31
0.0
  0
LINE
  5
109
100
AcDbEntity
  8
0
 62
     4
100
AcDbLine
 10
15.625
 20
66.200005
 30
0.0
 11
33.875561
 21
66.200005
 31
0.0
  0
LINE
  5
10A
100
AcDbEntity
  8
0
 62
     1
100
AcDbLine
 10
31.874996
 20
69.665108
 30
0.0
 11
34.374996
 21
65.334984
 31
0.0
  0
LINE
  5
10B
100
AcDbEntity
  8
0
100
AcDbLine
 10
23.125
 20
66.200005
 30
0.0
 11
23.125
 21
54.500015
 31
0.0
  0
LINE
  5
10C
100
AcDbEntity
  8
0
  6
CENTER
 62
     2
100
AcDbLine
 10
-63.239716
 20
-89.833321
 30
0.0
 11
35.925018
 21
-89.833321
 31
0.0
  0
LINE
  5
10D
100
AcDbEntity
  8
0
100
AcDbLine
 10
-33.674988
 20
-102.833321
 30
0.0
 11
23.125015
 21
-102.833321
 31
0.0
  0
LINE
  5
10E
100
AcDbEntity
  8
0
100
AcDbLine
 10
-33.674988
 20
-76.833321
 30
0.0
 11
23.125015
 21
-76.833321
 31
0.0
  0
LINE
  5
10F
100
AcDbEntity
  8
0
100
AcDbLine
 10
-60.374989
 20
-85.833321
 30
0.0
 11
-60.374989
 21
-93.833321
 31
0.0
  0
LINE
  5
110
100
AcDbEntity
  8
0
100
AcDbLine
 10
-37.374985
 20
-77.083321
 30
0.0
 11
-37.374985
 21
-102.583321
 31
0.0
  0
LINE
  5
111
100
AcDbEntity
  8
0
100
AcDbLine
 10
-28.574986
 20
-82.133324
 30
0.0
 11
-28.574986
 21
-85.333321
 31
0.0
  0
LINE
  5
112
100
AcDbEntity
  8
0
100
AcDbLine
 10
23.125015
 20
-76.833321
 30
0.0
 11
23.125015
 21
-88.23333
 31
0.0
  0
LINE
  5
113
100
AcDbEntity
  8
0
100
AcDbLine
 10
-8.374985
 20
-86.583321
 30
0.0
 11
-8.374985
 21
-93.083321
 31
0.0
  0
LINE
  5
114
100
AcDbEntity
  8
0
100
AcDbLine
 10
-22.874985
 20
-85.333321
 30
0.0
 11
-22.874985
 21
-86.583321
 31
0.0
  0
LINE
  5
115
100
AcDbEntity
  8
0
100
AcDbLine
 10
-22.874985
 20
-93.083321
 30
0.0
 11
-7.374985
 21
-93.083321
 31
0.0
  0
LINE
  5
116
100
AcDbEntity
  8
0
100
AcDbLine
 10
-22.874985
 20
-86.583321
 30
0.0
 11
-7.374985
 21
-86.583321
 31
0.0
  0
LINE
  5
117
100
AcDbEntity
  8
0
100
AcDbLine
 10
-28.574986
 20
-85.333321
 30
0.0
 11
-22.874985
 21
-85.333321
 31
0.0
  0
LINE
  5
118
100
AcDbEntity
  8
0
100
AcDbLine
 10
-28.574986
 20
-94.333321
 30
0.0
 11
-22.874985
 21
-94.333321
 31
0.0
  0
LINE
  5
119
100
AcDbEntity
  8
0
100
AcDbLine
 10
-22.874985
 20
-93.083321
 30
0.0
 11
-22.874985
 21
-94.333321
 31
0.0
  0
LINE
  5
11A
100
AcDbEntity
  8
0
100
AcDbLine
 10
-37.374985
 20
-102.583321
 30
0.0
 11
-33.674988
 21
-102.583321
 31
0.0
  0
LINE
  5
11B
100
AcDbEntity
  8
0
100
AcDbLine
 10
-37.374985
 20
-77.083321
 30
0.0
 11
-33.674988
 21
-77.083321
 31
0.0
  0
LINE
  5
11C
100
AcDbEntity
  8
0
100
AcDbLine
 10
-35.574986
 20
-85.333321
 30
0.0
 11
-35.574986
 21
-94.333321
 31
0.0
  0
LINE
  5
11D
100
AcDbEntity
  8
0
100
AcDbLine
 10
-35.574986
 20
-94.333321
 30
0.0
 11
-33.674988
 21
-94.333321
 31
0.0
  0
LINE
  5
11E
100
AcDbEntity
  8
0
100
AcDbLine
 10
-35.574986
 20
-85.333321
 30
0.0
 11
-33.674988
 21
-85.333321
 31
0.0
  0
LINE
  5
11F
100
AcDbEntity
  8
0
100
AcDbLine
 10
-33.674988
 20
-76.833321
 30
0.0
 11
-33.674988
 21
-85.333321
 31
0.0
  0
LINE
  5
120
100
AcDbEntity
  8
0
100
AcDbLine
 10
-33.674988
 20
-82.133324
 30
0.0
 11
-28.574986
 21
-82.133324
 31
0.0
  0
LINE
  5
121
100
AcDbEntity
  8
0
100
AcDbLine
 10
-33.674988
 20
-97.233322
 30
0.0
 11
-28.574986
 21
-97.233322
 31
0.0
  0
LINE
  5
122
100
AcDbEntity
  8
0
100
AcDbLine
 10
-60.374989
 20
-85.833321
 30
0.0
 11
-37.374985
 21
-85.833321
 31
0.0
  0
LINE
  5
123
100
AcDbEntity
  8
0
100
AcDbLine
 10
-60.374989
 20
-93.833321
 30
0.0
 11
-37.374985
 21
-93.833321
 31
0.0
  0
LINE
  5
124
100
AcDbEntity
  8
0
100
AcDbLine
 10
-23.674986
 20
-85.833321
 30
0.0
 11
-23.674986
 21
-88.23333
 31
0.0
  0
LINE
  5
125
100
AcDbEntity
  8
0
 62
     2
100
AcDbLine
 10
-35.174988
 20
-85.833321
 30
0.0
 11
-35.174988
 21
-93.833321
 31
0.0
  0
LINE
  5
126
100
AcDbEntity
  8
0
100
AcDbLine
 10
-28.574986
 20
-94.23333
 30
0.0
 11
-28.574986
 21
-97.233322
 31
0.0
  0
LINE
  5
127
100
AcDbEntity
  8
0
100
AcDbLine
 10
-27.508924
 20
-88.23333
 30
0.0
 11
-15.240099
 21
-88.23333
 31
0.0
  0
LINE
  5
128
100
AcDbEntity
  8
0
100
AcDbLine
 10
-27.508924
 20
-91.433327
 30
0.0
 11
-9.574986
 21
-91.433327
 31
0.0
  0
LINE
  5
129
100
AcDbEntity
  8
0
100
AcDbLine
 10
-23.674986
 20
-91.433327
 30
0.0
 11
-23.674986
 21
-93.833321
 31
0.0
  0
LINE
  5
12A
100
AcDbEntity
  8
0
  6
CENTER
 62
     2
100
AcDbLine
 10
-56.374989
 20
-86.287544
 30
0.0
 11
-56.374989
 21
-93.270042
 31
0.0
  0
LINE
  5
12B
100
AcDbEntity
  8
0
  6
CENTER
 62
     2
100
AcDbLine
 10
-46.374989
 20
-86.287544
 30
0.0
 11
-46.374989
 21
-93.270042
 31
0.0
  0
LINE
  5
12C
100
AcDbEntity
  8
0
 62
     2
100
AcDbLine
 10
-12.574986
 20
-86.583321
 30
0.0
 11
-12.574986
 21
-86.933327
 31
0.0
  0
LINE
  5
12D
100
AcDbEntity
  8
0
 62
     2
100
AcDbLine
 10
-16.574986
 20
-86.583321
 30
0.0
 11
-16.574986
 21
-86.933327
 31
0.0
  0
LINE
  5
12E
100
AcDbEntity
  8
0
100
AcDbLine
 10
-9.574986
 20
-86.933327
 30
0.0
 11
-9.574986
 21
-91.433327
 31
0.0
  0
LINE
  5
12F
100
AcDbEntity
  8
0
100
AcDbLine
 10
-17.574986
 20
-86.933327
 30
0.0
 11
-9.574986
 21
-86.933327
 31
0.0
  0
LINE
  5
130
100
AcDbEntity
  8
0
100
AcDbLine
 10
-17.574986
 20
-86.933327
 30
0.0
 11
-17.574986
 21
-88.23333
 31
0.0
  0
LINE
  5
131
100
AcDbEntity
  8
0
100
AcDbLine
 10
-16.574986
 20
-91.433327
 30
0.0
 11
-16.574986
 21
-93.083321
 31
0.0
  0
LINE
  5
132
100
AcDbEntity
  8
0
100
AcDbLine
 10
-12.574986
 20
-91.433327
 30
0.0
 11
-12.574986
 21
-93.083321
 31
0.0
  0
LINE
  5
133
100
AcDbEntity
  8
0
100
AcDbLine
 10
-35.574986
 20
-85.833321
 30
0.0
 11
-23.674986
 21
-85.833321
 31
0.0
  0
LINE
  5
134
100
AcDbEntity
  8
0
100
AcDbLine
 10
-35.574986
 20
-93.833321
 30
0.0
 11
-23.674986
 21
-93.833321
 31
0.0
  0
LINE
  5
135
100
AcDbEntity
  8
0
100
AcDbLine
 10
-33.674988
 20
-85.133324
 30
0.0
 11
-32.674988
 21
-85.133324
 31
0.0
  0
LINE
  5
136
100
AcDbEntity
  8
0
100
AcDbLine
 10
-33.674988
 20
-94.23333
 30
0.0
 11
-32.674988
 21
-94.23333
 31
0.0
  0
LINE
  5
137
100
AcDbEntity
  8
0
100
AcDbLine
 10
-31.174971
 20
-95.73336
 30
0.0
 11
-29.674973
 21
-94.23336
 31
0.0
  0
LINE
  5
138
100
AcDbEntity
  8
0
100
AcDbLine
 10
-32.67495
 20
-85.133324
 30
0.0
 11
-31.174961
 21
-83.633331
 31
0.0
  0
LINE
  5
139
100
AcDbEntity
  8
0
100
AcDbLine
 10
-29.674955
 20
-85.133293
 30
0.0
 11
-31.174959
 21
-83.633293
 31
0.0
  0
LINE
  5
13A
100
AcDbEntity
  8
0
100
AcDbLine
 10
-31.174952
 20
-95.733292
 30
0.0
 11
-32.674953
 21
-94.233284
 31
0.0
  0
LINE
  5
13B
100
AcDbEntity
  8
0
100
AcDbLine
 10
-29.674984
 20
-94.23333
 30
0.0
 11
-28.574986
 21
-94.23333
 31
0.0
  0
LINE
  5
13C
100
AcDbEntity
  8
0
100
AcDbLine
 10
-29.674988
 20
-85.133324
 30
0.0
 11
-28.574986
 21
-85.133324
 31
0.0
  0
LINE
  5
13D
100
AcDbEntity
  8
0
  6
CENTER
 62
     2
100
AcDbLine
 10
0.351089
 20
-81.833321
 30
0.0
 11
8.068588
 21
-81.833321
 31
0.0
  0
LINE
  5
13E
100
AcDbEntity
  8
0
  6
CENTER
 62
     2
100
AcDbLine
 10
0.351089
 20
-97.833321
 30
0.0
 11
7.823589
 21
-97.833321
 31
0.0
  0
LINE
  5
13F
100
AcDbEntity
  8
0
  6
CENTER
 62
     2
100
AcDbLine
 10
4.125015
 20
-78.08004
 30
0.0
 11
4.125015
 21
-85.675041
 31
0.0
  0
LINE
  5
140
100
AcDbEntity
  8
0
  6
CENTER
 62
     2
100
AcDbLine
 10
4.125015
 20
-94.127541
 30
0.0
 11
4.125015
 21
-101.845039
 31
0.0
  0
LINE
  5
141
100
AcDbEntity
  8
0
  6
CENTER
 62
     2
100
AcDbLine
 10
-2.874985
 20
-74.44323
 30
0.0
 11
-2.874985
 21
-104.382256
 31
0.0
  0
LINE
  5
142
100
AcDbEntity
  8
0
100
AcDbLine
 10
-33.674988
 20
-94.23333
 30
0.0
 11
-33.674988
 21
-102.833321
 31
0.0
  0
LINE
  5
143
100
AcDbEntity
  8
0
100
AcDbLine
 10
-7.374985
 20
-92.23333
 30
0.0
 11
23.125015
 21
-92.23333
 31
0.0
  0
LINE
  5
144
100
AcDbEntity
  8
0
100
AcDbLine
 10
-7.374985
 20
-91.433327
 30
0.0
 11
23.125015
 21
-91.433327
 31
0.0
  0
LINE
  5
145
100
AcDbEntity
  8
0
100
AcDbLine
 10
-7.374985
 20
-88.23333
 30
0.0
 11
23.125015
 21
-88.23333
 31
0.0
  0
LINE
  5
146
100
AcDbEntity
  8
0
100
AcDbLine
 10
-7.374985
 20
-87.433342
 30
0.0
 11
23.125015
 21
-87.433342
 31
0.0
  0
LINE
  5
147
100
AcDbEntity
  8
0
100
AcDbLine
 10
-7.374985
 20
-86.583336
 30
0.0
 11
-7.374985
 21
-93.083321
 31
0.0
  0
LINE
  5
148
100
AcDbEntity
  8
0
100
AcDbLine
 10
-30.177332
 20
-89.583397
 30
0.0
 11
-29.424995
 21
-89.583397
 31
0.0
  0
LINE
  5
149
100
AcDbEntity
  8
0
100
AcDbLine
 10
-30.925056
 20
-88.083336
 30
0.0
 11
-30.925056
 21
-88.83567
 31
0.0
  0
LINE
  5
14A
100
AcDbEntity
  8
0
100
AcDbLine
 10
-31.424915
 20
-88.083336
 30
0.0
 11
-30.925055
 21
-88.083336
 31
0.0
  0
LINE
  5
14B
100
AcDbEntity
  8
0
100
AcDbLine
 10
-31.424917
 20
-88.083336
 30
0.0
 11
-31.424917
 21
-88.83567
 31
0.0
  0
LINE
  5
14C
100
AcDbEntity
  8
0
100
AcDbLine
 10
-31.424891
 20
-91.583321
 30
0.0
 11
-31.424891
 21
-90.830978
 31
0.0
  0
LINE
  5
14D
100
AcDbEntity
  8
0
100
AcDbLine
 10
-30.925034
 20
-91.583313
 30
0.0
 11
-30.925034
 21
-90.830978
 31
0.0
  0
LINE
  5
14E
100
AcDbEntity
  8
0
100
AcDbLine
 10
-32.172642
 20
-89.583389
 30
0.0
 11
-32.92498
 21
-89.583389
 31
0.0
  0
LINE
  5
14F
100
AcDbEntity
  8
0
100
AcDbLine
 10
-32.172642
 20
-90.08326
 30
0.0
 11
-32.92498
 21
-90.08326
 31
0.0
  0
LINE
  5
150
100
AcDbEntity
  8
0
100
AcDbLine
 10
-30.177332
 20
-90.08326
 30
0.0
 11
-29.424995
 21
-90.08326
 31
0.0
  0
LINE
  5
151
100
AcDbEntity
  8
0
100
AcDbLine
 10
-31.424917
 20
-91.583321
 30
0.0
 11
-30.925056
 21
-91.583321
 31
0.0
  0
LINE
  5
152
100
AcDbEntity
  8
0
100
AcDbLine
 10
-32.92498
 20
-89.583397
 30
0.0
 11
-32.92498
 21
-90.08326
 31
0.0
  0
LINE
  5
153
100
AcDbEntity
  8
0
100
AcDbLine
 10
-29.424995
 20
-89.583397
 30
0.0
 11
-29.424995
 21
-90.08326
 31
0.0
  0
LINE
  5
154
100
AcDbEntity
  8
0
 62
     4
100
AcDbLine
 10
23.125015
 20
-88.23333
 30
0.0
 11
25.125015
 21
-88.23333
 31
0.0
  0
LINE
  5
155
100
AcDbEntity
  8
0
 62
     4
100
AcDbLine
 10
23.125015
 20
-91.883324
 30
0.0
 11
25.125015
 21
-91.883324
 31
0.0
  0
LINE
  5
156
100
AcDbEntity
  8
0
 62
     4
100
AcDbLine
 10
23.125015
 20
-87.783318
 30
0.0
 11
25.125015
 21
-87.783318
 31
0.0
  0
LINE
  5
157
100
AcDbEntity
  8
0
 62
     4
100
AcDbLine
 10
3.125015
 20
-88.23333
 30
0.0
 11
3.125015
 21
-91.433327
 31
0.0
  0
LINE
  5
158
100
AcDbEntity
  8
0
 62
     4
100
AcDbLine
 10
25.125015
 20
-87.783318
 30
0.0
 11
25.125015
 21
-91.883324
 31
0.0
  0
LINE
  5
159
100
AcDbEntity
  8
0
 62
     4
100
AcDbLine
 10
4.090795
 20
-90.535339
 30
0.0
 11
5.827066
 21
-88.799072
 31
0.0
  0
LINE
  5
15A
100
AcDbEntity
  8
0
 62
     4
100
AcDbLine
 10
4.448737
 20
-90.884575
 30
0.0
 11
6.176287
 21
-89.157028
 31
0.0
  0
LINE
  5
15B
100
AcDbEntity
  8
0
 62
     4
100
AcDbLine
 10
25.125015
 20
-88.533318
 30
0.0
 11
32.374458
 21
-88.533318
 31
0.0
  0
LINE
  5
15C
100
AcDbEntity
  8
0
 62
     4
100
AcDbLine
 10
25.125015
 20
-91.133324
 30
0.0
 11
33.875572
 21
-91.133324
 31
0.0
  0
LINE
  5
15D
100
AcDbEntity
  8
0
 62
     1
100
AcDbLine
 10
31.874998
 20
-87.668221
 30
0.0
 11
34.374996
 21
-91.998352
 31
0.0
  0
LINE
  5
15E
100
AcDbEntity
  8
0
 62
     4
100
AcDbLine
 10
23.125015
 20
-91.433311
 30
0.0
 11
25.125015
 21
-91.433311
 31
0.0
  0
LINE
  5
15F
100
AcDbEntity
  8
0
100
AcDbLine
 10
23.125015
 20
-91.433327
 30
0.0
 11
23.125015
 21
-102.833321
 31
0.0
  0
LINE
  5
160
100
AcDbEntity
  8
0
100
AcDbLine
 10
-194.25
 20
132.600006
 30
0.0
 11
194.800003
 21
132.600006
 31
0.0
  0
LINE
  5
161
100
AcDbEntity
  8
0
100
AcDbLine
 10
194.800003
 20
132.600006
 30
0.0
 11
194.800003
 21
-133.5
 31
0.0
  0
LINE
  5
162
100
AcDbEntity
  8
0
100
AcDbLine
 10
-194.25
 20
132.600006
 30
0.0
 11
-194.25
 21
-133.5
 31
0.0
  0
LINE
  5
163
100
AcDbEntity
  8
0
100
AcDbLine
 10
-194.25
 20
-133.5
 30
0.0
 11
194.800003
 21
-133.5
 31
0.0
  0
LINE
  5
164
100
AcDbEntity
  8
0
100
AcDbLine
 10
109.800003
 20
-118.5
 30
0.0
 11
109.800003
 21
-133.5
 31
0.0
  0
LINE
  5
165
100
AcDbEntity
  8
0
100
AcDbLine
 10
109.800003
 20
-118.5
 30
0.0
 11
194.800003
 21
-118.5
 31
0.0
  0
LINE
  5
166
100
AcDbEntity
  8
0
100
AcDbLine
 10
109.800003
 20
132.600006
 30
0.0
 11
109.800003
 21
117.600006
 31
0.0
  0
LINE
  5
167
100
AcDbEntity
  8
0
100
AcDbLine
 10
109.800003
 20
117.600006
 30
0.0
 11
194.800003
 21
117.600006
 31
0.0
  0
LINE
  5
168
100
AcDbEntity
  8
0
100
AcDbLine
 10
-194.25
 20
117.600006
 30
0.0
 11
-109.25
 21
117.600006
 31
0.0
  0
LINE
  5
169
100
AcDbEntity
  8
0
100
AcDbLine
 10
-109.25
 20
132.600006
 30
0.0
 11
-109.25
 21
117.600006
 31
0.0
  0
CIRCLE
  5
16A
100
AcDbEntity
  8
0
100
AcDbCircle
 10
-2.875004
 20
5.890344
 30
0.0
 40
2.1
  0
CIRCLE
  5
16B
100
AcDbEntity
  8
0
100
AcDbCircle
 10
-2.875004
 20
-24.109657
 30
0.0
 40
2.1
  0
CIRCLE
  5
16C
100
AcDbEntity
  8
0
 62
     2
100
AcDbCircle
 10
-2.875004
 20
5.890344
 30
0.0
 40
2.5
  0
CIRCLE
  5
16D
100
AcDbEntity
  8
0
 62
     2
100
AcDbCircle
 10
-2.875004
 20
-24.109657
 30
0.0
 40
2.5
  0
CIRCLE
  5
16E
100
AcDbEntity
  8
0
100
AcDbCircle
 10
-14.575005
 20
1.890344
 30
0.0
 40
2.0
  0
CIRCLE
  5
16F
100
AcDbEntity
  8
0
100
AcDbCircle
 10
-14.575005
 20
-20.109657
 30
0.0
 40
2.0
  0
ARC
  5
170
100
AcDbEntity
  8
0
100
AcDbCircle
 10
-130.875
 20
-5.209647
 30
0.0
 40
1.5
100
AcDbArc
 50
179.999985
 51
270.0
  0
ARC
  5
171
100
AcDbEntity
  8
0
100
AcDbCircle
 10
-124.875
 20
8.990357
 30
0.0
 40
1.5
100
AcDbArc
 50
359.999969
 51
90.0
  0
ARC
  5
172
100
AcDbEntity
  8
0
100
AcDbCircle
 10
-124.875
 20
-5.209647
 30
0.0
 40
1.5
100
AcDbArc
 50
270.0
 51
359.999939
  0
ARC
  5
173
100
AcDbEntity
  8
0
100
AcDbCircle
 10
-130.875
 20
-13.009643
 30
0.0
 40
1.5
100
AcDbArc
 50
90.0
 51
179.999969
  0
ARC
  5
174
100
AcDbEntity
  8
0
100
AcDbCircle
 10
-124.875
 20
-13.009643
 30
0.0
 40
1.5
100
AcDbArc
 50
0.0
 51
90.0
  0
ARC
  5
175
100
AcDbEntity
  8
0
100
AcDbCircle
 10
-124.875
 20
-27.209644
 30
0.0
 40
1.5
100
AcDbArc
 50
270.0
 51
0.0
  0
ARC
  5
176
100
AcDbEntity
  8
0
100
AcDbCircle
 10
-130.875
 20
-27.209644
 30
0.0
 40
1.5
100
AcDbArc
 50
180.0
 51
270.0
  0
ARC
  5
177
100
AcDbEntity
  8
0
100
AcDbCircle
 10
-130.875
 20
8.990357
 30
0.0
 40
1.5
100
AcDbArc
 50
90.0
 51
179.999969
  0
CIRCLE
  5
178
100
AcDbEntity
  8
0
 62
     4
100
AcDbCircle
 10
105.875008
 20
-24.059669
 30
0.0
 40
1.3
  0
CIRCLE
  5
179
100
AcDbEntity
  8
0
 62
     2
100
AcDbCircle
 10
97.875008
 20
8.390328
 30
0.0
 40
2.5
  0
CIRCLE
  5
17A
100
AcDbEntity
  8
0
 62
     4
100
AcDbCircle
 10
105.875008
 20
5.840328
 30
0.0
 40
1.3
  0
ARC
  5
17B
100
AcDbEntity
  8
0
100
AcDbCircle
 10
108.675011
 20
13.090329
 30
0.0
 40
0.3
100
AcDbArc
 50
90.0
 51
180.0
  0
ARC
  5
17C
100
AcDbEntity
  8
0
100
AcDbCircle
 10
105.875008
 20
5.490328
 30
0.0
 40
2.099998
100
AcDbArc
 50
179.999969
 51
0.000013
  0
ARC
  5
17D
100
AcDbEntity
  8
0
100
AcDbCircle
 10
103.075005
 20
13.090329
 30
0.0
 40
0.300003
100
AcDbArc
 50
0.0
 51
90.0
  0
ARC
  5
17E
100
AcDbEntity
  8
0
100
AcDbCircle
 10
108.675011
 20
-31.309673
 30
0.0
 40
0.300003
100
AcDbArc
 50
180.0
 51
270.0
  0
CIRCLE
  5
17F
100
AcDbEntity
  8
0
100
AcDbCircle
 10
105.875008
 20
-9.109671
 30
0.0
 40
10.5
  0
CIRCLE
  5
180
100
AcDbEntity
  8
0
 62
     2
100
AcDbCircle
 10
113.875008
 20
-26.609673
 30
0.0
 40
2.5
  0
ARC
  5
181
100
AcDbEntity
  8
0
100
AcDbCircle
 10
103.075005
 20
-31.309673
 30
0.0
 40
0.299999
100
AcDbArc
 50
270.0
 51
0.0
  0
ARC
  5
182
100
AcDbEntity
  8
0
100
AcDbCircle
 10
105.875008
 20
-23.709673
 30
0.0
 40
2.099998
100
AcDbArc
 50
0.0
 51
180.0
  0
CIRCLE
  5
183
100
AcDbEntity
  8
0
100
AcDbCircle
 10
97.875008
 20
8.390328
 30
0.0
 40
2.1
  0
CIRCLE
  5
184
100
AcDbEntity
  8
0
100
AcDbCircle
 10
113.875008
 20
-26.609673
 30
0.0
 40
2.1
  0
CIRCLE
  5
185
100
AcDbEntity
  8
0
 62
     4
100
AcDbCircle
 10
-4.374985
 20
67.500008
 30
0.0
 40
1.25
  0
CIRCLE
  5
186
100
AcDbEntity
  8
0
 62
     4
100
AcDbCircle
 10
-4.374985
 20
67.500008
 30
0.0
 40
1.4
  0
CIRCLE
  5
187
100
AcDbEntity
  8
0
100
AcDbCircle
 10
15.125
 20
74.000008
 30
0.0
 40
2.1
  0
CIRCLE
  5
188
100
AcDbEntity
  8
0
100
AcDbCircle
 10
-31.175001
 20
67.500008
 30
0.0
 40
3.0
  0
ARC
  5
189
100
AcDbEntity
  8
0
100
AcDbCircle
 10
-32.172653
 20
66.502357
 30
0.0
 40
0.747725
100
AcDbArc
 50
0.0
 51
90.0
  0
ARC
  5
18A
100
AcDbEntity
  8
0
100
AcDbCircle
 10
-30.177347
 20
66.50235
 30
0.0
 40
0.747726
100
AcDbArc
 50
90.0
 51
180.0
  0
ARC
  5
18B
100
AcDbEntity
  8
0
100
AcDbCircle
 10
-32.172653
 20
68.497665
 30
0.0
 40
0.747726
100
AcDbArc
 50
270.0
 51
0.0
  0
CIRCLE
  5
18C
100
AcDbEntity
  8
0
100
AcDbCircle
 10
-31.175001
 20
67.500015
 30
0.0
 40
4.0
  0
CIRCLE
  5
18D
100
AcDbEntity
  8
0
 62
     2
100
AcDbCircle
 10
-56.375004
 20
67.500015
 30
0.0
 40
2.0
  0
CIRCLE
  5
18E
100
AcDbEntity
  8
0
 62
     2
100
AcDbCircle
 10
-46.375004
 20
67.500015
 30
0.0
 40
2.0
  0
CIRCLE
  5
18F
100
AcDbEntity
  8
0
 62
     2
100
AcDbCircle
 10
3.125
 20
61.000008
 30
0.0
 40
2.5
  0
CIRCLE
  5
190
100
AcDbEntity
  8
0
 62
     2
100
AcDbCircle
 10
15.125
 20
74.000008
 30
0.0
 40
2.5
  0
ARC
  5
191
100
AcDbEntity
  8
0
100
AcDbCircle
 10
3.125
 20
61.000008
 30
0.0
 40
4.25
100
AcDbArc
 50
0.0
 51
74.731804
  0
ARC
  5
192
100
AcDbEntity
  8
0
100
AcDbCircle
 10
15.125
 20
74.000008
 30
0.0
 40
4.25
100
AcDbArc
 50
0.0
 51
254.732971
  0
ARC
  5
193
100
AcDbEntity
  8
0
100
AcDbCircle
 10
15.125
 20
74.000008
 30
0.0
 40
4.25
100
AcDbArc
 50
285.267029
 51
0.0
  0
ARC
  5
194
100
AcDbEntity
  8
0
100
AcDbCircle
 10
3.125
 20
61.000008
 30
0.0
 40
4.25
100
AcDbArc
 50
105.268204
 51
0.0
  0
ARC
  5
195
100
AcDbEntity
  8
0
100
AcDbCircle
 10
-30.177347
 20
68.497665
 30
0.0
 40
0.747725
100
AcDbArc
 50
180.0
 51
270.0
  0
CIRCLE
  5
196
100
AcDbEntity
  8
0
100
AcDbCircle
 10
-56.375004
 20
67.500008
 30
0.0
 40
1.65
  0
CIRCLE
  5
197
100
AcDbEntity
  8
0
100
AcDbCircle
 10
-46.375004
 20
67.500008
 30
0.0
 40
1.65
  0
CIRCLE
  5
198
100
AcDbEntity
  8
0
100
AcDbCircle
 10
3.125
 20
61.000008
 30
0.0
 40
2.1
  0
CIRCLE
  5
199
100
AcDbEntity
  8
0
 62
     4
100
AcDbCircle
 10
5.125031
 20
-89.833321
 30
0.0
 40
1.25
  0
CIRCLE
  5
19A
100
AcDbEntity
  8
0
 62
     4
100
AcDbCircle
 10
5.125031
 20
-89.833321
 30
0.0
 40
1.4
  0
CIRCLE
  5
19B
100
AcDbEntity
  8
0
100
AcDbCircle
 10
4.125015
 20
-97.833321
 30
0.0
 40
2.1
  0
CIRCLE
  5
19C
100
AcDbEntity
  8
0
100
AcDbCircle
 10
-31.174986
 20
-89.833321
 30
0.0
 40
3.0
  0
ARC
  5
19D
100
AcDbEntity
  8
0
100
AcDbCircle
 10
-32.172638
 20
-90.830978
 30
0.0
 40
0.747725
100
AcDbArc
 50
0.0
 51
90.0
  0
ARC
  5
19E
100
AcDbEntity
  8
0
100
AcDbCircle
 10
-30.177332
 20
-90.830978
 30
0.0
 40
0.747726
100
AcDbArc
 50
90.0
 51
180.0
  0
CIRCLE
  5
19F
100
AcDbEntity
  8
0
100
AcDbCircle
 10
-31.174986
 20
-89.833321
 30
0.0
 40
4.0
  0
CIRCLE
  5
1A0
100
AcDbEntity
  8
0
 62
     2
100
AcDbCircle
 10
-56.374989
 20
-89.833321
 30
0.0
 40
2.0
  0
CIRCLE
  5
1A1
100
AcDbEntity
  8
0
 62
     2
100
AcDbCircle
 10
-46.374989
 20
-89.833321
 30
0.0
 40
2.0
  0
CIRCLE
  5
1A2
100
AcDbEntity
  8
0
 62
     2
100
AcDbCircle
 10
4.125015
 20
-81.833321
 30
0.0
 40
2.5
  0
CIRCLE
  5
1A3
100
AcDbEntity
  8
0
 62
     2
100
AcDbCircle
 10
4.125015
 20
-97.833321
 30
0.0
 40
2.5
  0
ARC
  5
1A4
100
AcDbEntity
  8
0
100
AcDbCircle
 10
-30.177332
 20
-88.83567
 30
0.0
 40
0.747725
100
AcDbArc
 50
180.0
 51
270.0
  0
ARC
  5
1A5
100
AcDbEntity
  8
0
100
AcDbCircle
 10
-32.172638
 20
-88.83567
 30
0.0
 40
0.747726
100
AcDbArc
 50
270.0
 51
0.0
  0
CIRCLE
  5
1A6
100
AcDbEntity
  8
0
100
AcDbCircle
 10
-56.374989
 20
-89.833321
 30
0.0
 40
1.65
  0
CIRCLE
  5
1A7
100
AcDbEntity
  8
0
100
AcDbCircle
 10
-46.374989
 20
-89.833321
 30
0.0
 40
1.65
  0
CIRCLE
  5
1A8
100
AcDbEntity
  8
0
100
AcDbCircle
 10
4.125015
 20
-81.833321
 30
0.0
 40
2.1
  0
TEXT
  5
1A9
100
AcDbEntity
  8
0
100
AcDbText
 10
133.90715
 20
122.050003
 30
0.0
 40
4.5
  1
Ver. 1.0
 41
1.052631
100
AcDbText
  0
TEXT
  5
1AA
100
AcDbEntity
  8
0
100
AcDbText
 10
113.700279
 20
-130.669998
 30
0.0
 40
6.3
  1
KOGANEI CORP.
 41
1.052632
100
AcDbText
  0
TEXT
  5
1AB
100
AcDbEntity
  8
0
100
AcDbText
 10
-170.142654
 20
122.050003
 30
0.0
 40
4.5
  1
AIR HAND
 41
1.052632
100
AcDbText
  0
TEXT
  5
1AC
100
AcDbEntity
  8
0
100
AcDbText
 10
-159.892654
 20
97.550003
 30
0.0
 40
4.5
  1
NHBRPA-20-ZE135A2
 41
1.052632
100
AcDbText
  0
TEXT
  5
1AD
100
AcDbEntity
  8
0
100
AcDbText
 10
-186.892654
 20
104.550003
 30
0.0
 40
4.5
  1
MODEL:NHBDPA-20-ZE135A2
 41
1.052632
100
AcDbText
  0
ENDSEC
  0
SECTION
  2
OBJECTS
  0
DICTIONARY
  5
1BA
100
AcDbDictionary
  3
ACAD_GROUP
350
1BB
  3
ACAD_MLINESTYLE
350
1BC
  0
DICTIONARY
  5
1BB
102
{ACAD_REACTORS
330
1BA
102
}
100
AcDbDictionary
  0
DICTIONARY
  5
1BC
102
{ACAD_REACTORS
330
1BA
102
}
100
AcDbDictionary
  3
STANDARD
350
1C9
  0
MLINESTYLE
  5
1C9
102
{ACAD_REACTORS
330
1BC
102
}
100
AcDbMlineStyle
  2
STANDARD
 70
     0
  3

 62
     0
 51
90.0
 52
90.0
 71
     2
 49
0.5
 62
   256
  6
BYLAYER
 49
-0.5
 62
   256
  6
BYLAYER
  0
ENDSEC
  0
EOF
