  0
SECTION
  2
HEADER
  0
ENDSEC
  0
SECTION
  2
TABLES
  0
TABLE
  2
LTYPE
 70
     4
  0
LTYPE
  2
CONTINUOUS
 70
    64
  3
Solid line
 72
    65
 73
     0
 40
0.000000
  0
LTYPE
  2
DASHED
 70
    64
  3
__ __ __ __ __ __ __ __ __ __ __ __ __ __ __
 72
    65
 73
     2
 40
3.500000
 49
2.000000
 49
-1.500000
  0
LTYPE
  2
CENTER
 70
    64
  3
____ _ ____ _ ____ _ ____ _ ____ _ ____ _ ____
 72
    65
 73
     4
 40
17.500000
 49
13.000000
 49
-1.500000
 49
1.500000
 49
-1.500000
  0
LTYPE
  2
PHANTOM
 70
    64
  3
_____ _ _ _____ _ _ _____ _ _ _____ _ _ ____  
 72
    65
 73
     6
 40
15.500000
 49
8.000000
 49
-1.500000
 49
1.500000
 49
-1.500000
 49
1.500000
 49
-1.500000
  0
LTYPE
  2
DASHED1
 70
    64
  3
__ __ __ __ __ __ __ __ __ __ __ __ __ __ __
 72
    65
 73
     2
 40
1.500000
 49
1.000000
 49
-0.500000
  0
LTYPE
  2
DASHED2
 70
    64
  3
__ __ __ __ __ __ __ __ __ __ __ __ __ __ __
 72
    65
 73
     2
 40
3.500000
 49
2.500000
 49
-1.000000
  0
LTYPE
  2
DASHED3
 70
    64
  3
__ __ __ __ __ __ __ __ __ __ __ __ __ __ __
 72
    65
 73
     2
 40
6.000000
 49
4.000000
 49
-2.000000
  0
LTYPE
  2
DASHED4
 70
    64
  3
__ __ __ __ __ __ __ __ __ __ __ __ __ __ __
 72
    65
 73
     2
 40
12.000000
 49
10.000000
 49
-2.000000
  0
LTYPE
  2
DASHED5
 70
    64
  3
__ __ __ __ __ __ __ __ __ __ __ __ __ __ __
 72
    65
 73
     2
 40
17.000000
 49
15.000000
 49
-2.000000
  0
LTYPE
  2
DASHED6
 70
    64
  3
__ __ __ __ __ __ __ __ __ __ __ __ __ __ __
 72
    65
 73
     2
 40
29.000000
 49
27.000000
 49
-2.000000
  0
LTYPE
  2
PHANTOM1
 70
    64
  3
_____ _ _ _____ _ _ _____ _ _ _____ _ _ ____  
 72
    65
 73
     6
 40
31.000000
 49
25.000000
 49
-1.500000
 49
1.000000
 49
-1.000000
 49
1.000000
 49
-1.500000
  0
LTYPE
  2
PHANTOM2
 70
    64
  3
_____ _ _ _____ _ _ _____ _ _ _____ _ _ ____  
 72
    65
 73
     6
 40
36.000000
 49
27.000000
 49
-1.500000
 49
2.500000
 49
-1.000000
 49
2.500000
 49
-1.500000
  0
LTYPE
  2
PHANTOM3
 70
    64
  3
_____ _ _ _____ _ _ _____ _ _ _____ _ _ ____  
 72
    65
 73
     6
 40
78.000000
 49
64.000000
 49
-2.000000
 49
4.000000
 49
-2.000000
 49
4.000000
 49
-2.000000
  0
LTYPE
  2
CENTER1
 70
    64
  3
____ _ ____ _ ____ _ ____ _ ____ _ ____ _ ____
 72
    65
 73
     4
 40
19.000000
 49
14.000000
 49
-1.000000
 49
3.000000
 49
-1.000000
  0
LTYPE
  2
CENTER2
 70
    64
  3
____ _ ____ _ ____ _ ____ _ ____ _ ____ _ ____
 72
    65
 73
     4
 40
28.500000
 49
25.000000
 49
-1.000000
 49
1.500000
 49
-1.000000
  0
LTYPE
  2
CENTER3
 70
    64
  3
____ _ ____ _ ____ _ ____ _ ____ _ ____ _ ____
 72
    65
 73
     4
 40
31.500000
 49
27.000000
 49
-1.000000
 49
2.500000
 49
-1.000000
  0
LTYPE
  2
CENTER4
 70
    64
  3
____ _ ____ _ ____ _ ____ _ ____ _ ____ _ ____
 72
    65
 73
     4
 40
50.000000
 49
45.000000
 49
-1.000000
 49
3.000000
 49
-1.000000
  0
LTYPE
  2
CENTER5
 70
    64
  3
____ _ ____ _ ____ _ ____ _ ____ _ ____ _ ____
 72
    65
 73
     4
 40
100.000000
 49
92.000000
 49
-2.000000
 49
4.000000
 49
-2.000000
  0
LTYPE
  2
SBK1
 70
    64
  3
______ _ _ _ ______ _ _ _ ______ _ _ _ _____  
 72
    65
 73
     8
 40
60.500000
 49
45.000000
 49
-2.000000
 49
2.500000
 49
-2.000000
 49
2.500000
 49
-2.000000
 49
2.500000
 49
-2.000000
  0
LTYPE
  2
SBK2
 70
    64
  3
______ _ _ _ ______ _ _ _ ______ _ _ _ _____  
 72
    65
 73
     8
 40
84.000000
 49
64.000000
 49
-2.000000
 49
4.000000
 49
-2.000000
 49
4.000000
 49
-2.000000
 49
4.000000
 49
-2.000000
  0
LTYPE
  2
STCH
 70
    64
  3
__ __ __ __ __ __ __ __ __ __ __ __ __ __ __
 72
    65
 73
     2
 40
3.000000
 49
1.000000
 49
-2.000000
  0
LTYPE
  2
MTCH
 70
    64
  3
_____ _ _ _____ _ _ _____ _ _ _____ _ _ ____  
 72
    65
 73
     6
 40
80.000000
 49
66.000000
 49
-2.000000
 49
4.000000
 49
-2.000000
 49
4.000000
 49
-2.000000
  0
ENDTAB
  0
TABLE
  2
LAYER
 70
     1
  0
LAYER
  2
0
 70
     0
 62
     7
  6
CONTINUOUS
  0
ENDTAB
  0
TABLE
  2
STYLE
 70
     1
  0
STYLE
  2
STANDARD
 70
     0
 40
0.000000
 41
1.000000
 50
0.000000
 71
     0
 42
0.200000
  3
txt
  4
BIGFONT
  0
ENDTAB
  0
TABLE
  2
VIEW
 70
     0
  0
ENDTAB
  0
ENDSEC
  0
SECTION
  2
BLOCKS
  0
ENDSEC
  0
SECTION
  2
ENTITIES
  0
LINE
  8
0
 10
-31.541656
 20
15.000004
 11
36.458344
 21
15.000004
  0
LINE
  8
0
 10
-31.541656
 20
-36.999996
 11
36.458344
 21
-36.999996
  0
LINE
  8
0
 10
36.458351
 20
15.000004
 11
36.458351
 21
-36.999992
  0
LINE
  8
0
 10
-31.541656
 20
15.000004
 11
-31.541656
 21
-36.999996
  0
LINE
  8
0
 10
-59.541649
 20
10.000002
 11
-59.541649
 21
0.000006
  0
LINE
  8
0
  6
CENTER
 62
     2
 10
-38.290043
 20
-10.999996
 11
44.316780
 21
-10.999996
  0
LINE
  8
0
  6
CENTER
 62
     2
 10
0.824226
 20
7.000004
 11
11.603699
 21
7.000004
  0
LINE
  8
0
  6
CENTER
 62
     2
 10
-8.291655
 20
2.000004
 11
-0.791655
 21
2.000004
  0
LINE
  8
0
  6
CENTER
 62
     2
 10
6.458347
 20
12.028166
 11
6.458347
 21
1.801491
  0
LINE
  8
0
  6
CENTER
 62
     2
 10
-4.541653
 20
5.750004
 11
-4.541653
 21
-1.749996
  0
LINE
  8
0
 10
-29.041656
 20
17.750000
 11
-29.041656
 21
15.000004
  0
LINE
  8
0
 10
-19.041655
 20
17.750000
 11
-19.041655
 21
16.750000
  0
LINE
  8
0
 10
-29.041656
 20
-36.999996
 11
-29.041656
 21
-39.749996
  0
LINE
  8
0
 10
-19.041655
 20
-38.749996
 11
-19.041655
 21
-39.749996
  0
LINE
  8
0
 10
-59.541649
 20
0.000006
 11
-31.541656
 21
0.000006
  0
LINE
  8
0
 10
-59.541649
 20
-21.999994
 11
-31.541656
 21
-21.999994
  0
LINE
  8
0
 10
-59.541649
 20
-21.999994
 11
-59.541649
 21
-31.999994
  0
LINE
  8
0
  6
CENTER
 62
     2
 10
-54.541649
 20
-19.266663
 11
-54.541649
 21
-34.144661
  0
LINE
  8
0
  6
CENTER
 62
     2
 10
-42.541653
 20
-19.081047
 11
-42.541653
 21
-34.421059
  0
LINE
  8
0
 10
-59.541649
 20
-31.999994
 11
-31.541656
 21
-31.999994
  0
LINE
  8
0
 10
-59.541649
 20
10.000002
 11
-31.541656
 21
10.000002
  0
LINE
  8
0
 10
-27.041649
 20
15.000004
 11
-27.041649
 21
-36.999996
  0
LINE
  8
0
 10
-29.041656
 20
17.750000
 11
-19.041655
 21
17.750000
  0
LINE
  8
0
 10
-29.041656
 20
-39.749996
 11
-19.041655
 21
-39.749996
  0
LINE
  8
0
 10
-29.041656
 20
16.750000
 11
-19.041655
 21
16.750000
  0
LINE
  8
0
 10
-29.041656
 20
-38.749996
 11
-19.041655
 21
-38.749996
  0
LINE
  8
0
 10
-20.741653
 20
-38.749996
 11
-18.991653
 21
-36.999992
  0
LINE
  8
0
 10
-20.741661
 20
16.749996
 11
-18.991671
 21
15.000004
  0
LINE
  8
0
  6
CENTER
 62
     2
 10
-42.541653
 20
-2.918945
 11
-42.541653
 21
12.421066
  0
LINE
  8
0
  6
CENTER
 62
     2
 10
-54.541649
 20
-2.733330
 11
-54.541649
 21
12.144669
  0
LINE
  8
0
 62
     4
 10
36.458351
 20
-26.150009
 11
37.958351
 21
-26.150009
  0
LINE
  8
0
 62
     4
 10
36.458351
 20
-30.750008
 11
37.958351
 21
-30.750008
  0
LINE
  8
0
 62
     4
 10
37.958351
 20
-26.150009
 11
37.958351
 21
-30.750008
  0
LINE
  8
0
 62
     4
 10
36.458351
 20
-29.749985
 11
37.958351
 21
-29.749985
  0
LINE
  8
0
 62
     4
 10
36.458351
 20
-30.300003
 11
37.958351
 21
-30.300003
  0
LINE
  8
0
 62
     4
 10
37.958351
 20
-27.149994
 11
48.707794
 21
-27.149994
  0
LINE
  8
0
 62
     4
 10
37.958351
 20
-29.750000
 11
50.208908
 21
-29.750000
  0
LINE
  8
0
 62
     1
 10
48.208336
 20
-26.284893
 11
50.708336
 21
-30.615019
  0
LINE
  8
0
 62
     4
 10
36.458351
 20
7.750008
 11
48.707794
 21
7.750008
  0
LINE
  8
0
 62
     1
 10
48.208344
 20
8.615109
 11
50.708344
 21
4.284983
  0
LINE
  8
0
 62
     4
 10
36.458351
 20
5.150002
 11
50.208908
 21
5.150002
  0
LINE
  8
0
  6
CENTER
 62
     2
 10
6.458347
 20
-24.041592
 11
6.458347
 21
-34.130066
  0
LINE
  8
0
  6
CENTER
 62
     2
 10
0.686031
 20
-28.999996
 11
11.741894
 21
-28.999996
  0
LINE
  8
0
  6
CENTER
 62
     2
 10
-4.541653
 20
-20.249996
 11
-4.541653
 21
-27.749996
  0
LINE
  8
0
  6
CENTER
 62
     2
 10
-8.291655
 20
-23.999996
 11
-0.791655
 21
-23.999996
  0
LINE
  8
0
  6
CENTER
 62
     2
 10
-130.625076
 20
24.473665
 11
-130.625076
 21
-43.294182
  0
LINE
  8
0
 10
-146.375076
 20
14.999987
 11
-146.375076
 21
-37.000015
  0
LINE
  8
0
 10
-114.875076
 20
14.999987
 11
-114.875076
 21
-37.000015
  0
LINE
  8
0
 10
-135.625076
 20
-32.000011
 11
-125.625076
 21
-32.000011
  0
LINE
  8
0
 10
-136.125076
 20
-15.500013
 11
-136.125076
 21
-33.000015
  0
LINE
  8
0
 10
-125.125076
 20
-15.500013
 11
-125.125076
 21
-33.000015
  0
LINE
  8
0
  6
CENTER
 62
     2
 10
-148.338562
 20
-11.000013
 11
-112.629395
 21
-11.000013
  0
LINE
  8
0
 10
-135.625076
 20
-18.400011
 11
-135.625076
 21
-34.000011
  0
LINE
  8
0
 10
-125.625076
 20
-18.400011
 11
-125.625076
 21
-34.000011
  0
LINE
  8
0
 10
-135.625076
 20
-22.000011
 11
-125.625076
 21
-22.000011
  0
LINE
  8
0
 10
-135.625076
 20
-19.400011
 11
-125.625076
 21
-19.400011
  0
LINE
  8
0
 10
-135.625076
 20
-18.400011
 11
-125.625076
 21
-18.400011
  0
LINE
  8
0
 10
-125.625076
 20
17.749983
 11
-125.625076
 21
14.999987
  0
LINE
  8
0
 10
-135.625076
 20
17.749983
 11
-135.625076
 21
14.999987
  0
LINE
  8
0
 10
-135.625076
 20
-37.000015
 11
-135.625076
 21
-39.750015
  0
LINE
  8
0
 10
-125.625076
 20
-37.000015
 11
-125.625076
 21
-39.750015
  0
LINE
  8
0
 10
-134.625076
 20
-14.000013
 11
-126.625076
 21
-14.000013
  0
LINE
  8
0
 10
-134.625076
 20
-34.500015
 11
-126.625076
 21
-34.500015
  0
LINE
  8
0
 10
-135.625076
 20
9.999985
 11
-125.625076
 21
9.999985
  0
LINE
  8
0
 10
-136.125076
 20
-6.500013
 11
-136.125076
 21
10.999987
  0
LINE
  8
0
 10
-125.125076
 20
-6.500013
 11
-125.125076
 21
10.999987
  0
LINE
  8
0
 10
-135.625076
 20
-3.600016
 11
-135.625076
 21
11.999987
  0
LINE
  8
0
 10
-125.625076
 20
-3.600016
 11
-125.625076
 21
11.999987
  0
LINE
  8
0
 10
-135.625076
 20
-0.000015
 11
-125.625076
 21
-0.000015
  0
LINE
  8
0
 10
-135.625076
 20
-2.600016
 11
-125.625076
 21
-2.600016
  0
LINE
  8
0
 10
-135.625076
 20
-3.600016
 11
-125.625076
 21
-3.600016
  0
LINE
  8
0
 10
-134.625076
 20
-8.000013
 11
-126.625076
 21
-8.000013
  0
LINE
  8
0
 10
-134.625076
 20
12.499987
 11
-126.625076
 21
12.499987
  0
LINE
  8
0
 10
-146.375076
 20
14.999987
 11
-114.875076
 21
14.999987
  0
LINE
  8
0
 10
-146.375076
 20
-37.000015
 11
-114.875076
 21
-37.000015
  0
LINE
  8
0
 10
-135.625076
 20
17.749983
 11
-125.625076
 21
17.749983
  0
LINE
  8
0
 10
-135.625076
 20
-39.750015
 11
-125.625076
 21
-39.750015
  0
LINE
  8
0
 10
-135.625076
 20
-38.750015
 11
-125.625076
 21
-38.750015
  0
LINE
  8
0
 10
-135.625076
 20
16.749983
 11
-125.625076
 21
16.749983
  0
LINE
  8
0
  6
CENTER
 62
     2
 10
105.208359
 20
13.499990
 11
105.208359
 21
4.499990
  0
LINE
  8
0
 10
99.208359
 20
14.999990
 11
99.208359
 21
-37.000008
  0
LINE
  8
0
 10
131.208359
 20
14.999990
 11
131.208359
 21
-37.000008
  0
LINE
  8
0
 10
99.208359
 20
14.999990
 11
131.208359
 21
14.999990
  0
LINE
  8
0
 10
99.208359
 20
-37.000008
 11
131.208359
 21
-37.000008
  0
LINE
  8
0
  6
CENTER
 62
     2
 10
100.708359
 20
8.999990
 11
109.708359
 21
8.999990
  0
LINE
  8
0
 10
110.208366
 20
17.749987
 11
110.208366
 21
14.999990
  0
LINE
  8
0
 10
120.208359
 20
17.749987
 11
120.208359
 21
14.999990
  0
LINE
  8
0
 10
110.208366
 20
-37.000008
 11
110.208366
 21
-39.750008
  0
LINE
  8
0
 10
120.208359
 20
-37.000008
 11
120.208359
 21
-39.750008
  0
LINE
  8
0
 10
110.208366
 20
-39.750008
 11
120.208359
 21
-39.750008
  0
LINE
  8
0
 10
110.218636
 20
17.749987
 11
120.208359
 21
17.749987
  0
LINE
  8
0
 10
110.208366
 20
16.749987
 11
120.208359
 21
16.749987
  0
LINE
  8
0
 10
110.208366
 20
-38.750008
 11
120.208359
 21
-38.750008
  0
LINE
  8
0
 10
112.708374
 20
-36.700005
 11
112.708374
 21
-32.100006
  0
LINE
  8
0
 10
113.608421
 20
-30.199989
 11
113.108421
 21
-29.699989
  0
LINE
  8
0
 10
113.608368
 20
-31.200010
 11
113.608368
 21
-30.200008
  0
LINE
  8
0
 10
112.708427
 20
-32.100079
 11
113.608429
 21
-31.200075
  0
LINE
  8
0
 10
113.108368
 20
-29.700010
 11
113.108368
 21
-28.100006
  0
LINE
  8
0
 10
117.308380
 20
-29.700010
 11
117.308380
 21
-28.100006
  0
LINE
  8
0
 10
116.808434
 20
-30.200077
 11
117.308434
 21
-29.700075
  0
LINE
  8
0
 10
116.808365
 20
-31.200010
 11
116.808365
 21
-30.200008
  0
LINE
  8
0
 10
117.708412
 20
-32.099957
 11
116.808411
 21
-31.199959
  0
LINE
  8
0
 10
117.708374
 20
-36.700005
 11
117.708374
 21
-32.100006
  0
LINE
  8
0
 10
113.108368
 20
7.699987
 11
113.108368
 21
6.099985
  0
LINE
  8
0
 10
113.608368
 20
9.199987
 11
113.608368
 21
8.199991
  0
LINE
  8
0
 10
113.608376
 20
8.199945
 11
113.108398
 21
7.699958
  0
LINE
  8
0
 10
112.708435
 20
10.100060
 11
113.608376
 21
9.200115
  0
LINE
  8
0
 10
112.708374
 20
14.699991
 11
112.708374
 21
10.099989
  0
LINE
  8
0
 10
117.708374
 20
14.699991
 11
117.708374
 21
10.099989
  0
LINE
  8
0
 10
117.308380
 20
7.699987
 11
117.308380
 21
6.099989
  0
LINE
  8
0
 10
116.808426
 20
8.200053
 11
117.308426
 21
7.700052
  0
LINE
  8
0
 10
116.808365
 20
9.199987
 11
116.808365
 21
8.199987
  0
LINE
  8
0
 10
117.708382
 20
10.099934
 11
116.808365
 21
9.199913
  0
LINE
  8
0
 62
     4
 10
116.808380
 20
8.200083
 11
116.708389
 21
8.300068
  0
LINE
  8
0
 62
     4
 10
116.708374
 20
8.749973
 11
116.708374
 21
8.299976
  0
LINE
  8
0
 62
     4
 10
116.708374
 20
8.749973
 11
113.708374
 21
8.749973
  0
LINE
  8
0
 62
     4
 10
113.708374
 20
8.749973
 11
113.708374
 21
8.299976
  0
LINE
  8
0
 62
     4
 10
113.608368
 20
8.199996
 11
113.708366
 21
8.299995
  0
LINE
  8
0
 62
     4
 10
116.458374
 20
9.249973
 11
116.458374
 21
8.749973
  0
LINE
  8
0
 62
     4
 10
113.958374
 20
9.249973
 11
113.958374
 21
8.749973
  0
LINE
  8
0
 62
     4
 10
116.458374
 20
9.249973
 11
113.958374
 21
9.249973
  0
LINE
  8
0
 62
     4
 10
116.808365
 20
-30.200090
 11
116.708374
 21
-30.300079
  0
LINE
  8
0
 62
     4
 10
116.708374
 20
-30.749992
 11
116.708374
 21
-30.299995
  0
LINE
  8
0
 62
     4
 10
116.708374
 20
-30.749992
 11
113.708374
 21
-30.749992
  0
LINE
  8
0
 62
     4
 10
113.708374
 20
-30.749992
 11
113.708374
 21
-30.299995
  0
LINE
  8
0
 62
     4
 10
113.608360
 20
-30.200027
 11
113.708366
 21
-30.300028
  0
LINE
  8
0
 62
     4
 10
116.458374
 20
-31.249992
 11
116.458374
 21
-30.749992
  0
LINE
  8
0
 62
     4
 10
113.958374
 20
-31.249992
 11
113.958374
 21
-30.749992
  0
LINE
  8
0
 62
     4
 10
116.458374
 20
-31.249992
 11
113.958374
 21
-31.249992
  0
LINE
  8
0
  6
CENTER
 62
     2
 10
93.125023
 20
-11.000010
 11
133.958359
 21
-11.000010
  0
LINE
  8
0
  6
CENTER
 62
     2
 10
115.208374
 20
20.657003
 11
115.208374
 21
-43.509659
  0
LINE
  8
0
  6
CENTER
 62
     2
 10
125.208359
 20
-26.500010
 11
125.208359
 21
-35.500008
  0
LINE
  8
0
  6
CENTER
 62
     2
 10
120.708359
 20
-31.000010
 11
129.708359
 21
-31.000010
  0
LINE
  8
0
 10
-27.041683
 20
85.140373
 11
36.458317
 21
85.140373
  0
LINE
  8
0
 10
-27.041683
 20
53.140373
 11
36.458317
 21
53.140373
  0
LINE
  8
0
 10
36.458317
 20
85.140373
 11
36.458317
 21
70.440376
  0
LINE
  8
0
 10
-59.541683
 20
74.140373
 11
-59.541683
 21
64.140373
  0
LINE
  8
0
 10
-31.541683
 20
84.890373
 11
-31.541683
 21
53.390373
  0
LINE
  8
0
 10
-20.941681
 20
78.240372
 11
-20.941681
 21
74.640373
  0
LINE
  8
0
  6
CENTER
 62
     2
 10
-63.690647
 20
69.140373
 11
50.458317
 21
69.140373
  0
LINE
  8
0
  6
CENTER
 62
     2
 10
-54.541683
 20
73.388229
 11
-54.541683
 21
65.096336
  0
LINE
  8
0
  6
CENTER
 62
     2
 10
-42.541683
 20
73.388229
 11
-42.541683
 21
64.819939
  0
LINE
  8
0
 10
0.758320
 20
72.390373
 11
0.758320
 21
65.890373
  0
LINE
  8
0
 10
-15.041679
 20
72.390373
 11
1.758316
 21
72.390373
  0
LINE
  8
0
 10
-15.041679
 20
65.890373
 11
1.758316
 21
65.890373
  0
LINE
  8
0
 10
-20.941681
 20
74.640373
 11
-15.041679
 21
74.640373
  0
LINE
  8
0
 10
-20.941681
 20
63.640373
 11
-15.041679
 21
63.640373
  0
LINE
  8
0
 10
-15.041679
 20
74.640373
 11
-15.041679
 21
72.390373
  0
LINE
  8
0
 10
-15.041679
 20
65.890373
 11
-15.041679
 21
63.640373
  0
LINE
  8
0
 10
-31.541683
 20
53.390373
 11
-27.041683
 21
53.390373
  0
LINE
  8
0
 10
-31.541683
 20
84.890373
 11
-27.041683
 21
84.890373
  0
LINE
  8
0
 10
-27.041683
 20
85.140373
 11
-27.041683
 21
74.640373
  0
LINE
  8
0
 10
-29.441681
 20
74.640373
 11
-27.041683
 21
74.640373
  0
LINE
  8
0
 10
-29.441681
 20
63.640373
 11
-27.041683
 21
63.640373
  0
LINE
  8
0
 10
-29.441677
 20
74.640373
 11
-29.441677
 21
63.640373
  0
LINE
  8
0
 10
-27.041683
 20
78.240372
 11
-20.941681
 21
78.240372
  0
LINE
  8
0
 10
-27.041683
 20
60.340370
 11
-20.941681
 21
60.340370
  0
LINE
  8
0
 10
-27.041683
 20
74.840370
 11
-25.941681
 21
74.840370
  0
LINE
  8
0
 10
-27.041683
 20
63.740372
 11
-25.941677
 21
63.740372
  0
LINE
  8
0
 10
-59.541683
 20
64.140373
 11
-31.541683
 21
64.140373
  0
LINE
  8
0
 10
-59.541683
 20
74.140373
 11
-31.541683
 21
74.140373
  0
LINE
  8
0
 10
-15.741680
 20
74.140373
 11
-15.741680
 21
70.740372
  0
LINE
  8
0
 10
-29.441681
 20
74.140373
 11
-15.741680
 21
74.140373
  0
LINE
  8
0
 10
-29.441681
 20
64.140373
 11
-15.741680
 21
64.140373
  0
LINE
  8
0
 62
     2
 10
-29.041683
 20
74.140373
 11
-29.041683
 21
64.140373
  0
LINE
  8
0
 10
-20.941681
 20
63.740372
 11
-20.941681
 21
60.340370
  0
LINE
  8
0
 10
-19.304592
 20
70.740372
 11
-7.211460
 21
70.740372
  0
LINE
  8
0
 10
-19.304592
 20
67.540375
 11
-0.041679
 21
67.540375
  0
LINE
  8
0
 10
-15.741680
 20
67.540375
 11
-15.741680
 21
64.140373
  0
LINE
  8
0
 10
-0.041679
 20
72.040375
 11
-0.041679
 21
67.540375
  0
LINE
  8
0
 10
-12.041679
 20
72.040375
 11
-0.041679
 21
72.040375
  0
LINE
  8
0
 10
-12.041679
 20
72.040375
 11
-12.041679
 21
70.740372
  0
LINE
  8
0
 62
     2
 10
-2.041679
 20
72.390373
 11
-2.041679
 21
72.040375
  0
LINE
  8
0
 62
     2
 10
-7.041679
 20
72.390373
 11
-7.041679
 21
72.040375
  0
LINE
  8
0
 10
-7.041679
 20
67.540375
 11
-7.041679
 21
65.890373
  0
LINE
  8
0
 10
-2.041679
 20
67.540375
 11
-2.041679
 21
65.890373
  0
LINE
  8
0
 10
-22.141710
 20
74.840363
 11
-24.041702
 21
76.740349
  0
LINE
  8
0
 10
-24.041727
 20
61.840370
 11
-25.941721
 21
63.740364
  0
LINE
  8
0
 10
-24.041725
 20
61.840427
 11
-22.141737
 21
63.740414
  0
LINE
  8
0
 10
-25.941750
 20
74.840439
 11
-24.041748
 21
76.740440
  0
LINE
  8
0
 10
-22.141682
 20
74.840370
 11
-20.941681
 21
74.840370
  0
LINE
  8
0
 10
-22.141682
 20
63.740372
 11
-20.941681
 21
63.740372
  0
LINE
  8
0
  6
CENTER
 62
     2
 10
21.001156
 20
78.140373
 11
33.577198
 21
78.140373
  0
LINE
  8
0
  6
CENTER
 62
     2
 10
6.677898
 20
60.140373
 11
19.933033
 21
60.140373
  0
LINE
  8
0
  6
CENTER
 62
     2
 10
27.458317
 20
84.280571
 11
27.458317
 21
71.963860
  0
LINE
  8
0
  6
CENTER
 62
     2
 10
13.458317
 20
65.864151
 11
13.458317
 21
54.368546
  0
LINE
  8
0
  6
CENTER
 62
     2
 10
6.458317
 20
88.807030
 11
6.458317
 21
49.140381
  0
LINE
  8
0
 10
-27.041683
 20
63.740372
 11
-27.041683
 21
53.140373
  0
LINE
  8
0
 10
1.758316
 20
72.390358
 11
1.758316
 21
65.890366
  0
LINE
  8
0
 10
-23.044029
 20
69.390297
 11
-22.291691
 21
69.390297
  0
LINE
  8
0
 10
-23.791752
 20
70.890366
 11
-23.791752
 21
70.138031
  0
LINE
  8
0
 10
-24.291615
 20
70.890366
 11
-23.791752
 21
70.890366
  0
LINE
  8
0
 10
-24.291615
 20
70.890366
 11
-24.291615
 21
70.138031
  0
LINE
  8
0
 10
-24.291656
 20
67.390381
 11
-24.291656
 21
68.142715
  0
LINE
  8
0
 10
-23.791786
 20
67.390381
 11
-23.791786
 21
68.142715
  0
LINE
  8
0
 10
-25.039337
 20
69.390305
 11
-25.791676
 21
69.390305
  0
LINE
  8
0
 10
-25.039337
 20
68.890427
 11
-25.791676
 21
68.890427
  0
LINE
  8
0
 10
-23.044029
 20
68.890442
 11
-22.291691
 21
68.890442
  0
LINE
  8
0
 10
-24.291615
 20
67.390381
 11
-23.791752
 21
67.390381
  0
LINE
  8
0
 10
-25.791676
 20
69.390305
 11
-25.791676
 21
68.890442
  0
LINE
  8
0
 10
-22.291691
 20
69.390305
 11
-22.291691
 21
68.890442
  0
LINE
  8
0
 10
1.758316
 20
71.640373
 11
36.458317
 21
71.640373
  0
LINE
  8
0
 10
1.758316
 20
70.740372
 11
36.458317
 21
70.740372
  0
LINE
  8
0
 10
1.758316
 20
67.540375
 11
36.458317
 21
67.540375
  0
LINE
  8
0
 10
1.758316
 20
66.640373
 11
36.458317
 21
66.640373
  0
LINE
  8
0
 62
     4
 10
2.758316
 20
70.740372
 11
2.758316
 21
67.540375
  0
LINE
  8
0
 62
     4
 10
24.758316
 20
70.740372
 11
24.758316
 21
67.540375
  0
LINE
  8
0
 62
     4
 10
3.724092
 20
68.438347
 11
5.460362
 21
70.174622
  0
LINE
  8
0
 62
     4
 10
4.082018
 20
68.089142
 11
5.809570
 21
69.816696
  0
LINE
  8
0
 62
     4
 10
24.758316
 20
70.440376
 11
47.707760
 21
70.440376
  0
LINE
  8
0
 62
     4
 10
24.758316
 20
67.840370
 11
49.208874
 21
67.840370
  0
LINE
  8
0
 62
     1
 10
47.208294
 20
71.305473
 11
49.708294
 21
66.975342
  0
LINE
  8
0
 10
36.458317
 20
67.840370
 11
36.458317
 21
53.140373
  0
LINE
  8
0
  6
CENTER
 62
     2
 10
-64.022232
 20
-90.443024
 11
50.458298
 21
-90.443024
  0
LINE
  8
0
 10
-27.041710
 20
-74.443024
 11
36.458290
 21
-74.443024
  0
LINE
  8
0
 10
-27.041710
 20
-106.443016
 11
36.458290
 21
-106.443016
  0
LINE
  8
0
 10
36.458298
 20
-74.443024
 11
36.458298
 21
-88.843025
  0
LINE
  8
0
 10
-59.541702
 20
-85.443024
 11
-59.541702
 21
-95.443024
  0
LINE
  8
0
 10
-31.541710
 20
-74.693024
 11
-31.541710
 21
-106.193024
  0
LINE
  8
0
 10
-20.941708
 20
-81.343025
 11
-20.941708
 21
-84.943024
  0
LINE
  8
0
 10
0.758293
 20
-87.193024
 11
0.758293
 21
-93.693024
  0
LINE
  8
0
 10
-15.041706
 20
-87.193024
 11
1.758297
 21
-87.193024
  0
LINE
  8
0
 10
-15.041706
 20
-93.693016
 11
1.758297
 21
-93.693016
  0
LINE
  8
0
 10
-20.941708
 20
-84.943024
 11
-15.041706
 21
-84.943024
  0
LINE
  8
0
 10
-20.941708
 20
-95.943016
 11
-15.041706
 21
-95.943016
  0
LINE
  8
0
 10
-15.041706
 20
-84.943024
 11
-15.041706
 21
-87.193024
  0
LINE
  8
0
 10
-15.041706
 20
-93.693024
 11
-15.041706
 21
-95.943024
  0
LINE
  8
0
 10
-31.541710
 20
-106.193016
 11
-27.041710
 21
-106.193016
  0
LINE
  8
0
 10
-31.541710
 20
-74.693024
 11
-27.041710
 21
-74.693024
  0
LINE
  8
0
 10
-27.041710
 20
-74.443024
 11
-27.041710
 21
-84.943024
  0
LINE
  8
0
 10
-29.441708
 20
-84.943024
 11
-27.041710
 21
-84.943024
  0
LINE
  8
0
 10
-29.441708
 20
-95.943016
 11
-27.041710
 21
-95.943016
  0
LINE
  8
0
 10
-29.441704
 20
-84.943024
 11
-29.441704
 21
-95.943024
  0
LINE
  8
0
 10
-27.041710
 20
-81.343025
 11
-20.941708
 21
-81.343025
  0
LINE
  8
0
 10
-27.041710
 20
-99.243019
 11
-20.941708
 21
-99.243019
  0
LINE
  8
0
 10
-27.041710
 20
-84.743027
 11
-25.941708
 21
-84.743027
  0
LINE
  8
0
 10
-27.041710
 20
-95.843025
 11
-25.941704
 21
-95.843025
  0
LINE
  8
0
 10
-59.541702
 20
-95.443016
 11
-31.541710
 21
-95.443016
  0
LINE
  8
0
 10
-59.541702
 20
-85.443024
 11
-31.541710
 21
-85.443024
  0
LINE
  8
0
 10
-15.741707
 20
-85.443024
 11
-15.741707
 21
-88.843033
  0
LINE
  8
0
 10
-29.441708
 20
-85.443024
 11
-15.741707
 21
-85.443024
  0
LINE
  8
0
 10
-29.441708
 20
-95.443016
 11
-15.741707
 21
-95.443016
  0
LINE
  8
0
 62
     2
 10
-29.041710
 20
-85.443024
 11
-29.041710
 21
-95.443024
  0
LINE
  8
0
 10
-20.941708
 20
-95.843025
 11
-20.941708
 21
-99.243019
  0
LINE
  8
0
 10
-19.304619
 20
-88.843025
 11
-7.211487
 21
-88.843025
  0
LINE
  8
0
 10
-19.304619
 20
-92.043022
 11
-0.041706
 21
-92.043022
  0
LINE
  8
0
 10
-15.741707
 20
-92.043022
 11
-15.741707
 21
-95.443024
  0
LINE
  8
0
 10
-0.041706
 20
-87.543030
 11
-0.041706
 21
-92.043022
  0
LINE
  8
0
 10
-12.041706
 20
-87.543022
 11
-0.041706
 21
-87.543022
  0
LINE
  8
0
 10
-12.041706
 20
-87.543030
 11
-12.041706
 21
-88.843033
  0
LINE
  8
0
 62
     2
 10
-2.041706
 20
-87.193024
 11
-2.041706
 21
-87.543030
  0
LINE
  8
0
 62
     2
 10
-7.041706
 20
-87.193024
 11
-7.041706
 21
-87.543030
  0
LINE
  8
0
 10
-7.041706
 20
-92.043022
 11
-7.041706
 21
-93.693024
  0
LINE
  8
0
 10
-2.041706
 20
-92.043022
 11
-2.041706
 21
-93.693024
  0
LINE
  8
0
 10
-22.141672
 20
-84.742996
 11
-24.041674
 21
-82.842995
  0
LINE
  8
0
 10
-24.041679
 20
-97.742996
 11
-25.941671
 21
-95.843002
  0
LINE
  8
0
 10
-24.041668
 20
-97.743057
 11
-22.141674
 21
-95.843063
  0
LINE
  8
0
 10
-25.941710
 20
-84.743065
 11
-24.041702
 21
-82.843063
  0
LINE
  8
0
 10
-22.141708
 20
-84.743027
 11
-20.941708
 21
-84.743027
  0
LINE
  8
0
 10
-22.141708
 20
-95.843025
 11
-20.941708
 21
-95.843025
  0
LINE
  8
0
  6
CENTER
 62
     2
 10
9.869339
 20
-80.443024
 11
18.894005
 21
-80.443024
  0
LINE
  8
0
  6
CENTER
 62
     2
 10
10.100739
 20
-100.443016
 11
19.125412
 21
-100.443016
  0
LINE
  8
0
  6
CENTER
 62
     2
 10
14.458294
 20
-75.899002
 11
14.458294
 21
-85.270775
  0
LINE
  8
0
  6
CENTER
 62
     2
 10
14.458294
 20
-95.971207
 11
14.458294
 21
-104.939926
  0
LINE
  8
0
  6
CENTER
 62
     2
 10
-54.541702
 20
-86.196381
 11
-54.541702
 21
-94.758247
  0
LINE
  8
0
  6
CENTER
 62
     2
 10
-42.541710
 20
-86.196381
 11
-42.541710
 21
-94.758247
  0
LINE
  8
0
  6
CENTER
 62
     2
 10
6.458298
 20
-71.618065
 11
6.458298
 21
-108.873756
  0
LINE
  8
0
 10
-27.041710
 20
-95.843025
 11
-27.041710
 21
-106.443016
  0
LINE
  8
0
 10
1.758297
 20
-87.193039
 11
1.758297
 21
-93.693031
  0
LINE
  8
0
 10
-23.044056
 20
-90.193100
 11
-22.291718
 21
-90.193100
  0
LINE
  8
0
 10
-23.791779
 20
-88.693031
 11
-23.791779
 21
-89.445374
  0
LINE
  8
0
 10
-24.291641
 20
-88.693031
 11
-23.791779
 21
-88.693031
  0
LINE
  8
0
 10
-24.291641
 20
-88.693031
 11
-24.291641
 21
-89.445374
  0
LINE
  8
0
 10
-24.291611
 20
-92.193016
 11
-24.291611
 21
-91.440674
  0
LINE
  8
0
 10
-23.791756
 20
-92.193016
 11
-23.791756
 21
-91.440674
  0
LINE
  8
0
 10
-25.039364
 20
-90.193085
 11
-25.791702
 21
-90.193085
  0
LINE
  8
0
 10
-25.039364
 20
-90.692963
 11
-25.791702
 21
-90.692963
  0
LINE
  8
0
 10
-23.044056
 20
-90.692963
 11
-22.291718
 21
-90.692963
  0
LINE
  8
0
 10
-24.291641
 20
-92.193008
 11
-23.791779
 21
-92.193008
  0
LINE
  8
0
 10
-25.791702
 20
-90.193092
 11
-25.791702
 21
-90.692947
  0
LINE
  8
0
 10
-22.291718
 20
-90.193092
 11
-22.291718
 21
-90.692947
  0
LINE
  8
0
 10
1.758297
 20
-87.943024
 11
36.458298
 21
-87.943024
  0
LINE
  8
0
 10
1.758297
 20
-88.843025
 11
36.458298
 21
-88.843025
  0
LINE
  8
0
 10
1.758297
 20
-92.043022
 11
36.458298
 21
-92.043022
  0
LINE
  8
0
 10
1.758297
 20
-92.943024
 11
36.458298
 21
-92.943024
  0
LINE
  8
0
 62
     4
 10
36.458298
 20
-92.043022
 11
37.958298
 21
-92.043022
  0
LINE
  8
0
 62
     4
 10
36.458298
 20
-92.493027
 11
37.958298
 21
-92.493027
  0
LINE
  8
0
 62
     4
 10
36.458298
 20
-88.393021
 11
37.958298
 21
-88.393021
  0
LINE
  8
0
 62
     4
 10
15.958298
 20
-88.843025
 11
15.958298
 21
-92.043022
  0
LINE
  8
0
 62
     4
 10
37.958298
 20
-88.393021
 11
37.958298
 21
-92.493027
  0
LINE
  8
0
 62
     4
 10
16.924080
 20
-91.145058
 11
18.660353
 21
-89.408791
  0
LINE
  8
0
 62
     4
 10
17.282015
 20
-91.494278
 11
19.009563
 21
-89.766724
  0
LINE
  8
0
 62
     4
 10
37.958298
 20
-89.143021
 11
47.707733
 21
-89.143021
  0
LINE
  8
0
 62
     4
 10
37.958298
 20
-91.743027
 11
49.208862
 21
-91.743027
  0
LINE
  8
0
 62
     1
 10
47.208294
 20
-88.277916
 11
49.708298
 21
-92.608040
  0
LINE
  8
0
 62
     4
 10
36.458298
 20
-88.843025
 11
37.958298
 21
-88.843025
  0
LINE
  8
0
 10
36.458298
 20
-92.043022
 11
36.458298
 21
-106.443024
  0
LINE
  8
0
 10
-194.250000
 20
132.600006
 11
194.800003
 21
132.600006
  0
LINE
  8
0
 10
194.800003
 20
132.600006
 11
194.800003
 21
-133.500000
  0
LINE
  8
0
 10
-194.250000
 20
132.600006
 11
-194.250000
 21
-133.500000
  0
LINE
  8
0
 10
-194.250000
 20
-133.500000
 11
194.800003
 21
-133.500000
  0
LINE
  8
0
 10
109.800003
 20
-118.500000
 11
109.800003
 21
-133.500000
  0
LINE
  8
0
 10
109.800003
 20
-118.500000
 11
194.800003
 21
-118.500000
  0
LINE
  8
0
 10
109.800003
 20
132.600006
 11
109.800003
 21
117.600006
  0
LINE
  8
0
 10
109.800003
 20
117.600006
 11
194.800003
 21
117.600006
  0
LINE
  8
0
 10
-194.250000
 20
117.600006
 11
-109.250000
 21
117.600006
  0
LINE
  8
0
 10
-109.250000
 20
132.600006
 11
-109.250000
 21
117.600006
  0
CIRCLE
  8
0
 10
6.458347
 20
7.000004
 40
2.500000
  0
CIRCLE
  8
0
 10
6.458347
 20
-28.999996
 40
2.500000
  0
CIRCLE
  8
0
 62
     2
 10
6.458347
 20
7.000004
 40
3.000000
  0
CIRCLE
  8
0
 62
     2
 10
6.458347
 20
-28.999996
 40
3.000000
  0
CIRCLE
  8
0
 10
-4.541653
 20
2.000004
 40
2.500000
  0
CIRCLE
  8
0
 10
-4.541653
 20
-23.999996
 40
2.500000
  0
ARC
  8
0
 10
-126.625076
 20
-6.500013
 40
1.500000
 50
270.000000
 51
359.999939
  0
ARC
  8
0
 10
-134.625076
 20
-6.500013
 40
1.500000
 50
179.999985
 51
270.000000
  0
ARC
  8
0
 10
-126.625076
 20
10.999987
 40
1.500000
 50
359.999939
 51
90.000000
  0
ARC
  8
0
 10
-134.625076
 20
-15.500013
 40
1.500000
 50
90.000000
 51
179.999969
  0
ARC
  8
0
 10
-126.625076
 20
-15.500013
 40
1.500000
 50
0.000000
 51
90.000000
  0
ARC
  8
0
 10
-126.625076
 20
-33.000015
 40
1.500000
 50
270.000000
 51
0.000000
  0
ARC
  8
0
 10
-134.625076
 20
-33.000015
 40
1.500000
 50
180.000000
 51
270.000000
  0
ARC
  8
0
 10
-134.625076
 20
10.999987
 40
1.500000
 50
90.000000
 51
179.999969
  0
CIRCLE
  8
0
 62
     4
 10
115.208374
 20
6.449986
 40
1.300000
  0
ARC
  8
0
 10
115.208374
 20
-28.100006
 40
2.099998
 50
0.000000
 51
180.000000
  0
CIRCLE
  8
0
 62
     4
 10
115.208374
 20
-28.450005
 40
1.300000
  0
ARC
  8
0
 10
118.008362
 20
14.699991
 40
0.300000
 50
90.000000
 51
180.000000
  0
ARC
  8
0
 10
115.208374
 20
6.099985
 40
2.099998
 50
180.000031
 51
359.999969
  0
ARC
  8
0
 10
112.408363
 20
14.699991
 40
0.300003
 50
0.000000
 51
90.000000
  0
ARC
  8
0
 10
118.008377
 20
-36.700005
 40
0.300003
 50
180.000000
 51
270.000000
  0
CIRCLE
  8
0
 10
115.208374
 20
-11.000010
 40
13.000000
  0
CIRCLE
  8
0
 62
     2
 10
105.208359
 20
8.999990
 40
3.000000
  0
CIRCLE
  8
0
 62
     2
 10
125.208359
 20
-31.000010
 40
3.000000
  0
CIRCLE
  8
0
 10
125.208359
 20
-31.000010
 40
2.500000
  0
CIRCLE
  8
0
 10
105.208359
 20
8.999990
 40
2.500000
  0
ARC
  8
0
 10
112.408363
 20
-36.700005
 40
0.299999
 50
270.000000
 51
0.000000
  0
CIRCLE
  8
0
 62
     4
 10
4.758331
 20
69.140373
 40
1.250000
  0
CIRCLE
  8
0
 62
     4
 10
4.758331
 20
69.140373
 40
1.400000
  0
CIRCLE
  8
0
 10
13.458317
 20
60.140373
 40
2.100000
  0
ARC
  8
0
 10
-25.039337
 20
70.138031
 40
0.747726
 50
270.000000
 51
0.000000
  0
ARC
  8
0
 10
-23.044029
 20
68.142715
 40
0.747726
 50
90.000000
 51
180.000000
  0
CIRCLE
  8
0
 10
-24.041683
 20
69.140373
 40
3.000000
  0
ARC
  8
0
 10
-25.039337
 20
68.142723
 40
0.747725
 50
0.000000
 51
90.000000
  0
CIRCLE
  8
0
 10
-24.041683
 20
69.140373
 40
5.000000
  0
CIRCLE
  8
0
 62
     2
 10
-54.541683
 20
69.140373
 40
2.500000
  0
CIRCLE
  8
0
 62
     2
 10
-42.541683
 20
69.140373
 40
2.500000
  0
CIRCLE
  8
0
 62
     2
 10
27.458317
 20
78.140373
 40
2.500000
  0
CIRCLE
  8
0
 62
     2
 10
13.458317
 20
60.140373
 40
2.500000
  0
CIRCLE
  8
0
 10
27.458317
 20
78.140373
 40
4.250000
  0
CIRCLE
  8
0
 10
13.458317
 20
60.140373
 40
4.250000
  0
ARC
  8
0
 10
-23.044029
 20
70.138031
 40
0.747725
 50
180.000000
 51
270.000000
  0
CIRCLE
  8
0
 10
-54.541683
 20
69.140373
 40
2.100000
  0
CIRCLE
  8
0
 10
-42.541683
 20
69.140373
 40
2.100000
  0
CIRCLE
  8
0
 10
27.458317
 20
78.140373
 40
2.100000
  0
CIRCLE
  8
0
 62
     4
 10
17.958313
 20
-90.443024
 40
1.250000
  0
CIRCLE
  8
0
 62
     4
 10
17.958313
 20
-90.443024
 40
1.400000
  0
CIRCLE
  8
0
 10
14.458294
 20
-100.443016
 40
2.500000
  0
CIRCLE
  8
0
 10
-24.041710
 20
-90.443024
 40
3.000000
  0
ARC
  8
0
 10
-25.039364
 20
-91.440674
 40
0.747725
 50
0.000000
 51
90.000000
  0
ARC
  8
0
 10
-23.044056
 20
-91.440674
 40
0.747726
 50
90.000000
 51
180.000000
  0
CIRCLE
  8
0
 62
     2
 10
-54.541702
 20
-90.443024
 40
2.500000
  0
CIRCLE
  8
0
 62
     2
 10
-42.541710
 20
-90.443024
 40
2.500000
  0
CIRCLE
  8
0
 10
-24.041710
 20
-90.443024
 40
5.000000
  0
CIRCLE
  8
0
 62
     2
 10
14.458294
 20
-80.443024
 40
3.000000
  0
CIRCLE
  8
0
 62
     2
 10
14.458294
 20
-100.443016
 40
3.000000
  0
ARC
  8
0
 10
-23.044056
 20
-89.445374
 40
0.747725
 50
180.000000
 51
270.000000
  0
ARC
  8
0
 10
-25.039364
 20
-89.445374
 40
0.747726
 50
270.000000
 51
0.000000
  0
CIRCLE
  8
0
 10
-54.541702
 20
-90.443024
 40
2.100000
  0
CIRCLE
  8
0
 10
-42.541710
 20
-90.443024
 40
2.100000
  0
CIRCLE
  8
0
 10
14.458294
 20
-80.443024
 40
2.500000
  0
TEXT
  8
0
 10
133.907150
 20
122.050003
 40
4.500000
  1
Ver. 1.0
 50
0.000000
 41
1.052631
 51
0.000000
  7
STANDARD
  0
TEXT
  8
0
 10
113.700279
 20
-130.669998
 40
6.300000
  1
KOGANEI CORP.
 50
0.000000
 41
1.052632
 51
0.000000
  7
STANDARD
  0
TEXT
  8
0
 10
-170.142654
 20
122.050003
 40
4.500000
  1
AIR HAND
 50
0.000000
 41
1.052632
 51
0.000000
  7
STANDARD
  0
TEXT
  8
0
 10
-159.892654
 20
97.550003
 40
4.500000
  1
NHBRPA-25-ZE135A2
 50
0.000000
 41
1.052632
 51
0.000000
  7
STANDARD
  0
TEXT
  8
0
 10
-186.892654
 20
104.550003
 40
4.500000
  1
MODEL:NHBDPA-25-ZE135A2
 50
0.000000
 41
1.052632
 51
0.000000
  7
STANDARD
  0
ENDSEC
  0
EOF
