  0
SECTION
  2
HEADER
  0
ENDSEC
  0
SECTION
  2
TABLES
  0
TABLE
  2
LTYPE
 70
     4
  0
LTYPE
  2
CONTINUOUS
 70
    64
  3
Solid line
 72
    65
 73
     0
 40
0.000000
  0
LTYPE
  2
DASHED
 70
    64
  3
__ __ __ __ __ __ __ __ __ __ __ __ __ __ __
 72
    65
 73
     2
 40
3.500000
 49
2.000000
 49
-1.500000
  0
LTYPE
  2
CENTER
 70
    64
  3
____ _ ____ _ ____ _ ____ _ ____ _ ____ _ ____
 72
    65
 73
     4
 40
17.500000
 49
13.000000
 49
-1.500000
 49
1.500000
 49
-1.500000
  0
LTYPE
  2
PHANTOM
 70
    64
  3
_____ _ _ _____ _ _ _____ _ _ _____ _ _ ____  
 72
    65
 73
     6
 40
15.500000
 49
8.000000
 49
-1.500000
 49
1.500000
 49
-1.500000
 49
1.500000
 49
-1.500000
  0
LTYPE
  2
DASHED1
 70
    64
  3
__ __ __ __ __ __ __ __ __ __ __ __ __ __ __
 72
    65
 73
     2
 40
1.500000
 49
1.000000
 49
-0.500000
  0
LTYPE
  2
DASHED2
 70
    64
  3
__ __ __ __ __ __ __ __ __ __ __ __ __ __ __
 72
    65
 73
     2
 40
3.500000
 49
2.500000
 49
-1.000000
  0
LTYPE
  2
DASHED3
 70
    64
  3
__ __ __ __ __ __ __ __ __ __ __ __ __ __ __
 72
    65
 73
     2
 40
6.000000
 49
4.000000
 49
-2.000000
  0
LTYPE
  2
DASHED4
 70
    64
  3
__ __ __ __ __ __ __ __ __ __ __ __ __ __ __
 72
    65
 73
     2
 40
12.000000
 49
10.000000
 49
-2.000000
  0
LTYPE
  2
DASHED5
 70
    64
  3
__ __ __ __ __ __ __ __ __ __ __ __ __ __ __
 72
    65
 73
     2
 40
17.000000
 49
15.000000
 49
-2.000000
  0
LTYPE
  2
DASHED6
 70
    64
  3
__ __ __ __ __ __ __ __ __ __ __ __ __ __ __
 72
    65
 73
     2
 40
29.000000
 49
27.000000
 49
-2.000000
  0
LTYPE
  2
PHANTOM1
 70
    64
  3
_____ _ _ _____ _ _ _____ _ _ _____ _ _ ____  
 72
    65
 73
     6
 40
31.000000
 49
25.000000
 49
-1.500000
 49
1.000000
 49
-1.000000
 49
1.000000
 49
-1.500000
  0
LTYPE
  2
PHANTOM2
 70
    64
  3
_____ _ _ _____ _ _ _____ _ _ _____ _ _ ____  
 72
    65
 73
     6
 40
36.000000
 49
27.000000
 49
-1.500000
 49
2.500000
 49
-1.000000
 49
2.500000
 49
-1.500000
  0
LTYPE
  2
PHANTOM3
 70
    64
  3
_____ _ _ _____ _ _ _____ _ _ _____ _ _ ____  
 72
    65
 73
     6
 40
78.000000
 49
64.000000
 49
-2.000000
 49
4.000000
 49
-2.000000
 49
4.000000
 49
-2.000000
  0
LTYPE
  2
CENTER1
 70
    64
  3
____ _ ____ _ ____ _ ____ _ ____ _ ____ _ ____
 72
    65
 73
     4
 40
19.000000
 49
14.000000
 49
-1.000000
 49
3.000000
 49
-1.000000
  0
LTYPE
  2
CENTER2
 70
    64
  3
____ _ ____ _ ____ _ ____ _ ____ _ ____ _ ____
 72
    65
 73
     4
 40
28.500000
 49
25.000000
 49
-1.000000
 49
1.500000
 49
-1.000000
  0
LTYPE
  2
CENTER3
 70
    64
  3
____ _ ____ _ ____ _ ____ _ ____ _ ____ _ ____
 72
    65
 73
     4
 40
31.500000
 49
27.000000
 49
-1.000000
 49
2.500000
 49
-1.000000
  0
LTYPE
  2
CENTER4
 70
    64
  3
____ _ ____ _ ____ _ ____ _ ____ _ ____ _ ____
 72
    65
 73
     4
 40
50.000000
 49
45.000000
 49
-1.000000
 49
3.000000
 49
-1.000000
  0
LTYPE
  2
CENTER5
 70
    64
  3
____ _ ____ _ ____ _ ____ _ ____ _ ____ _ ____
 72
    65
 73
     4
 40
100.000000
 49
92.000000
 49
-2.000000
 49
4.000000
 49
-2.000000
  0
LTYPE
  2
SBK1
 70
    64
  3
______ _ _ _ ______ _ _ _ ______ _ _ _ _____  
 72
    65
 73
     8
 40
60.500000
 49
45.000000
 49
-2.000000
 49
2.500000
 49
-2.000000
 49
2.500000
 49
-2.000000
 49
2.500000
 49
-2.000000
  0
LTYPE
  2
SBK2
 70
    64
  3
______ _ _ _ ______ _ _ _ ______ _ _ _ _____  
 72
    65
 73
     8
 40
84.000000
 49
64.000000
 49
-2.000000
 49
4.000000
 49
-2.000000
 49
4.000000
 49
-2.000000
 49
4.000000
 49
-2.000000
  0
LTYPE
  2
STCH
 70
    64
  3
__ __ __ __ __ __ __ __ __ __ __ __ __ __ __
 72
    65
 73
     2
 40
3.000000
 49
1.000000
 49
-2.000000
  0
LTYPE
  2
MTCH
 70
    64
  3
_____ _ _ _____ _ _ _____ _ _ _____ _ _ ____  
 72
    65
 73
     6
 40
80.000000
 49
66.000000
 49
-2.000000
 49
4.000000
 49
-2.000000
 49
4.000000
 49
-2.000000
  0
ENDTAB
  0
TABLE
  2
LAYER
 70
     1
  0
LAYER
  2
0
 70
     0
 62
     7
  6
CONTINUOUS
  0
ENDTAB
  0
TABLE
  2
STYLE
 70
     1
  0
STYLE
  2
STANDARD
 70
     0
 40
0.000000
 41
1.000000
 50
0.000000
 71
     0
 42
0.200000
  3
txt
  4
BIGFONT
  0
ENDTAB
  0
TABLE
  2
VIEW
 70
     0
  0
ENDTAB
  0
ENDSEC
  0
SECTION
  2
BLOCKS
  0
ENDSEC
  0
SECTION
  2
ENTITIES
  0
LINE
  8
0
 10
-15.500000
 20
18.000002
 11
-15.500000
 21
-18.000002
  0
LINE
  8
0
  6
CENTER
 62
     2
 10
5.953455
 20
3.500000
 11
15.253571
 21
3.500000
  0
LINE
  8
0
  6
CENTER
 62
     2
 10
15.541206
 20
-3.500000
 11
24.457809
 21
-3.500000
  0
LINE
  8
0
 10
20.000004
 20
15.099997
 11
20.000004
 21
11.499998
  0
LINE
  8
0
 10
10.500004
 20
15.100002
 11
10.500004
 21
11.500004
  0
LINE
  8
0
 10
-21.500000
 20
4.054574
 11
-21.500000
 21
4.000001
  0
LINE
  8
0
 10
-7.499997
 20
11.500000
 11
27.500000
 21
11.500000
  0
LINE
  8
0
 10
-7.499996
 20
18.000004
 11
-7.499996
 21
10.842627
  0
LINE
  8
0
 10
-19.999998
 20
18.000000
 11
-7.499994
 21
18.000000
  0
LINE
  8
0
 10
-21.500000
 20
-17.949995
 11
-21.500000
 21
-3.249999
  0
LINE
  8
0
 10
-21.499992
 20
-4.050000
 11
-19.999992
 21
-4.050000
  0
LINE
  8
0
 10
-21.500000
 20
-4.054571
 11
-21.500000
 21
-4.000002
  0
LINE
  8
0
 10
-20.000000
 20
-18.000002
 11
-20.000000
 21
18.000002
  0
LINE
  8
0
 10
27.500000
 20
-11.500002
 11
27.500000
 21
11.500002
  0
LINE
  8
0
 10
-7.499995
 20
-11.500000
 11
27.500004
 21
-11.500000
  0
LINE
  8
0
 10
-7.499996
 20
-18.000002
 11
-7.499996
 21
-10.842622
  0
LINE
  8
0
 10
-19.999994
 20
-18.000000
 11
-7.499991
 21
-18.000000
  0
LINE
  8
0
  6
CENTER
 62
     2
 10
-25.009583
 20
-7.749997
 11
-16.257370
 21
-7.749997
  0
LINE
  8
0
 10
-23.500000
 20
-8.949996
 11
-23.500000
 21
-6.549998
  0
LINE
  8
0
 10
-23.199993
 20
-6.249997
 11
-21.549404
 21
-6.249997
  0
LINE
  8
0
 10
-23.199993
 20
-9.249997
 11
-21.549404
 21
-9.249997
  0
LINE
  8
0
  6
CENTER
 62
     2
 10
-5.499996
 20
8.219995
 11
-5.499996
 21
6.395281
  0
LINE
  8
0
  6
CENTER
 62
     2
 10
-5.499996
 20
-8.204781
 11
-5.499996
 21
-6.427727
  0
LINE
  8
0
 10
-15.499998
 20
17.320511
 11
-7.499994
 21
17.320511
  0
LINE
  8
0
 10
-15.499994
 20
-17.320503
 11
-7.499991
 21
-17.320503
  0
LINE
  8
0
 10
-23.500004
 20
-8.950021
 11
-23.200003
 21
-9.250022
  0
LINE
  8
0
 10
-23.199984
 20
-6.249994
 11
-23.499983
 21
-6.549994
  0
LINE
  8
0
  6
CENTER
 62
     2
 10
-0.852970
 20
8.500000
 11
5.643436
 21
8.500000
  0
LINE
  8
0
 10
-7.499996
 20
-10.842621
 11
27.500004
 21
-10.842621
  0
LINE
  8
0
 10
-7.499997
 20
10.842628
 11
27.500000
 21
10.842628
  0
LINE
  8
0
 10
-21.500000
 20
-4.054571
 11
-21.500000
 21
-4.000002
  0
LINE
  8
0
 10
-21.500000
 20
4.054574
 11
-21.500000
 21
4.000001
  0
LINE
  8
0
  6
CENTER
 62
     2
 10
-5.499996
 20
-8.449417
 11
-5.499996
 21
-3.230990
  0
LINE
  8
0
 10
-23.199997
 20
-9.249999
 11
-23.199997
 21
-6.249999
  0
LINE
  8
0
  6
CENTER
 62
     2
 10
-7.667362
 20
-6.000000
 11
-3.346661
 21
-6.000000
  0
LINE
  8
0
  6
CENTER
 62
     2
 10
-10.499996
 20
-12.626986
 11
-10.499996
 21
-7.353723
  0
LINE
  8
0
  6
CENTER
 62
     2
 10
-13.126167
 20
-10.000000
 11
-8.058279
 21
-10.000000
  0
LINE
  8
0
  6
CENTER
 62
     2
 10
30.060993
 20
0.000000
 11
-22.605675
 21
0.000000
  0
LINE
  8
0
 10
7.990004
 20
15.100006
 11
13.010002
 21
15.100006
  0
LINE
  8
0
 10
13.010002
 20
15.099995
 11
13.010002
 21
11.499996
  0
LINE
  8
0
 10
7.990005
 20
15.100002
 11
7.990005
 21
11.500004
  0
LINE
  8
0
 10
22.510002
 20
15.099997
 11
22.510002
 21
11.499998
  0
LINE
  8
0
 10
17.490005
 20
15.099997
 11
17.490005
 21
11.499998
  0
LINE
  8
0
 10
17.490005
 20
15.100006
 11
22.510002
 21
15.100006
  0
LINE
  8
0
  6
CENTER
 62
     2
 10
20.000004
 20
0.795867
 11
20.000004
 21
-7.928985
  0
LINE
  8
0
  6
CENTER
 62
     2
 10
10.500004
 20
8.178432
 11
10.500004
 21
-1.121684
  0
LINE
  8
0
 10
-21.499992
 20
-3.249997
 11
-19.999992
 21
-3.249997
  0
LINE
  8
0
 10
-21.499990
 20
-17.149998
 11
-19.999990
 21
-17.149998
  0
LINE
  8
0
 10
-21.499990
 20
-17.949993
 11
-20.000000
 21
-17.949993
  0
LINE
  8
0
  6
CENTER
 62
     2
 10
-0.239937
 20
8.500000
 11
5.037445
 21
8.500000
  0
LINE
  8
0
  6
CENTER
 62
     2
 10
2.500004
 20
11.519440
 11
2.500004
 21
5.248291
  0
LINE
  8
0
  6
CENTER
 62
     2
 10
-7.667363
 20
6.000000
 11
-3.465004
 21
6.000000
  0
LINE
  8
0
  6
CENTER
 62
     2
 10
-5.499996
 20
8.449415
 11
-5.499996
 21
3.480435
  0
LINE
  8
0
  6
CENTER
 62
     2
 10
-13.030290
 20
10.000000
 11
-8.058280
 21
10.000000
  0
LINE
  8
0
  6
CENTER
 62
     2
 10
-10.499996
 20
12.588799
 11
-10.499996
 21
7.683117
  0
LINE
  8
0
  6
CENTER
 62
     2
 10
2.500004
 20
-11.519440
 11
2.500004
 21
-5.248291
  0
LINE
  8
0
  6
CENTER
 62
     2
 10
-0.852970
 20
-8.500000
 11
5.643436
 21
-8.500000
  0
LINE
  8
0
 62
     4
 10
27.500000
 20
-6.200012
 11
30.500000
 21
-6.200012
  0
LINE
  8
0
 62
     4
 10
27.500000
 20
-10.800011
 11
30.500000
 21
-10.800011
  0
LINE
  8
0
 62
     4
 10
30.500000
 20
-6.200010
 11
30.500000
 21
-10.800009
  0
LINE
  8
0
 62
     4
 10
27.500000
 20
-9.799988
 11
30.500000
 21
-9.799988
  0
LINE
  8
0
 62
     4
 10
27.500000
 20
-10.350006
 11
30.500000
 21
-10.350006
  0
LINE
  8
0
 62
     4
 10
30.500000
 20
-7.199997
 11
36.749443
 21
-7.199997
  0
LINE
  8
0
 62
     4
 10
30.500000
 20
-9.800003
 11
38.250557
 21
-9.800003
  0
LINE
  8
0
 62
     1
 10
36.250008
 20
-6.334892
 11
38.750008
 21
-10.665019
  0
LINE
  8
0
 62
     1
 10
36.249996
 20
10.665101
 11
38.749996
 21
6.334974
  0
LINE
  8
0
 62
     4
 10
27.500000
 20
9.800003
 11
36.749443
 21
9.800003
  0
LINE
  8
0
 62
     4
 10
27.500000
 20
7.199996
 11
38.250557
 21
7.199996
  0
LINE
  8
0
 10
-21.500000
 20
17.949995
 11
-21.500000
 21
3.249999
  0
LINE
  8
0
 10
-21.499992
 20
4.050000
 11
-19.999992
 21
4.050000
  0
LINE
  8
0
 10
-21.500000
 20
4.054571
 11
-21.500000
 21
4.000002
  0
LINE
  8
0
  6
CENTER
 62
     2
 10
-25.009583
 20
7.749997
 11
-16.257370
 21
7.749997
  0
LINE
  8
0
 10
-23.500000
 20
8.949996
 11
-23.500000
 21
6.549998
  0
LINE
  8
0
 10
-23.199993
 20
6.249997
 11
-21.549404
 21
6.249997
  0
LINE
  8
0
 10
-23.199993
 20
9.249997
 11
-21.549404
 21
9.249997
  0
LINE
  8
0
 10
-23.500004
 20
8.950021
 11
-23.200003
 21
9.250022
  0
LINE
  8
0
 10
-23.199982
 20
6.249994
 11
-23.499981
 21
6.549994
  0
LINE
  8
0
 10
-21.500000
 20
4.054571
 11
-21.500000
 21
4.000002
  0
LINE
  8
0
 10
-23.199997
 20
9.249999
 11
-23.199997
 21
6.249999
  0
LINE
  8
0
 10
-21.499992
 20
3.249997
 11
-19.999992
 21
3.249997
  0
LINE
  8
0
 10
-21.499990
 20
17.149998
 11
-19.999990
 21
17.149998
  0
LINE
  8
0
 10
-21.499990
 20
17.949993
 11
-20.000000
 21
17.949993
  0
LINE
  8
0
 10
-118.717743
 20
18.000000
 11
-101.282242
 21
18.000000
  0
LINE
  8
0
 10
-118.717804
 20
-18.000015
 11
-101.282181
 21
-18.000015
  0
LINE
  8
0
  6
CENTER
 62
     2
 10
-110.000000
 20
21.470573
 11
-110.000000
 21
-20.969963
  0
LINE
  8
0
 10
-100.000008
 20
17.320505
 11
-100.000008
 21
-17.320517
  0
LINE
  8
0
 10
-120.000000
 20
17.320503
 11
-120.000000
 21
-17.320518
  0
LINE
  8
0
 10
-101.500008
 20
17.999994
 11
-101.500008
 21
-18.000021
  0
LINE
  8
0
 10
-118.500000
 20
17.999992
 11
-118.500000
 21
-18.000023
  0
LINE
  8
0
 10
-113.500000
 20
17.949986
 11
-113.500000
 21
3.249990
  0
LINE
  8
0
 10
-106.500008
 20
17.949987
 11
-106.500008
 21
3.249990
  0
LINE
  8
0
 10
-113.499992
 20
-4.050000
 11
-106.499992
 21
-4.050000
  0
LINE
  8
0
 10
-113.499992
 20
4.050000
 11
-106.499992
 21
4.050000
  0
LINE
  8
0
  6
CENTER
 62
     2
 10
-112.706093
 20
7.749997
 11
-107.233253
 21
7.749997
  0
LINE
  8
0
  6
CENTER
 62
     2
 10
-112.608360
 20
-7.749997
 11
-107.233253
 21
-7.749997
  0
LINE
  8
0
  6
CENTER
 62
     2
 10
-112.608360
 20
12.749997
 11
-107.233253
 21
12.749997
  0
LINE
  8
0
  6
CENTER
 62
     2
 10
-112.608360
 20
-12.749997
 11
-107.135521
 21
-12.749997
  0
LINE
  8
0
  6
CENTER
 62
     2
 10
-97.851242
 20
0.000000
 11
-121.892639
 21
0.000000
  0
LINE
  8
0
 10
-114.000000
 20
17.999992
 11
-114.000000
 21
-18.000023
  0
LINE
  8
0
 10
-106.000008
 20
17.999994
 11
-106.000008
 21
-18.000023
  0
LINE
  8
0
 10
-113.500000
 20
-3.250004
 11
-113.500000
 21
-17.950016
  0
LINE
  8
0
 10
-106.500008
 20
-3.250004
 11
-106.500008
 21
-17.950016
  0
LINE
  8
0
 10
-113.499992
 20
-3.249997
 11
-106.499992
 21
-3.249997
  0
LINE
  8
0
 10
-113.499992
 20
17.149990
 11
-106.499992
 21
17.149990
  0
LINE
  8
0
 10
-113.499992
 20
-17.150021
 11
-106.499992
 21
-17.150021
  0
LINE
  8
0
 10
-113.499992
 20
17.949993
 11
-106.499992
 21
17.949993
  0
LINE
  8
0
 10
-113.499992
 20
-17.950008
 11
-106.499992
 21
-17.950008
  0
LINE
  8
0
 10
-113.499992
 20
3.249996
 11
-106.499992
 21
3.249996
  0
LINE
  8
0
  6
CENTER
 62
     2
 10
110.000000
 20
20.597813
 11
110.000000
 21
-20.195534
  0
LINE
  8
0
 10
100.000008
 20
17.320515
 11
100.000008
 21
-17.320503
  0
LINE
  8
0
 10
120.000000
 20
17.320515
 11
120.000000
 21
-17.320503
  0
LINE
  8
0
 10
100.763535
 20
-11.500000
 11
119.236481
 21
-11.500000
  0
LINE
  8
0
 10
100.763535
 20
11.500001
 11
119.236481
 21
11.500001
  0
LINE
  8
0
  6
CENTER
 62
     2
 10
112.524345
 20
-8.500000
 11
117.340714
 21
-8.500000
  0
LINE
  8
0
  6
CENTER
 62
     2
 10
102.583588
 20
8.500001
 11
107.182648
 21
8.500001
  0
LINE
  8
0
 10
111.600006
 20
11.491385
 11
111.600006
 21
10.420939
  0
LINE
  8
0
 10
108.400009
 20
11.500007
 11
108.400009
 21
10.420939
  0
LINE
  8
0
  6
CENTER
 62
     2
 10
105.000008
 20
10.836604
 11
105.000008
 21
6.047869
  0
LINE
  8
0
  6
CENTER
 62
     2
 10
115.000000
 20
-5.871446
 11
115.000000
 21
-10.889146
  0
LINE
  8
0
 10
101.282211
 20
18.000000
 11
118.717804
 21
18.000000
  0
LINE
  8
0
 10
101.282211
 20
-18.000000
 11
118.717804
 21
-18.000000
  0
LINE
  8
0
  6
CENTER
 62
     2
 10
122.911285
 20
0.000000
 11
96.936691
 21
0.000000
  0
LINE
  8
0
 10
102.599998
 20
14.374999
 11
102.599998
 21
11.500003
  0
LINE
  8
0
 10
108.399994
 20
14.375003
 11
108.399994
 21
11.500003
  0
LINE
  8
0
 10
117.399994
 20
14.375005
 11
117.399994
 21
11.500005
  0
LINE
  8
0
 10
111.600006
 20
14.375003
 11
111.600006
 21
11.500003
  0
LINE
  8
0
 10
103.324997
 20
15.100007
 11
105.099991
 21
15.100007
  0
LINE
  8
0
 10
105.900002
 20
15.100001
 11
105.900002
 21
13.600001
  0
LINE
  8
0
 10
105.099998
 20
15.100001
 11
105.099998
 21
13.600001
  0
LINE
  8
0
 10
114.899994
 20
15.100003
 11
114.899994
 21
13.600003
  0
LINE
  8
0
 10
114.100006
 20
15.100001
 11
114.100006
 21
13.600001
  0
LINE
  8
0
 10
105.099991
 20
13.600007
 11
105.899994
 21
13.600007
  0
LINE
  8
0
 10
112.325012
 20
15.100007
 11
114.073067
 21
15.100007
  0
LINE
  8
0
 10
114.100006
 20
13.600007
 11
114.899994
 21
13.600007
  0
LINE
  8
0
 10
114.899994
 20
15.100007
 11
116.674988
 21
15.100007
  0
LINE
  8
0
 10
106.949997
 20
14.375003
 11
106.949997
 21
11.500003
  0
LINE
  8
0
 10
104.050003
 20
14.374999
 11
104.050003
 21
11.500003
  0
LINE
  8
0
 10
113.050003
 20
14.375003
 11
113.050003
 21
11.500003
  0
LINE
  8
0
 10
115.949997
 20
14.375005
 11
115.949997
 21
11.500005
  0
LINE
  8
0
 10
105.899994
 20
15.100007
 11
107.674988
 21
15.100007
  0
LINE
  8
0
  6
CENTER
 62
     2
 10
112.844162
 20
-14.999999
 11
107.372322
 21
-14.999999
  0
LINE
  8
0
  6
CENTER
 62
     2
 10
112.179398
 20
15.000001
 11
107.673706
 21
15.000001
  0
LINE
  8
0
 62
     4
 10
112.050049
 20
9.800036
 11
111.500053
 21
10.350029
  0
LINE
  8
0
 62
     4
 10
111.500000
 20
10.799994
 11
111.500000
 21
10.349998
  0
LINE
  8
0
 62
     4
 10
111.500000
 20
10.799989
 11
109.758141
 21
10.799989
  0
LINE
  8
0
 62
     4
 10
108.500000
 20
10.799994
 11
108.500000
 21
10.349998
  0
LINE
  8
0
 62
     4
 10
107.950012
 20
9.800041
 11
108.500008
 21
10.350039
  0
LINE
  8
0
 62
     4
 10
111.250000
 20
11.299994
 11
111.250000
 21
10.799994
  0
LINE
  8
0
 62
     4
 10
108.750000
 20
11.299994
 11
108.750000
 21
10.799994
  0
LINE
  8
0
 62
     4
 10
111.250000
 20
11.299989
 11
108.750000
 21
11.299989
  0
LINE
  8
0
 62
     4
 10
112.050056
 20
9.800033
 11
112.050056
 21
8.250033
  0
LINE
  8
0
 62
     4
 10
107.949944
 20
9.800033
 11
107.949944
 21
8.250033
  0
LINE
  8
0
 62
     4
 10
109.676445
 20
10.799989
 11
108.500000
 21
10.799989
  0
LINE
  8
0
 10
111.600006
 20
-11.491372
 11
111.600006
 21
-10.420926
  0
LINE
  8
0
 10
108.400009
 20
-11.499993
 11
108.400009
 21
-10.420926
  0
LINE
  8
0
 62
     4
 10
112.050041
 20
-9.799995
 11
111.500046
 21
-10.349990
  0
LINE
  8
0
 62
     4
 10
111.500000
 20
-10.799981
 11
111.500000
 21
-10.349984
  0
LINE
  8
0
 62
     4
 10
111.500000
 20
-10.799988
 11
109.758141
 21
-10.799988
  0
LINE
  8
0
 62
     4
 10
108.500000
 20
-10.799981
 11
108.500000
 21
-10.349984
  0
LINE
  8
0
 62
     4
 10
107.950012
 20
-9.800035
 11
108.500008
 21
-10.350025
  0
LINE
  8
0
 62
     4
 10
111.250000
 20
-11.299981
 11
111.250000
 21
-10.799981
  0
LINE
  8
0
 62
     4
 10
108.750000
 20
-11.299981
 11
108.750000
 21
-10.799981
  0
LINE
  8
0
 62
     4
 10
112.050056
 20
-9.800019
 11
112.050056
 21
-8.250020
  0
LINE
  8
0
 62
     4
 10
107.949944
 20
-9.800019
 11
107.949944
 21
-8.250020
  0
LINE
  8
0
 62
     4
 10
109.676445
 20
-10.799988
 11
108.500000
 21
-10.799988
  0
LINE
  8
0
 62
     4
 10
111.250000
 20
-11.299988
 11
108.750000
 21
-11.299988
  0
LINE
  8
0
 10
103.500008
 20
-13.000012
 11
102.200974
 21
-13.750014
  0
LINE
  8
0
 10
102.200966
 20
-13.750000
 11
102.200966
 21
-15.250000
  0
LINE
  8
0
 10
103.499992
 20
-15.999994
 11
102.200943
 21
-15.249992
  0
LINE
  8
0
 10
104.799034
 20
-15.249995
 11
103.499992
 21
-15.999993
  0
LINE
  8
0
 10
104.799042
 20
-13.750000
 11
104.799042
 21
-15.250000
  0
LINE
  8
0
 10
103.500000
 20
-13.000003
 11
104.799042
 21
-13.750001
  0
LINE
  8
0
 10
115.200958
 20
-15.250000
 11
116.499992
 21
-16.000002
  0
LINE
  8
0
 10
116.500008
 20
-16.000008
 11
117.799049
 21
-15.250009
  0
LINE
  8
0
 10
117.799034
 20
-13.750000
 11
117.799034
 21
-15.250000
  0
LINE
  8
0
 10
116.500000
 20
-12.999994
 11
117.799034
 21
-13.749992
  0
LINE
  8
0
 10
116.500000
 20
-13.000005
 11
115.200966
 21
-13.750007
  0
LINE
  8
0
 10
115.200958
 20
-13.750000
 11
115.200958
 21
-15.250000
  0
LINE
  8
0
 10
104.799034
 20
15.249995
 11
103.499992
 21
15.999993
  0
LINE
  8
0
 10
103.499992
 20
15.999987
 11
102.200958
 21
15.249986
  0
LINE
  8
0
 10
102.200966
 20
13.749999
 11
102.200966
 21
15.250000
  0
LINE
  8
0
 10
102.599998
 20
13.519613
 11
102.200958
 21
13.749997
  0
LINE
  8
0
 10
104.799042
 20
15.100007
 11
104.799042
 21
15.250000
  0
LINE
  8
0
 10
115.200958
 20
15.250000
 11
116.499992
 21
16.000002
  0
LINE
  8
0
 10
116.500008
 20
16.000008
 11
117.799049
 21
15.250009
  0
LINE
  8
0
 10
117.799034
 20
13.749999
 11
117.799034
 21
15.250000
  0
LINE
  8
0
 10
115.200958
 20
15.100007
 11
115.200958
 21
15.250000
  0
LINE
  8
0
 10
117.399994
 20
13.519611
 11
117.799042
 21
13.749999
  0
LINE
  8
0
 10
-7.499996
 20
89.999985
 11
-7.499996
 21
69.999992
  0
LINE
  8
0
 10
-20.000000
 20
71.499992
 11
-20.000000
 21
76.500000
  0
LINE
  8
0
  6
CENTER
 62
     2
 10
-26.000471
 20
80.000000
 11
40.499992
 21
80.000000
  0
LINE
  8
0
 10
-23.500000
 20
78.799995
 11
-23.500000
 21
81.199997
  0
LINE
  8
0
 10
-23.199999
 20
78.500000
 11
-21.499998
 21
78.500000
  0
LINE
  8
0
 10
-21.499998
 20
76.500000
 11
-19.000006
 21
76.500000
  0
LINE
  8
0
 10
-19.999998
 20
71.499992
 11
-13.578652
 21
71.499992
  0
LINE
  8
0
 10
-15.500000
 20
69.999992
 11
-15.500000
 21
71.499992
  0
LINE
  8
0
 10
-15.500000
 20
69.999992
 11
27.500000
 21
69.999992
  0
LINE
  8
0
 10
27.500000
 20
69.999992
 11
27.500000
 21
78.699989
  0
LINE
  8
0
 10
-15.500002
 20
89.999985
 11
27.500000
 21
89.999985
  0
LINE
  8
0
 10
-15.500000
 20
88.499985
 11
-15.500000
 21
89.999985
  0
LINE
  8
0
 10
-19.999998
 20
88.499985
 11
-13.500010
 21
88.499985
  0
LINE
  8
0
 10
-20.000000
 20
83.499977
 11
-20.000000
 21
88.499985
  0
LINE
  8
0
 10
-21.499998
 20
83.499977
 11
-19.000002
 21
83.499977
  0
LINE
  8
0
 10
-21.500000
 20
76.500000
 11
-21.500000
 21
83.499977
  0
LINE
  8
0
 10
-23.199999
 20
81.500000
 11
-21.499998
 21
81.500000
  0
LINE
  8
0
 10
-13.500000
 20
71.499992
 11
-13.500000
 21
88.499985
  0
LINE
  8
0
 10
2.055937
 20
78.399994
 11
27.500000
 21
78.399994
  0
LINE
  8
0
 10
2.055937
 20
81.599991
 11
27.499992
 21
81.599991
  0
LINE
  8
0
 10
-15.500000
 20
76.500000
 11
-15.500000
 21
83.499977
  0
LINE
  8
0
 10
-16.999998
 20
83.499977
 11
-15.499998
 21
83.499977
  0
LINE
  8
0
 10
-16.999998
 20
76.500000
 11
-15.499998
 21
76.500000
  0
LINE
  8
0
  6
CENTER
 62
     2
 10
10.500004
 20
71.550278
 11
10.500004
 21
79.730598
  0
LINE
  8
0
  6
CENTER
 62
     2
 10
16.178574
 20
84.500008
 11
23.801460
 21
84.500008
  0
LINE
  8
0
  6
CENTER
 62
     2
 10
6.307917
 20
75.500000
 11
14.419449
 21
75.500000
  0
LINE
  8
0
  6
CENTER
 62
     2
 10
20.000008
 20
80.587479
 11
20.000008
 21
88.385017
  0
LINE
  8
0
 10
-15.499998
 20
88.720016
 11
-7.499998
 21
88.720016
  0
LINE
  8
0
 10
-15.499998
 20
71.279991
 11
-7.499997
 21
71.279991
  0
LINE
  8
0
 10
-7.500002
 20
88.884995
 11
27.500000
 21
88.884995
  0
LINE
  8
0
 10
-7.500001
 20
71.114998
 11
27.500000
 21
71.114998
  0
LINE
  8
0
 10
-23.500092
 20
81.200081
 11
-23.200092
 21
81.500092
  0
LINE
  8
0
 10
-23.499935
 20
78.800034
 11
-23.199936
 21
78.500031
  0
LINE
  8
0
 10
-23.199989
 20
78.500000
 11
-23.199989
 21
81.500000
  0
LINE
  8
0
 10
-20.500000
 20
76.500000
 11
-20.500000
 21
83.499977
  0
LINE
  8
0
 10
20.000021
 20
87.399986
 11
17.488548
 21
85.949982
  0
LINE
  8
0
 10
17.488533
 20
85.949989
 11
17.488533
 21
83.050003
  0
LINE
  8
0
 10
19.999985
 20
81.599968
 11
17.488510
 21
83.049965
  0
LINE
  8
0
 10
22.511478
 20
83.049988
 11
20.000011
 21
81.599983
  0
LINE
  8
0
 10
22.511475
 20
85.949989
 11
22.511475
 21
83.050003
  0
LINE
  8
0
 10
19.999964
 20
87.399994
 11
22.511436
 21
85.949989
  0
LINE
  8
0
 10
10.491110
 20
78.442444
 11
7.979641
 21
76.992455
  0
LINE
  8
0
 10
7.979626
 20
76.992470
 11
7.979626
 21
74.092468
  0
LINE
  8
0
 10
10.491095
 20
72.642433
 11
7.979620
 21
74.092438
  0
LINE
  8
0
 10
13.002580
 20
74.092407
 11
10.491095
 21
72.642403
  0
LINE
  8
0
 10
13.002579
 20
76.992455
 11
13.002579
 21
74.092453
  0
LINE
  8
0
 10
10.491083
 20
78.442436
 11
13.002554
 21
76.992432
  0
LINE
  8
0
 10
17.488525
 20
84.900002
 11
22.511475
 21
84.900002
  0
LINE
  8
0
 10
17.488525
 20
84.100006
 11
22.511475
 21
84.100006
  0
LINE
  8
0
 10
7.979620
 20
75.099998
 11
13.002571
 21
75.099998
  0
LINE
  8
0
 10
7.979620
 20
75.900002
 11
13.002571
 21
75.900002
  0
LINE
  8
0
 62
     4
 10
3.055946
 20
81.599991
 11
3.055946
 21
78.399994
  0
LINE
  8
0
 62
     4
 10
25.055946
 20
81.599991
 11
25.055946
 21
78.399994
  0
LINE
  8
0
 62
     4
 10
4.021693
 20
79.297981
 11
5.757965
 21
81.034248
  0
LINE
  8
0
 62
     4
 10
4.379614
 20
78.948776
 11
6.107169
 21
80.676331
  0
LINE
  8
0
 62
     4
 10
25.055939
 20
81.299995
 11
36.749443
 21
81.299995
  0
LINE
  8
0
 62
     4
 10
25.055939
 20
78.699989
 11
38.250565
 21
78.699989
  0
LINE
  8
0
 62
     1
 10
36.250004
 20
82.165123
 11
38.750004
 21
77.834999
  0
LINE
  8
0
 10
27.500000
 20
81.299995
 11
27.500000
 21
89.999985
  0
LINE
  8
0
 10
-20.000000
 20
-71.500000
 11
-20.000000
 21
-76.500000
  0
LINE
  8
0
  6
CENTER
 62
     2
 10
-24.423323
 20
-80.000000
 11
40.500008
 21
-80.000000
  0
LINE
  8
0
 10
-7.499996
 20
-70.000000
 11
-7.499996
 21
-90.000008
  0
LINE
  8
0
 10
-23.500000
 20
-78.799995
 11
-23.500000
 21
-81.199997
  0
LINE
  8
0
 10
-23.199989
 20
-78.500000
 11
-21.499989
 21
-78.500000
  0
LINE
  8
0
 10
-21.499989
 20
-76.500000
 11
-18.999996
 21
-76.500000
  0
LINE
  8
0
 10
-19.999989
 20
-71.500000
 11
-13.578644
 21
-71.500000
  0
LINE
  8
0
 10
-15.500000
 20
-70.000000
 11
-15.500000
 21
-71.500000
  0
LINE
  8
0
 10
-15.499992
 20
-70.000000
 11
27.500008
 21
-70.000000
  0
LINE
  8
0
 10
27.500000
 20
-70.000008
 11
27.500000
 21
-78.399994
  0
LINE
  8
0
 10
-15.499994
 20
-90.000008
 11
27.500008
 21
-90.000008
  0
LINE
  8
0
 10
-15.500000
 20
-88.500008
 11
-15.500000
 21
-90.000008
  0
LINE
  8
0
 10
-19.999990
 20
-88.500008
 11
-13.499990
 21
-88.500008
  0
LINE
  8
0
 10
-20.000000
 20
-83.500000
 11
-20.000000
 21
-88.500008
  0
LINE
  8
0
 10
-21.499987
 20
-83.500000
 11
-18.999994
 21
-83.500000
  0
LINE
  8
0
 10
-21.500000
 20
-76.500000
 11
-21.500000
 21
-83.500000
  0
LINE
  8
0
 10
-23.199987
 20
-81.500000
 11
-21.499987
 21
-81.500000
  0
LINE
  8
0
 10
-13.500000
 20
-71.500000
 11
-13.500000
 21
-88.500008
  0
LINE
  8
0
 10
2.055946
 20
-78.399994
 11
27.500008
 21
-78.399994
  0
LINE
  8
0
 10
2.055948
 20
-81.600006
 11
27.500008
 21
-81.600006
  0
LINE
  8
0
 10
-15.500000
 20
-76.500000
 11
-15.500000
 21
-83.500000
  0
LINE
  8
0
 10
-16.999987
 20
-83.500000
 11
-15.499987
 21
-83.500000
  0
LINE
  8
0
 10
-16.999989
 20
-76.500000
 11
-15.499989
 21
-76.500000
  0
LINE
  8
0
  6
CENTER
 62
     2
 10
7.500004
 20
-71.338730
 11
7.500004
 21
-76.657600
  0
LINE
  8
0
  6
CENTER
 62
     2
 10
4.939726
 20
-86.000000
 11
9.782179
 21
-86.000000
  0
LINE
  8
0
  6
CENTER
 62
     2
 10
4.939724
 20
-74.000000
 11
9.923916
 21
-74.000000
  0
LINE
  8
0
  6
CENTER
 62
     2
 10
7.500004
 20
-83.457169
 11
7.500004
 21
-88.539085
  0
LINE
  8
0
 10
-15.499989
 20
-71.279999
 11
-7.499989
 21
-71.279999
  0
LINE
  8
0
 10
-15.499990
 20
-88.720009
 11
-7.499990
 21
-88.720009
  0
LINE
  8
0
 10
-7.499992
 20
-71.114990
 11
27.500008
 21
-71.114990
  0
LINE
  8
0
 10
-7.499994
 20
-88.885002
 11
27.500008
 21
-88.885002
  0
LINE
  8
0
 10
-23.500023
 20
-78.799950
 11
-23.200027
 21
-78.499954
  0
LINE
  8
0
 10
-23.499912
 20
-81.199905
 11
-23.199911
 21
-81.499908
  0
LINE
  8
0
 10
-23.200027
 20
-81.500000
 11
-23.200027
 21
-78.500000
  0
LINE
  8
0
 10
-20.500000
 20
-76.500000
 11
-20.500000
 21
-83.500000
  0
LINE
  8
0
 62
     4
 10
27.500008
 20
-82.050003
 11
30.500008
 21
-82.050003
  0
LINE
  8
0
 62
     4
 10
27.500008
 20
-77.949997
 11
30.500008
 21
-77.949997
  0
LINE
  8
0
 62
     4
 10
8.500000
 20
-78.399994
 11
8.500000
 21
-81.600006
  0
LINE
  8
0
 62
     4
 10
30.500000
 20
-77.949997
 11
30.500000
 21
-82.050003
  0
LINE
  8
0
 62
     4
 10
9.465778
 20
-80.702057
 11
11.202056
 21
-78.965775
  0
LINE
  8
0
 62
     4
 10
9.823733
 20
-81.051270
 11
11.551287
 21
-79.323715
  0
LINE
  8
0
 62
     4
 10
30.500008
 20
-78.699997
 11
36.749451
 21
-78.699997
  0
LINE
  8
0
 62
     4
 10
30.500008
 20
-81.300003
 11
38.250565
 21
-81.300003
  0
LINE
  8
0
 62
     1
 10
36.249992
 20
-77.834900
 11
38.749992
 21
-82.165031
  0
LINE
  8
0
 62
     4
 10
27.500008
 20
-81.600006
 11
30.500008
 21
-81.600006
  0
LINE
  8
0
 62
     4
 10
27.500008
 20
-78.399994
 11
30.500008
 21
-78.399994
  0
LINE
  8
0
 10
27.500000
 20
-81.600006
 11
27.500000
 21
-90.000023
  0
LINE
  8
0
 10
-194.250000
 20
132.600006
 11
194.800003
 21
132.600006
  0
LINE
  8
0
 10
194.800003
 20
132.600006
 11
194.800003
 21
-133.500000
  0
LINE
  8
0
 10
-194.250000
 20
132.600006
 11
-194.250000
 21
-133.500000
  0
LINE
  8
0
 10
-194.250000
 20
-133.500000
 11
194.800003
 21
-133.500000
  0
LINE
  8
0
 10
109.800003
 20
-118.500000
 11
109.800003
 21
-133.500000
  0
LINE
  8
0
 10
109.800003
 20
-118.500000
 11
194.800003
 21
-118.500000
  0
LINE
  8
0
 10
109.800003
 20
132.600006
 11
109.800003
 21
117.600006
  0
LINE
  8
0
 10
109.800003
 20
117.600006
 11
194.800003
 21
117.600006
  0
LINE
  8
0
 10
-194.250000
 20
117.600006
 11
-109.250000
 21
117.600006
  0
LINE
  8
0
 10
-109.250000
 20
132.600006
 11
-109.250000
 21
117.600006
  0
CIRCLE
  8
0
 10
-10.499997
 20
9.999998
 40
1.250000
  0
CIRCLE
  8
0
 10
-10.499996
 20
-10.000001
 40
1.250000
  0
CIRCLE
  8
0
 10
10.500004
 20
3.500000
 40
1.250000
  0
CIRCLE
  8
0
 10
2.500004
 20
-8.500000
 40
1.650000
  0
CIRCLE
  8
0
 10
2.500002
 20
8.500000
 40
1.650000
  0
CIRCLE
  8
0
 62
     2
 10
-10.499997
 20
9.999998
 40
1.500000
  0
ARC
  8
0
 10
18.745010
 20
13.845003
 40
1.254999
 50
0.000000
 51
179.999954
  0
ARC
  8
0
 10
11.755001
 20
13.845001
 40
1.254999
 50
0.000000
 51
179.999954
  0
CIRCLE
  8
0
  6
DASHED
 62
     2
 10
2.500004
 20
-8.500000
 40
2.000000
  0
ARC
  8
0
 10
9.245005
 20
13.845001
 40
1.254999
 50
0.000000
 51
179.999954
  0
ARC
  8
0
 10
21.255005
 20
13.845003
 40
1.255001
 50
0.000000
 51
179.999954
  0
CIRCLE
  8
0
 62
     2
 10
-10.499996
 20
-10.000001
 40
1.500000
  0
CIRCLE
  8
0
 10
10.500004
 20
3.500000
 40
3.000000
  0
CIRCLE
  8
0
 10
20.000008
 20
-3.499999
 40
3.000000
  0
CIRCLE
  8
0
 62
     2
 10
10.500004
 20
3.500000
 40
1.500000
  0
CIRCLE
  8
0
 62
     2
 10
20.000008
 20
-3.499999
 40
1.500000
  0
CIRCLE
  8
0
  6
DASHED
 62
     2
 10
2.500002
 20
8.500000
 40
2.000000
  0
CIRCLE
  8
0
 10
-5.499997
 20
5.999999
 40
1.250000
  0
CIRCLE
  8
0
 10
-5.499996
 20
-6.000000
 40
1.250000
  0
CIRCLE
  8
0
 10
20.000004
 20
-3.499999
 40
1.250000
  0
CIRCLE
  8
0
 10
-109.999992
 20
-12.750035
 40
1.250000
  0
CIRCLE
  8
0
 10
-109.999992
 20
-7.750034
 40
1.500000
  0
CIRCLE
  8
0
 10
-109.999992
 20
12.749990
 40
1.250000
  0
CIRCLE
  8
0
 10
-109.999992
 20
7.749990
 40
1.500000
  0
CIRCLE
  8
0
 62
     2
 10
-109.999992
 20
-12.750035
 40
1.500000
  0
CIRCLE
  8
0
 62
     2
 10
-109.999992
 20
12.749990
 40
1.500000
  0
ARC
  8
0
 10
-109.999992
 20
-0.000022
 40
20.000000
 50
240.000031
 51
244.158066
  0
ARC
  8
0
 10
-109.999992
 20
-0.000022
 40
19.999998
 50
295.841949
 51
300.000000
  0
ARC
  8
0
 10
-109.999992
 20
-0.000022
 40
20.000000
 50
60.000023
 51
64.158096
  0
ARC
  8
0
 10
-109.999992
 20
-0.000022
 40
20.000002
 50
115.841805
 51
120.000031
  0
ARC
  8
0
 10
-109.999992
 20
-0.000022
 40
19.999998
 50
295.841949
 51
300.000000
  0
ARC
  8
0
 10
116.500000
 20
14.500000
 40
2.500000
 50
291.100037
 51
167.388107
  0
ARC
  8
0
 10
103.500000
 20
14.500000
 40
2.200003
 50
335.852478
 51
245.852203
  0
ARC
  8
0
 10
116.500000
 20
14.500000
 40
2.200000
 50
294.147583
 51
204.147461
  0
CIRCLE
  8
0
 62
     4
 10
110.000000
 20
-8.499993
 40
1.300000
  0
ARC
  8
0
 62
     4
 10
110.000000
 20
-8.250020
 40
2.050003
 50
359.999969
 51
180.000000
  0
CIRCLE
  8
0
 62
     2
 10
110.000000
 20
15.000007
 40
1.500000
  0
CIRCLE
  8
0
 62
     2
 10
110.000000
 20
-15.000001
 40
1.500000
  0
ARC
  8
0
 10
114.500000
 20
13.287507
 40
1.812496
 50
102.749367
 51
143.130127
  0
CIRCLE
  8
0
 62
     2
 10
105.000008
 20
8.500007
 40
1.500000
  0
CIRCLE
  8
0
 62
     2
 10
115.000000
 20
-8.500001
 40
1.500000
  0
CIRCLE
  8
0
 10
110.000000
 20
-0.000001
 40
5.500000
  0
ARC
  8
0
 10
110.000000
 20
-0.000001
 40
20.000000
 50
115.841949
 51
120.000023
  0
ARC
  8
0
 10
110.000000
 20
-0.000001
 40
20.000000
 50
60.000000
 51
64.158073
  0
ARC
  8
0
 10
110.000000
 20
-0.000001
 40
20.000000
 50
295.841919
 51
300.000000
  0
ARC
  8
0
 10
110.000000
 20
-0.000001
 40
20.000002
 50
239.999985
 51
244.158051
  0
ARC
  8
0
 10
110.000000
 20
-0.000001
 40
14.750002
 50
128.770462
 51
132.684937
  0
ARC
  8
0
 10
110.000000
 20
-0.000001
 40
14.749999
 50
227.315079
 51
231.229538
  0
ARC
  8
0
 10
110.000000
 20
-0.000001
 40
14.749999
 50
308.770447
 51
312.684906
  0
ARC
  8
0
 10
110.000000
 20
-0.000001
 40
14.750001
 50
47.315090
 51
51.229565
  0
ARC
  8
0
 10
107.674988
 20
14.375007
 40
0.724998
 50
0.000000
 51
179.999924
  0
ARC
  8
0
 10
112.325012
 20
14.374999
 40
0.724998
 50
0.000000
 51
179.999924
  0
ARC
  8
0
 10
116.674988
 20
14.375001
 40
0.724998
 50
0.000000
 51
179.999924
  0
ARC
  8
0
 10
103.324997
 20
14.374999
 40
0.725006
 50
0.000000
 51
179.999924
  0
ARC
  8
0
 10
105.500000
 20
13.287513
 40
1.812493
 50
36.869778
 51
77.250359
  0
ARC
  8
0
 10
105.500000
 20
13.287513
 40
1.812494
 50
102.749641
 51
143.130219
  0
ARC
  8
0
 10
114.500000
 20
13.287507
 40
1.812496
 50
36.869896
 51
77.250633
  0
CIRCLE
  8
0
 10
110.000000
 20
15.000007
 40
1.250000
  0
CIRCLE
  8
0
 10
105.000008
 20
8.500007
 40
1.250000
  0
CIRCLE
  8
0
 10
115.000000
 20
-8.499993
 40
1.250000
  0
CIRCLE
  8
0
 10
110.000000
 20
-14.999993
 40
1.250000
  0
CIRCLE
  8
0
 62
     4
 10
110.000000
 20
8.500007
 40
1.300000
  0
ARC
  8
0
 62
     4
 10
110.000000
 20
8.250033
 40
2.050003
 50
179.999954
 51
0.000000
  0
ARC
  8
0
 10
110.000000
 20
8.500007
 40
2.500001
 50
126.869888
 51
53.130104
  0
ARC
  8
0
 10
110.000000
 20
-8.499993
 40
2.500001
 50
306.869873
 51
233.130096
  0
CIRCLE
  8
0
 10
103.500000
 20
-14.500000
 40
2.500000
  0
CIRCLE
  8
0
 10
103.500000
 20
-14.500000
 40
2.200000
  0
CIRCLE
  8
0
 10
116.500000
 20
-14.500000
 40
2.500000
  0
CIRCLE
  8
0
 10
116.500000
 20
-14.500000
 40
2.200000
  0
ARC
  8
0
 10
103.500000
 20
14.500000
 40
2.500003
 50
13.886691
 51
248.899765
  0
ARC
  8
0
 10
-18.000002
 20
76.499992
 40
1.000000
 50
180.000000
 51
0.000000
  0
ARC
  8
0
 10
-18.000002
 20
83.499977
 40
1.000000
 50
0.000000
 51
180.000000
  0
ARC
  8
0
 10
2.055937
 20
79.999992
 40
1.599998
 50
89.999924
 51
270.000000
  0
CIRCLE
  8
0
 62
     4
 10
5.055952
 20
79.999992
 40
1.400000
  0
CIRCLE
  8
0
 62
     4
 10
5.055952
 20
79.999992
 40
1.250000
  0
CIRCLE
  8
0
 10
10.499998
 20
75.499992
 40
3.000000
  0
CIRCLE
  8
0
 10
20.000000
 20
84.500008
 40
3.000000
  0
CIRCLE
  8
0
 10
7.500011
 20
-74.000000
 40
1.250000
  0
CIRCLE
  8
0
 10
7.500013
 20
-86.000000
 40
1.250000
  0
CIRCLE
  8
0
 62
     2
 10
7.500008
 20
-74.000000
 40
1.500000
  0
CIRCLE
  8
0
 62
     4
 10
10.500025
 20
-80.000000
 40
1.400000
  0
CIRCLE
  8
0
 62
     4
 10
10.500025
 20
-80.000000
 40
1.250000
  0
CIRCLE
  8
0
 62
     2
 10
7.500006
 20
-86.000000
 40
1.500000
  0
ARC
  8
0
 10
2.055946
 20
-80.000000
 40
1.599998
 50
89.999985
 51
270.000000
  0
ARC
  8
0
 10
-17.999996
 20
-76.500000
 40
1.000000
 50
0.000000
 51
180.000000
  0
ARC
  8
0
 10
-17.999994
 20
-83.500000
 40
1.000000
 50
180.000000
 51
0.000000
  0
TEXT
  8
0
 10
133.907150
 20
122.050003
 40
4.500000
  1
Ver. 1.0
 50
0.000000
 41
1.052631
 51
0.000000
  7
STANDARD
  0
TEXT
  8
0
 10
113.700279
 20
-130.669998
 40
6.300000
  1
KOGANEI CORP.
 50
0.000000
 41
1.052632
 51
0.000000
  7
STANDARD
  0
TEXT
  8
0
 10
-170.142654
 20
122.050003
 40
4.500000
  1
AIR HAND
 50
0.000000
 41
1.052632
 51
0.000000
  7
STANDARD
  0
TEXT
  8
0
 10
-159.892654
 20
97.550003
 40
4.500000
  1
NHBRPG-10-ZE135A2
 50
0.000000
 41
1.052632
 51
0.000000
  7
STANDARD
  0
TEXT
  8
0
 10
-186.892654
 20
104.550003
 40
4.500000
  1
MODEL:NHBDPG-10-ZE135A2
 50
0.000000
 41
1.052632
 51
0.000000
  7
STANDARD
  0
ENDSEC
  0
EOF
