  0
SECTION
  2
HEADER
  0
ENDSEC
  0
SECTION
  2
TABLES
  0
TABLE
  2
LTYPE
 70
     4
  0
LTYPE
  2
CONTINUOUS
 70
    64
  3
Solid line
 72
    65
 73
     0
 40
0.000000
  0
LTYPE
  2
DASHED
 70
    64
  3
__ __ __ __ __ __ __ __ __ __ __ __ __ __ __
 72
    65
 73
     2
 40
3.500000
 49
2.000000
 49
-1.500000
  0
LTYPE
  2
CENTER
 70
    64
  3
____ _ ____ _ ____ _ ____ _ ____ _ ____ _ ____
 72
    65
 73
     4
 40
17.500000
 49
13.000000
 49
-1.500000
 49
1.500000
 49
-1.500000
  0
LTYPE
  2
PHANTOM
 70
    64
  3
_____ _ _ _____ _ _ _____ _ _ _____ _ _ ____  
 72
    65
 73
     6
 40
15.500000
 49
8.000000
 49
-1.500000
 49
1.500000
 49
-1.500000
 49
1.500000
 49
-1.500000
  0
LTYPE
  2
DASHED1
 70
    64
  3
__ __ __ __ __ __ __ __ __ __ __ __ __ __ __
 72
    65
 73
     2
 40
1.500000
 49
1.000000
 49
-0.500000
  0
LTYPE
  2
DASHED2
 70
    64
  3
__ __ __ __ __ __ __ __ __ __ __ __ __ __ __
 72
    65
 73
     2
 40
3.500000
 49
2.500000
 49
-1.000000
  0
LTYPE
  2
DASHED3
 70
    64
  3
__ __ __ __ __ __ __ __ __ __ __ __ __ __ __
 72
    65
 73
     2
 40
6.000000
 49
4.000000
 49
-2.000000
  0
LTYPE
  2
DASHED4
 70
    64
  3
__ __ __ __ __ __ __ __ __ __ __ __ __ __ __
 72
    65
 73
     2
 40
12.000000
 49
10.000000
 49
-2.000000
  0
LTYPE
  2
DASHED5
 70
    64
  3
__ __ __ __ __ __ __ __ __ __ __ __ __ __ __
 72
    65
 73
     2
 40
17.000000
 49
15.000000
 49
-2.000000
  0
LTYPE
  2
DASHED6
 70
    64
  3
__ __ __ __ __ __ __ __ __ __ __ __ __ __ __
 72
    65
 73
     2
 40
29.000000
 49
27.000000
 49
-2.000000
  0
LTYPE
  2
PHANTOM1
 70
    64
  3
_____ _ _ _____ _ _ _____ _ _ _____ _ _ ____  
 72
    65
 73
     6
 40
31.000000
 49
25.000000
 49
-1.500000
 49
1.000000
 49
-1.000000
 49
1.000000
 49
-1.500000
  0
LTYPE
  2
PHANTOM2
 70
    64
  3
_____ _ _ _____ _ _ _____ _ _ _____ _ _ ____  
 72
    65
 73
     6
 40
36.000000
 49
27.000000
 49
-1.500000
 49
2.500000
 49
-1.000000
 49
2.500000
 49
-1.500000
  0
LTYPE
  2
PHANTOM3
 70
    64
  3
_____ _ _ _____ _ _ _____ _ _ _____ _ _ ____  
 72
    65
 73
     6
 40
78.000000
 49
64.000000
 49
-2.000000
 49
4.000000
 49
-2.000000
 49
4.000000
 49
-2.000000
  0
LTYPE
  2
CENTER1
 70
    64
  3
____ _ ____ _ ____ _ ____ _ ____ _ ____ _ ____
 72
    65
 73
     4
 40
19.000000
 49
14.000000
 49
-1.000000
 49
3.000000
 49
-1.000000
  0
LTYPE
  2
CENTER2
 70
    64
  3
____ _ ____ _ ____ _ ____ _ ____ _ ____ _ ____
 72
    65
 73
     4
 40
28.500000
 49
25.000000
 49
-1.000000
 49
1.500000
 49
-1.000000
  0
LTYPE
  2
CENTER3
 70
    64
  3
____ _ ____ _ ____ _ ____ _ ____ _ ____ _ ____
 72
    65
 73
     4
 40
31.500000
 49
27.000000
 49
-1.000000
 49
2.500000
 49
-1.000000
  0
LTYPE
  2
CENTER4
 70
    64
  3
____ _ ____ _ ____ _ ____ _ ____ _ ____ _ ____
 72
    65
 73
     4
 40
50.000000
 49
45.000000
 49
-1.000000
 49
3.000000
 49
-1.000000
  0
LTYPE
  2
CENTER5
 70
    64
  3
____ _ ____ _ ____ _ ____ _ ____ _ ____ _ ____
 72
    65
 73
     4
 40
100.000000
 49
92.000000
 49
-2.000000
 49
4.000000
 49
-2.000000
  0
LTYPE
  2
SBK1
 70
    64
  3
______ _ _ _ ______ _ _ _ ______ _ _ _ _____  
 72
    65
 73
     8
 40
60.500000
 49
45.000000
 49
-2.000000
 49
2.500000
 49
-2.000000
 49
2.500000
 49
-2.000000
 49
2.500000
 49
-2.000000
  0
LTYPE
  2
SBK2
 70
    64
  3
______ _ _ _ ______ _ _ _ ______ _ _ _ _____  
 72
    65
 73
     8
 40
84.000000
 49
64.000000
 49
-2.000000
 49
4.000000
 49
-2.000000
 49
4.000000
 49
-2.000000
 49
4.000000
 49
-2.000000
  0
LTYPE
  2
STCH
 70
    64
  3
__ __ __ __ __ __ __ __ __ __ __ __ __ __ __
 72
    65
 73
     2
 40
3.000000
 49
1.000000
 49
-2.000000
  0
LTYPE
  2
MTCH
 70
    64
  3
_____ _ _ _____ _ _ _____ _ _ _____ _ _ ____  
 72
    65
 73
     6
 40
80.000000
 49
66.000000
 49
-2.000000
 49
4.000000
 49
-2.000000
 49
4.000000
 49
-2.000000
  0
ENDTAB
  0
TABLE
  2
LAYER
 70
     1
  0
LAYER
  2
0
 70
     0
 62
     7
  6
CONTINUOUS
  0
ENDTAB
  0
TABLE
  2
STYLE
 70
     1
  0
STYLE
  2
STANDARD
 70
     0
 40
0.000000
 41
1.000000
 50
0.000000
 71
     0
 42
0.200000
  3
txt
  4
BIGFONT
  0
ENDTAB
  0
TABLE
  2
VIEW
 70
     0
  0
ENDTAB
  0
ENDSEC
  0
SECTION
  2
BLOCKS
  0
ENDSEC
  0
SECTION
  2
ENTITIES
  0
LINE
  8
0
 10
23.799999
 20
17.000008
 11
23.799999
 21
-16.999994
  0
LINE
  8
0
 10
-15.199999
 20
-16.999998
 11
23.800003
 21
-16.999998
  0
LINE
  8
0
 10
-15.200001
 20
-15.599837
 11
-15.200001
 21
-24.999998
  0
LINE
  8
0
 10
-32.200001
 20
25.000004
 11
-32.200001
 21
5.000000
  0
LINE
  8
0
 10
-15.200001
 20
25.000006
 11
-15.200001
 21
15.475194
  0
LINE
  8
0
 10
-15.200003
 20
17.000004
 11
23.799995
 21
17.000004
  0
LINE
  8
0
 10
-24.200001
 20
25.000004
 11
-24.200001
 21
-25.000000
  0
LINE
  8
0
 10
-32.200001
 20
-5.000000
 11
-32.200001
 21
-25.000000
  0
LINE
  8
0
 10
-32.200001
 20
-6.000000
 11
-30.200001
 21
-6.000000
  0
LINE
  8
0
 10
-32.199997
 20
-24.000000
 11
-30.200001
 21
-24.000000
  0
LINE
  8
0
 10
-32.200005
 20
24.000004
 11
-30.200001
 21
24.000004
  0
LINE
  8
0
 10
-32.200001
 20
6.000000
 11
-30.200001
 21
6.000000
  0
LINE
  8
0
  6
CENTER
 62
     2
 10
10.253990
 20
-7.500000
 11
22.246189
 21
-7.500000
  0
LINE
  8
0
  6
CENTER
 62
     2
 10
-0.675961
 20
7.500000
 11
10.360107
 21
7.500000
  0
LINE
  8
0
  6
CENTER
 62
     2
 10
16.299999
 20
20.880173
 11
16.299999
 21
16.401192
  0
LINE
  8
0
  6
CENTER
 62
     2
 10
4.799999
 20
22.424650
 11
4.799999
 21
16.401190
  0
LINE
  8
0
  6
CENTER
 62
     2
 10
-11.200001
 20
10.560334
 11
-11.200001
 21
5.360649
  0
LINE
  8
0
  6
CENTER
 62
     2
 10
-13.940464
 20
8.000000
 11
-8.528545
 21
8.000000
  0
LINE
  8
0
 10
-35.200001
 20
12.700001
 11
-35.200001
 21
9.300001
  0
LINE
  8
0
 10
-35.200001
 20
-9.299999
 11
-35.200001
 21
-12.699999
  0
LINE
  8
0
 10
-34.900002
 20
9.000000
 11
-32.200001
 21
9.000000
  0
LINE
  8
0
 10
-34.900002
 20
13.000000
 11
-32.200005
 21
13.000000
  0
LINE
  8
0
 10
-34.900002
 20
-9.000000
 11
-32.200001
 21
-9.000000
  0
LINE
  8
0
 10
-34.900002
 20
-13.000000
 11
-32.199997
 21
-13.000000
  0
LINE
  8
0
 10
-35.200012
 20
9.299991
 11
-34.900013
 21
8.999988
  0
LINE
  8
0
 10
-35.200024
 20
12.700016
 11
-34.900021
 21
13.000018
  0
LINE
  8
0
 10
-35.200012
 20
-9.299990
 11
-34.900013
 21
-8.999990
  0
LINE
  8
0
 10
-34.908955
 20
13.000000
 11
-34.908955
 21
9.000000
  0
LINE
  8
0
 10
-34.908955
 20
-9.000000
 11
-34.908955
 21
-13.000000
  0
LINE
  8
0
 10
-15.200003
 20
15.620457
 11
23.799995
 21
15.620457
  0
LINE
  8
0
 10
-24.200003
 20
23.958523
 11
-15.200003
 21
23.958523
  0
LINE
  8
0
 10
-15.199999
 20
-15.599838
 11
23.800003
 21
-15.599838
  0
LINE
  8
0
 10
-24.199999
 20
-23.937286
 11
-15.199999
 21
-23.937286
  0
LINE
  8
0
  6
CENTER
 62
     2
 10
-18.200001
 20
17.563992
 11
-18.200001
 21
12.281770
  0
LINE
  8
0
  6
CENTER
 62
     2
 10
-20.731890
 20
15.000000
 11
-15.744436
 21
15.000000
  0
LINE
  8
0
  6
CENTER
 62
     2
 10
-36.695545
 20
-11.000000
 11
-30.000000
 21
-11.000000
  0
LINE
  8
0
  6
CENTER
 62
     2
 10
-36.162498
 20
11.000000
 11
-30.000000
 21
11.000000
  0
LINE
  8
0
 10
-30.200001
 20
-25.000000
 11
-15.199999
 21
-25.000000
  0
LINE
  8
0
 10
-30.200001
 20
25.000004
 11
-15.200003
 21
25.000004
  0
LINE
  8
0
  6
CENTER
 62
     2
 10
-3.859440
 20
12.000000
 11
1.446362
 21
12.000000
  0
LINE
  8
0
  6
CENTER
 62
     2
 10
-1.200001
 20
14.804976
 11
-1.200001
 21
9.180826
  0
LINE
  8
0
  6
CENTER
 62
     2
 10
-36.043026
 20
0.000000
 11
28.480713
 21
0.000000
  0
LINE
  8
0
 10
2.299995
 20
20.000004
 11
4.399994
 21
20.000004
  0
LINE
  8
0
 10
12.799999
 20
19.000008
 11
12.799999
 21
17.000008
  0
LINE
  8
0
 10
19.799999
 20
19.000008
 11
19.799999
 21
17.000008
  0
LINE
  8
0
 10
1.299999
 20
19.000006
 11
1.299999
 21
17.000006
  0
LINE
  8
0
 10
8.299999
 20
19.000008
 11
8.299999
 21
17.000008
  0
LINE
  8
0
 10
4.399998
 20
20.000006
 11
4.399998
 21
18.500006
  0
LINE
  8
0
 10
5.200001
 20
20.000006
 11
5.200001
 21
18.500006
  0
LINE
  8
0
 10
16.700001
 20
20.000008
 11
16.700001
 21
18.500008
  0
LINE
  8
0
 10
15.899998
 20
20.000008
 11
15.899998
 21
18.500008
  0
LINE
  8
0
 10
13.799995
 20
20.000004
 11
15.899994
 21
20.000004
  0
LINE
  8
0
 10
16.699997
 20
20.000004
 11
18.799995
 21
20.000004
  0
LINE
  8
0
 10
4.399994
 20
18.500004
 11
5.199997
 21
18.500004
  0
LINE
  8
0
 10
15.899994
 20
18.500004
 11
16.699997
 21
18.500004
  0
LINE
  8
0
 10
5.199997
 20
20.000004
 11
7.299995
 21
20.000004
  0
LINE
  8
0
  6
CENTER
 62
     2
 10
16.299999
 20
-1.430775
 11
16.299999
 21
-13.421886
  0
LINE
  8
0
  6
CENTER
 62
     2
 10
4.799999
 20
15.989326
 11
4.799999
 21
15.731917
  0
LINE
  8
0
  6
CENTER
 62
     2
 10
4.799999
 20
13.531585
 11
4.799999
 21
1.540473
  0
LINE
  8
0
 10
-32.200005
 20
25.000004
 11
-30.200001
 21
25.000004
  0
LINE
  8
0
 10
-32.200001
 20
5.000000
 11
-30.200001
 21
5.000000
  0
LINE
  8
0
 10
-32.200001
 20
-5.000000
 11
-30.200001
 21
-5.000000
  0
LINE
  8
0
 10
-32.199997
 20
-25.000000
 11
-30.200001
 21
-25.000000
  0
LINE
  8
0
 10
-35.200020
 20
-12.700013
 11
-34.900021
 21
-13.000012
  0
LINE
  8
0
  6
CENTER
 62
     2
 10
-1.200001
 20
-14.804970
 11
-1.200001
 21
-9.180819
  0
LINE
  8
0
  6
CENTER
 62
     2
 10
-3.859440
 20
-12.000000
 11
1.446362
 21
-12.000000
  0
LINE
  8
0
  6
CENTER
 62
     2
 10
-13.940464
 20
-7.999998
 11
-8.528545
 21
-7.999998
  0
LINE
  8
0
  6
CENTER
 62
     2
 10
-11.200001
 20
-10.560328
 11
-11.200001
 21
-5.360644
  0
LINE
  8
0
  6
CENTER
 62
     2
 10
-20.731886
 20
-15.000000
 11
-15.744432
 21
-15.000000
  0
LINE
  8
0
  6
CENTER
 62
     2
 10
-18.200001
 20
-17.563988
 11
-18.200001
 21
-12.281764
  0
LINE
  8
0
 62
     4
 10
23.799999
 20
-9.700012
 11
25.799999
 21
-9.700012
  0
LINE
  8
0
 62
     4
 10
23.800003
 20
-14.300011
 11
25.800003
 21
-14.300011
  0
LINE
  8
0
 62
     4
 10
25.799999
 20
-9.700008
 11
25.799999
 21
-14.300007
  0
LINE
  8
0
 62
     4
 10
23.800003
 20
-13.299988
 11
25.800003
 21
-13.299988
  0
LINE
  8
0
 62
     4
 10
23.800003
 20
-13.850006
 11
25.800003
 21
-13.850006
  0
LINE
  8
0
 62
     4
 10
25.799999
 20
-10.699997
 11
33.049454
 21
-10.699997
  0
LINE
  8
0
 62
     4
 10
25.800003
 20
-13.300003
 11
34.550564
 21
-13.300003
  0
LINE
  8
0
 62
     1
 10
32.549999
 20
-9.834892
 11
35.050003
 21
-14.165018
  0
LINE
  8
0
 62
     4
 10
23.799999
 20
10.700012
 11
25.799999
 21
10.700012
  0
LINE
  8
0
 62
     4
 10
23.799995
 20
13.300003
 11
33.049454
 21
13.300003
  0
LINE
  8
0
 62
     4
 10
25.799999
 20
10.699997
 11
34.550564
 21
10.699997
  0
LINE
  8
0
 62
     1
 10
32.550011
 20
14.165107
 11
35.050011
 21
9.834980
  0
LINE
  8
0
 10
-30.200001
 20
25.000004
 11
-30.200001
 21
-25.000000
  0
LINE
  8
0
 10
-130.197983
 20
-25.000000
 11
-109.801918
 21
-25.000000
  0
LINE
  8
0
 10
-130.197983
 20
25.000000
 11
-109.801918
 21
25.000000
  0
LINE
  8
0
  6
CENTER
 62
     2
 10
-123.058243
 20
11.000000
 11
-116.797401
 21
11.000000
  0
LINE
  8
0
  6
CENTER
 62
     2
 10
-123.164352
 20
-11.000000
 11
-116.797401
 21
-11.000000
  0
LINE
  8
0
  6
CENTER
 62
     2
 10
-123.058243
 20
-19.000000
 11
-116.903519
 21
-19.000000
  0
LINE
  8
0
  6
CENTER
 62
     2
 10
-123.332748
 20
19.000000
 11
-116.797401
 21
19.000000
  0
LINE
  8
0
 10
-107.499954
 20
23.932198
 11
-107.499954
 21
-23.932190
  0
LINE
  8
0
 10
-132.499954
 20
23.932198
 11
-132.499954
 21
-23.932190
  0
LINE
  8
0
 10
-115.499954
 20
25.000000
 11
-115.499954
 21
5.000000
  0
LINE
  8
0
 10
-124.499954
 20
25.000000
 11
-124.499954
 21
5.000000
  0
LINE
  8
0
 10
-124.499954
 20
6.000000
 11
-115.499954
 21
6.000000
  0
LINE
  8
0
 10
-124.499954
 20
-6.000000
 11
-115.499954
 21
-6.000000
  0
LINE
  8
0
 10
-124.499954
 20
-24.000000
 11
-115.499954
 21
-24.000000
  0
LINE
  8
0
 10
-124.499954
 20
24.000000
 11
-115.499954
 21
24.000000
  0
LINE
  8
0
 10
-124.999954
 20
25.000000
 11
-124.999954
 21
-25.000000
  0
LINE
  8
0
 10
-114.999954
 20
25.000000
 11
-114.999954
 21
-25.000000
  0
LINE
  8
0
 10
-124.499954
 20
-5.000000
 11
-124.499954
 21
-25.000000
  0
LINE
  8
0
 10
-115.499954
 20
-5.000000
 11
-115.499954
 21
-25.000000
  0
LINE
  8
0
  6
CENTER
 62
     2
 10
-137.691727
 20
0.000000
 11
-103.169479
 21
0.000000
  0
LINE
  8
0
  6
CENTER
 62
     2
 10
-119.999954
 20
30.294189
 11
-119.999954
 21
-30.530737
  0
LINE
  8
0
 10
-129.999954
 20
25.000000
 11
-129.999954
 21
-25.000000
  0
LINE
  8
0
 10
-109.999954
 20
25.000000
 11
-109.999954
 21
-25.000000
  0
LINE
  8
0
 10
-124.499954
 20
-5.000000
 11
-115.499954
 21
-5.000000
  0
LINE
  8
0
 10
-124.499954
 20
5.000000
 11
-115.499954
 21
5.000000
  0
LINE
  8
0
 10
122.500000
 20
23.932198
 11
122.500000
 21
-23.932194
  0
LINE
  8
0
 10
97.499992
 20
23.932198
 11
97.499992
 21
-23.932194
  0
LINE
  8
0
 10
99.801949
 20
25.000004
 11
120.198044
 21
25.000004
  0
LINE
  8
0
 10
99.464348
 20
17.000004
 11
120.535660
 21
17.000004
  0
LINE
  8
0
 10
99.464348
 20
-16.999998
 11
120.535660
 21
-16.999998
  0
LINE
  8
0
 10
99.801949
 20
-25.000000
 11
120.198044
 21
-25.000000
  0
LINE
  8
0
 10
107.500000
 20
15.000004
 11
112.500000
 21
15.000004
  0
LINE
  8
0
 10
107.500000
 20
-15.000000
 11
112.500000
 21
-15.000000
  0
LINE
  8
0
 10
107.500000
 20
17.000004
 11
107.500000
 21
15.000004
  0
LINE
  8
0
 10
112.500000
 20
17.000004
 11
112.500000
 21
15.000004
  0
LINE
  8
0
 10
107.500000
 20
-15.000000
 11
107.500000
 21
-16.499998
  0
LINE
  8
0
 10
112.500000
 20
-15.000000
 11
112.500000
 21
-16.499998
  0
LINE
  8
0
 10
107.500000
 20
-15.000000
 11
107.500000
 21
-16.999998
  0
LINE
  8
0
 10
112.500000
 20
-15.000000
 11
112.500000
 21
-16.999998
  0
LINE
  8
0
 10
108.400002
 20
15.000004
 11
108.400002
 21
13.920938
  0
LINE
  8
0
 10
111.599998
 20
15.000004
 11
111.599998
 21
13.920940
  0
LINE
  8
0
  6
CENTER
 62
     2
 10
99.871399
 20
13.000000
 11
105.813896
 21
13.000000
  0
LINE
  8
0
  6
CENTER
 62
     2
 10
117.000000
 20
-10.076163
 11
117.000000
 21
-16.021730
  0
LINE
  8
0
  6
CENTER
 62
     2
 10
103.000000
 20
15.555690
 11
103.000000
 21
10.082812
  0
LINE
  8
0
  6
CENTER
 62
     2
 10
93.511986
 20
0.000000
 11
126.801300
 21
0.000000
  0
LINE
  8
0
  6
CENTER
 62
     2
 10
110.000000
 20
29.883205
 11
110.000000
 21
-29.297802
  0
LINE
  8
0
 10
101.500000
 20
20.000004
 11
106.500000
 21
20.000004
  0
LINE
  8
0
 10
100.499992
 20
19.000004
 11
100.499992
 21
17.000004
  0
LINE
  8
0
 10
107.500000
 20
19.000004
 11
107.500000
 21
17.000004
  0
LINE
  8
0
 10
119.500000
 20
19.000004
 11
119.500000
 21
17.000004
  0
LINE
  8
0
 10
112.500000
 20
19.000004
 11
112.500000
 21
17.000004
  0
LINE
  8
0
 10
113.500000
 20
20.000004
 11
118.500000
 21
20.000004
  0
LINE
  8
0
  6
CENTER
 62
     2
 10
104.000000
 20
21.478107
 11
104.000000
 21
16.340939
  0
LINE
  8
0
  6
CENTER
 62
     2
 10
116.000000
 20
21.717045
 11
116.000000
 21
15.982533
  0
LINE
  8
0
 62
     4
 10
112.050056
 20
13.300018
 11
111.500053
 21
13.850017
  0
LINE
  8
0
 62
     4
 10
111.500000
 20
14.299988
 11
111.500000
 21
13.849991
  0
LINE
  8
0
 62
     4
 10
111.500000
 20
14.299988
 11
108.500000
 21
14.299988
  0
LINE
  8
0
 62
     4
 10
108.500000
 20
14.299988
 11
108.500000
 21
13.849991
  0
LINE
  8
0
 62
     4
 10
107.950020
 20
13.300034
 11
108.500008
 21
13.850023
  0
LINE
  8
0
 62
     4
 10
111.250000
 20
14.799988
 11
111.250000
 21
14.299988
  0
LINE
  8
0
 62
     4
 10
108.750000
 20
14.799988
 11
108.750000
 21
14.299988
  0
LINE
  8
0
 62
     4
 10
111.250000
 20
14.799988
 11
108.750000
 21
14.799988
  0
LINE
  8
0
 62
     4
 10
112.050056
 20
13.300026
 11
112.050056
 21
11.750027
  0
LINE
  8
0
 62
     4
 10
107.949944
 20
13.300026
 11
107.949944
 21
11.750027
  0
LINE
  8
0
 10
108.400002
 20
-15.000004
 11
108.400002
 21
-13.920938
  0
LINE
  8
0
 10
111.599998
 20
-15.000004
 11
111.599998
 21
-13.920940
  0
LINE
  8
0
 62
     4
 10
107.949944
 20
-13.300026
 11
107.949944
 21
-11.750027
  0
LINE
  8
0
 62
     4
 10
112.050064
 20
-13.300024
 11
111.500069
 21
-13.850017
  0
LINE
  8
0
 62
     4
 10
111.500000
 20
-14.299988
 11
111.500000
 21
-13.849991
  0
LINE
  8
0
 62
     4
 10
111.500000
 20
-14.299988
 11
108.500000
 21
-14.299988
  0
LINE
  8
0
 62
     4
 10
108.500000
 20
-14.299988
 11
108.500000
 21
-13.849991
  0
LINE
  8
0
 62
     4
 10
107.950020
 20
-13.300034
 11
108.500008
 21
-13.850023
  0
LINE
  8
0
 62
     4
 10
111.250000
 20
-14.799988
 11
111.250000
 21
-14.299988
  0
LINE
  8
0
 62
     4
 10
108.750000
 20
-14.799988
 11
108.750000
 21
-14.299988
  0
LINE
  8
0
 62
     4
 10
111.250000
 20
-14.799988
 11
108.750000
 21
-14.799988
  0
LINE
  8
0
 62
     4
 10
112.050056
 20
-13.300026
 11
112.050056
 21
-11.750027
  0
LINE
  8
0
 10
102.500008
 20
-19.750011
 11
101.200966
 21
-20.500010
  0
LINE
  8
0
 10
101.200958
 20
-20.500000
 11
101.200958
 21
-22.000000
  0
LINE
  8
0
 10
102.500000
 20
-22.749996
 11
101.200966
 21
-21.999994
  0
LINE
  8
0
 10
103.799034
 20
-22.000008
 11
102.500000
 21
-22.750006
  0
LINE
  8
0
 10
103.799042
 20
-20.500000
 11
103.799042
 21
-22.000000
  0
LINE
  8
0
 10
102.499992
 20
-19.750000
 11
103.799034
 21
-20.499998
  0
LINE
  8
0
 10
117.500000
 20
-19.749998
 11
118.799034
 21
-20.499996
  0
LINE
  8
0
 10
118.799042
 20
-20.500000
 11
118.799042
 21
-22.000000
  0
LINE
  8
0
 10
117.500000
 20
-22.749998
 11
118.799034
 21
-21.999996
  0
LINE
  8
0
 10
116.200974
 20
-22.000006
 11
117.500015
 21
-22.750002
  0
LINE
  8
0
 10
116.200958
 20
-20.500000
 11
116.200958
 21
-22.000000
  0
LINE
  8
0
 10
117.500000
 20
-19.750004
 11
116.200966
 21
-20.500002
  0
LINE
  8
0
 10
102.066986
 20
20.000011
 11
101.200966
 21
20.500010
  0
LINE
  8
0
 10
101.200958
 20
20.500000
 11
101.200958
 21
22.000000
  0
LINE
  8
0
 10
102.500000
 20
22.749996
 11
101.200966
 21
21.999994
  0
LINE
  8
0
 10
103.799034
 20
22.000008
 11
102.500000
 21
22.750006
  0
LINE
  8
0
 10
103.799042
 20
20.500000
 11
103.799042
 21
22.000000
  0
LINE
  8
0
 10
102.933014
 20
20.000004
 11
103.799034
 21
20.500000
  0
LINE
  8
0
 10
117.933029
 20
19.999996
 11
118.799042
 21
20.499989
  0
LINE
  8
0
 10
118.799042
 20
20.500000
 11
118.799042
 21
22.000000
  0
LINE
  8
0
 10
117.500000
 20
22.749998
 11
118.799034
 21
21.999996
  0
LINE
  8
0
 10
116.200974
 20
22.000006
 11
117.500015
 21
22.750002
  0
LINE
  8
0
 10
116.200958
 20
20.500000
 11
116.200958
 21
22.000000
  0
LINE
  8
0
 10
117.066971
 20
20.000008
 11
116.200966
 21
20.500002
  0
LINE
  8
0
  6
CENTER
 62
     2
 10
106.878716
 20
21.000004
 11
112.821213
 21
21.000004
  0
LINE
  8
0
  6
CENTER
 62
     2
 10
113.878716
 20
-13.000000
 11
119.821213
 21
-13.000000
  0
LINE
  8
0
  6
CENTER
 62
     2
 10
106.878716
 20
-21.000000
 11
112.821213
 21
-21.000000
  0
LINE
  8
0
 10
-15.200001
 20
92.500000
 11
-15.200001
 21
67.499992
  0
LINE
  8
0
 10
-35.200001
 20
81.699982
 11
-35.200001
 21
78.299988
  0
LINE
  8
0
 10
-34.900002
 20
82.000000
 11
-32.200001
 21
82.000000
  0
LINE
  8
0
 10
-32.200001
 20
84.500000
 11
-32.200001
 21
75.500000
  0
LINE
  8
0
 10
-32.200001
 20
84.500000
 11
-29.100002
 21
84.500000
  0
LINE
  8
0
 10
-30.200001
 20
90.000000
 11
-22.200001
 21
90.000000
  0
LINE
  8
0
 10
-24.200001
 20
92.500000
 11
-24.200001
 21
90.000000
  0
LINE
  8
0
 10
-24.200001
 20
92.500000
 11
23.799999
 21
92.500000
  0
LINE
  8
0
 10
23.799999
 20
92.500008
 11
23.799999
 21
81.300011
  0
LINE
  8
0
 10
-24.200001
 20
67.499992
 11
23.799999
 21
67.499992
  0
LINE
  8
0
 10
-24.200001
 20
69.999992
 11
-24.200001
 21
67.499992
  0
LINE
  8
0
 10
-30.200001
 20
69.999992
 11
-22.200001
 21
69.999992
  0
LINE
  8
0
 10
-32.200001
 20
75.500000
 11
-29.100002
 21
75.500000
  0
LINE
  8
0
 10
-34.900002
 20
78.000000
 11
-32.200001
 21
78.000000
  0
LINE
  8
0
 10
-26.200001
 20
84.500000
 11
-26.200001
 21
75.500000
  0
LINE
  8
0
 10
-25.700001
 20
84.500000
 11
-25.700001
 21
75.500000
  0
LINE
  8
0
 10
-35.199959
 20
78.299980
 11
-34.899956
 21
77.999977
  0
LINE
  8
0
 10
-35.200058
 20
81.700066
 11
-34.900063
 21
82.000061
  0
LINE
  8
0
 10
-34.900002
 20
82.000000
 11
-34.900002
 21
78.000000
  0
LINE
  8
0
 10
-30.700001
 20
84.500000
 11
-30.700001
 21
75.500000
  0
LINE
  8
0
 10
-3.600002
 20
78.399994
 11
23.799999
 21
78.399994
  0
LINE
  8
0
 10
-3.600002
 20
81.599991
 11
23.799999
 21
81.599991
  0
LINE
  8
0
 10
-2.700001
 20
77.500000
 11
23.799999
 21
77.500000
  0
LINE
  8
0
 10
-2.700001
 20
82.500000
 11
23.799999
 21
82.500000
  0
LINE
  8
0
 10
-22.200001
 20
90.000000
 11
-22.200001
 21
69.999992
  0
LINE
  8
0
  6
CENTER
 62
     2
 10
4.799999
 20
79.199188
 11
4.799999
 21
68.693710
  0
LINE
  8
0
  6
CENTER
 62
     2
 10
16.299999
 20
91.614777
 11
16.299999
 21
80.703461
  0
LINE
  8
0
  6
CENTER
 62
     2
 10
-0.782076
 20
73.999992
 11
10.253990
 21
73.999992
  0
LINE
  8
0
  6
CENTER
 62
     2
 10
10.572342
 20
86.000000
 11
22.032871
 21
86.000000
  0
LINE
  8
0
 10
-24.200001
 20
90.199982
 11
-15.200001
 21
90.199982
  0
LINE
  8
0
 10
-24.200001
 20
69.799988
 11
-15.200001
 21
69.799988
  0
LINE
  8
0
 10
-15.200001
 20
69.464989
 11
23.799999
 21
69.464989
  0
LINE
  8
0
 10
-15.200001
 20
90.534988
 11
23.799999
 21
90.534988
  0
LINE
  8
0
  6
CENTER
 62
     2
 10
-37.243179
 20
80.000000
 11
36.799999
 21
80.000000
  0
LINE
  8
0
 10
5.200001
 20
77.477051
 11
5.200001
 21
70.522926
  0
LINE
  8
0
 10
4.399998
 20
77.477051
 11
4.399998
 21
70.522926
  0
LINE
  8
0
 10
16.700001
 20
89.477051
 11
16.700001
 21
82.522919
  0
LINE
  8
0
 10
15.899998
 20
89.477051
 11
15.899998
 21
82.522919
  0
LINE
  8
0
 10
-27.060200
 20
84.500000
 11
-25.700001
 21
84.500000
  0
LINE
  8
0
 10
-27.060204
 20
75.500000
 11
-25.700001
 21
75.500000
  0
LINE
  8
0
 62
     4
 10
-1.700001
 20
81.599991
 11
-1.700001
 21
78.399994
  0
LINE
  8
0
 62
     4
 10
20.299999
 20
81.599991
 11
20.299999
 21
78.399994
  0
LINE
  8
0
 62
     4
 10
-0.734233
 20
79.297974
 11
1.002041
 21
81.034248
  0
LINE
  8
0
 62
     4
 10
-0.376296
 20
78.948761
 11
1.351256
 21
80.676315
  0
LINE
  8
0
 62
     4
 10
20.299999
 20
81.300003
 11
33.049446
 21
81.300003
  0
LINE
  8
0
 62
     4
 10
20.299999
 20
78.699997
 11
34.550564
 21
78.699997
  0
LINE
  8
0
 62
     1
 10
32.549992
 20
82.165108
 11
35.049992
 21
77.834991
  0
LINE
  8
0
 10
23.799999
 20
78.700005
 11
23.799999
 21
67.500000
  0
LINE
  8
0
 10
-30.200001
 20
75.500000
 11
-30.200001
 21
69.999992
  0
LINE
  8
0
 10
-30.200001
 20
90.000000
 11
-30.200001
 21
84.500000
  0
LINE
  8
0
 10
-15.200001
 20
-92.500000
 11
-15.200001
 21
-67.500000
  0
LINE
  8
0
 10
-35.200001
 20
-81.699997
 11
-35.200001
 21
-78.300003
  0
LINE
  8
0
 10
-34.900002
 20
-82.000000
 11
-32.200001
 21
-82.000000
  0
LINE
  8
0
 10
-32.200001
 20
-84.500000
 11
-32.200001
 21
-75.500000
  0
LINE
  8
0
 10
-32.200001
 20
-84.500000
 11
-29.140259
 21
-84.500000
  0
LINE
  8
0
 10
-30.200001
 20
-90.000000
 11
-22.200001
 21
-90.000000
  0
LINE
  8
0
 10
-24.200001
 20
-92.500000
 11
-24.200001
 21
-90.000000
  0
LINE
  8
0
 10
-24.200001
 20
-92.500000
 11
23.799999
 21
-92.500000
  0
LINE
  8
0
 10
23.799999
 20
-92.499992
 11
23.799999
 21
-67.499992
  0
LINE
  8
0
 10
-24.200001
 20
-67.500000
 11
23.799999
 21
-67.500000
  0
LINE
  8
0
 10
-24.200001
 20
-70.000000
 11
-24.200001
 21
-67.500000
  0
LINE
  8
0
 10
-30.200001
 20
-70.000000
 11
-22.200001
 21
-70.000000
  0
LINE
  8
0
 10
-32.200001
 20
-75.500000
 11
-29.100002
 21
-75.500000
  0
LINE
  8
0
 10
-34.900002
 20
-78.000000
 11
-32.200001
 21
-78.000000
  0
LINE
  8
0
 10
-26.200001
 20
-84.500000
 11
-26.200001
 21
-75.500000
  0
LINE
  8
0
 10
-25.700001
 20
-84.500000
 11
-25.700001
 21
-75.500000
  0
LINE
  8
0
 10
-27.100002
 20
-84.500000
 11
-25.700001
 21
-84.500000
  0
LINE
  8
0
 10
-27.100002
 20
-75.500000
 11
-25.700001
 21
-75.500000
  0
LINE
  8
0
 10
-35.199947
 20
-78.300011
 11
-34.899948
 21
-78.000008
  0
LINE
  8
0
 10
-35.200100
 20
-81.700081
 11
-34.900097
 21
-82.000076
  0
LINE
  8
0
 10
-34.900002
 20
-82.000000
 11
-34.900002
 21
-78.000000
  0
LINE
  8
0
 10
-30.700001
 20
-84.500000
 11
-30.700001
 21
-75.500000
  0
LINE
  8
0
 10
-3.600002
 20
-78.400002
 11
23.799999
 21
-78.400002
  0
LINE
  8
0
 10
-3.600002
 20
-81.599998
 11
23.799999
 21
-81.599998
  0
LINE
  8
0
 10
-2.700001
 20
-77.500000
 11
23.799999
 21
-77.500000
  0
LINE
  8
0
 10
-2.700001
 20
-82.500000
 11
23.799999
 21
-82.500000
  0
LINE
  8
0
 10
-22.200001
 20
-90.000000
 11
-22.200001
 21
-70.000000
  0
LINE
  8
0
 10
-24.200001
 20
-90.199997
 11
-15.200001
 21
-90.199997
  0
LINE
  8
0
 10
-24.200001
 20
-69.800003
 11
-15.200001
 21
-69.800003
  0
LINE
  8
0
 10
-15.200001
 20
-69.465004
 11
23.799999
 21
-69.465004
  0
LINE
  8
0
 10
-15.200001
 20
-90.535004
 11
23.799999
 21
-90.535004
  0
LINE
  8
0
  6
CENTER
 62
     2
 10
0.717833
 20
-87.500000
 11
6.880436
 21
-87.500000
  0
LINE
  8
0
  6
CENTER
 62
     2
 10
0.611206
 20
-72.500000
 11
6.880436
 21
-72.500000
  0
LINE
  8
0
  6
CENTER
 62
     2
 10
3.799999
 20
-90.535004
 11
3.799999
 21
-84.379486
  0
LINE
  8
0
  6
CENTER
 62
     2
 10
3.799999
 20
-75.956017
 11
3.799999
 21
-69.558441
  0
LINE
  8
0
  6
CENTER
 62
     2
 10
-36.422157
 20
-80.000000
 11
36.799999
 21
-80.000000
  0
LINE
  8
0
 62
     4
 10
23.800007
 20
-77.951149
 11
25.798809
 21
-77.949982
  0
LINE
  8
0
 62
     4
 10
3.799055
 20
-78.400009
 11
3.800917
 21
-81.600006
  0
LINE
  8
0
 62
     4
 10
25.798798
 20
-77.949982
 11
25.801182
 21
-82.049988
  0
LINE
  8
0
 62
     4
 10
4.766197
 20
-80.714279
 11
6.501459
 21
-78.976997
  0
LINE
  8
0
 62
     4
 10
5.124337
 20
-81.063278
 11
6.850880
 21
-79.334724
  0
LINE
  8
0
 62
     4
 10
25.799238
 20
-78.700005
 11
33.047840
 21
-78.698990
  0
LINE
  8
0
 62
     4
 10
25.800755
 20
-81.300011
 11
34.550465
 21
-81.298119
  0
LINE
  8
0
 62
     1
 10
32.547882
 20
-77.834175
 11
35.050400
 21
-82.162842
  0
LINE
  8
0
 62
     4
 10
23.799999
 20
-82.048820
 11
25.798805
 21
-82.049980
  0
LINE
  8
0
 62
     4
 10
23.799999
 20
-78.400002
 11
25.799068
 21
-78.400002
  0
LINE
  8
0
 62
     4
 10
23.799999
 20
-81.599998
 11
25.799068
 21
-81.599998
  0
LINE
  8
0
 10
-30.200001
 20
-90.000000
 11
-30.200001
 21
-84.500000
  0
LINE
  8
0
 10
-30.200001
 20
-75.500000
 11
-30.200001
 21
-70.000000
  0
LINE
  8
0
 10
-194.250000
 20
132.600006
 11
194.800003
 21
132.600006
  0
LINE
  8
0
 10
194.800003
 20
132.600006
 11
194.800003
 21
-133.500000
  0
LINE
  8
0
 10
-194.250000
 20
132.600006
 11
-194.250000
 21
-133.500000
  0
LINE
  8
0
 10
-194.250000
 20
-133.500000
 11
194.800003
 21
-133.500000
  0
LINE
  8
0
 10
109.800003
 20
-118.500000
 11
109.800003
 21
-133.500000
  0
LINE
  8
0
 10
109.800003
 20
-118.500000
 11
194.800003
 21
-118.500000
  0
LINE
  8
0
 10
109.800003
 20
132.600006
 11
109.800003
 21
117.600006
  0
LINE
  8
0
 10
109.800003
 20
117.600006
 11
194.800003
 21
117.600006
  0
LINE
  8
0
 10
-194.250000
 20
117.600006
 11
-109.250000
 21
117.600006
  0
LINE
  8
0
 10
-109.250000
 20
132.600006
 11
-109.250000
 21
117.600006
  0
CIRCLE
  8
0
 10
4.799999
 20
7.500003
 40
2.100000
  0
CIRCLE
  8
0
 10
16.299999
 20
-7.499997
 40
2.100000
  0
CIRCLE
  8
0
  6
DASHED
 62
     2
 10
-1.200001
 20
-11.999994
 40
2.000000
  0
CIRCLE
  8
0
 10
-1.200001
 20
-11.999994
 40
1.650000
  0
CIRCLE
  8
0
 10
-1.200001
 20
12.000000
 40
1.650000
  0
CIRCLE
  8
0
 10
-18.200001
 20
15.000001
 40
1.250000
  0
CIRCLE
  8
0
 10
-18.200001
 20
-14.999999
 40
1.250000
  0
ARC
  8
0
 10
13.799999
 20
19.000008
 40
1.000000
 50
90.000000
 51
180.000000
  0
ARC
  8
0
 10
7.299999
 20
19.000006
 40
1.000000
 50
0.000000
 51
89.999969
  0
CIRCLE
  8
0
  6
DASHED
 62
     2
 10
-1.200001
 20
12.000000
 40
2.000000
  0
ARC
  8
0
 10
2.299999
 20
19.000006
 40
1.000000
 50
89.999985
 51
180.000000
  0
ARC
  8
0
 10
18.799999
 20
19.000008
 40
1.000000
 50
0.000000
 51
90.000000
  0
CIRCLE
  8
0
 62
     2
 10
16.299999
 20
-7.499997
 40
2.500000
  0
CIRCLE
  8
0
 62
     2
 10
4.799999
 20
7.500003
 40
2.500000
  0
CIRCLE
  8
0
 10
16.299999
 20
-7.499997
 40
4.250000
  0
CIRCLE
  8
0
 10
4.799999
 20
7.500003
 40
4.250000
  0
CIRCLE
  8
0
 10
-11.200001
 20
8.000001
 40
1.500000
  0
CIRCLE
  8
0
 10
-11.200001
 20
-7.999999
 40
1.500000
  0
CIRCLE
  8
0
 62
     2
 10
-18.200001
 20
15.000001
 40
1.500000
  0
CIRCLE
  8
0
 62
     2
 10
-18.200001
 20
-14.999999
 40
1.500000
  0
CIRCLE
  8
0
 10
-119.999954
 20
-19.000000
 40
1.650000
  0
ARC
  8
0
 10
-119.999954
 20
0.000000
 40
27.000000
 50
292.191650
 51
297.578491
  0
CIRCLE
  8
0
 10
-119.999954
 20
19.000000
 40
1.650000
  0
ARC
  8
0
 10
-119.999954
 20
0.000000
 40
27.000004
 50
242.421539
 51
247.808411
  0
CIRCLE
  8
0
 10
-119.999954
 20
-11.000000
 40
2.000000
  0
CIRCLE
  8
0
 62
     2
 10
-119.999954
 20
-19.000000
 40
2.000000
  0
CIRCLE
  8
0
 10
-119.999954
 20
11.000000
 40
2.000000
  0
CIRCLE
  8
0
 62
     2
 10
-119.999954
 20
19.000000
 40
2.000000
  0
ARC
  8
0
 10
-119.999954
 20
0.000000
 40
26.999998
 50
112.191582
 51
117.578461
  0
ARC
  8
0
 10
-119.999954
 20
0.000000
 40
27.000000
 50
62.421532
 51
67.808418
  0
ARC
  8
0
 10
117.500000
 20
21.250000
 40
2.999998
 50
311.807800
 51
204.624207
  0
ARC
  8
0
 10
102.500000
 20
21.250000
 40
2.549998
 50
330.646606
 51
223.106995
  0
ARC
  8
0
 10
117.500000
 20
21.250000
 40
2.550001
 50
316.893005
 51
209.353363
  0
ARC
  8
0
 10
110.000000
 20
-12.000000
 40
2.500000
 50
309.791779
 51
230.208237
  0
ARC
  8
0
 62
     4
 10
110.000000
 20
-11.750027
 40
2.050003
 50
0.000053
 51
180.000046
  0
ARC
  8
0
 10
110.000000
 20
12.000000
 40
2.500001
 50
129.791763
 51
50.208225
  0
CIRCLE
  8
0
 62
     4
 10
110.000000
 20
-12.000000
 40
1.300000
  0
CIRCLE
  8
0
 62
     2
 10
110.000000
 20
21.000004
 40
2.000000
  0
CIRCLE
  8
0
 62
     2
 10
110.000000
 20
-21.000000
 40
2.000000
  0
ARC
  8
0
 10
110.000000
 20
0.000000
 40
20.000000
 50
121.788322
 51
128.682190
  0
ARC
  8
0
 10
110.000000
 20
0.000000
 40
27.000000
 50
112.191620
 51
117.578468
  0
ARC
  8
0
 10
110.000000
 20
0.000000
 40
26.999998
 50
62.421532
 51
67.808418
  0
ARC
  8
0
 10
110.000000
 20
0.000000
 40
27.000000
 50
292.191620
 51
297.578461
  0
ARC
  8
0
 10
110.000000
 20
0.000000
 40
27.000000
 50
242.421539
 51
247.808395
  0
ARC
  8
0
 10
110.000000
 20
0.000000
 40
20.000002
 50
51.317814
 51
58.211674
  0
ARC
  8
0
 10
110.000000
 20
0.000000
 40
20.000000
 50
301.788330
 51
308.682190
  0
ARC
  8
0
 10
110.000000
 20
0.000000
 40
19.999998
 50
231.317841
 51
238.211670
  0
CIRCLE
  8
0
 10
110.000000
 20
0.000000
 40
8.500000
  0
CIRCLE
  8
0
 62
     2
 10
103.000000
 20
12.999999
 40
2.000000
  0
CIRCLE
  8
0
 62
     2
 10
117.000000
 20
-12.999999
 40
2.000000
  0
ARC
  8
0
 10
101.500000
 20
19.000004
 40
1.000000
 50
90.000000
 51
180.000000
  0
ARC
  8
0
 10
106.500000
 20
19.000004
 40
1.000000
 50
0.000000
 51
90.000000
  0
ARC
  8
0
 10
113.500000
 20
19.000004
 40
1.000000
 50
90.000000
 51
180.000000
  0
ARC
  8
0
 10
118.500000
 20
19.000004
 40
1.000000
 50
0.000000
 51
90.000000
  0
CIRCLE
  8
0
 10
110.000000
 20
21.000004
 40
1.650000
  0
CIRCLE
  8
0
 10
103.000000
 20
12.999999
 40
1.650000
  0
CIRCLE
  8
0
 10
117.000000
 20
-12.999999
 40
1.650000
  0
CIRCLE
  8
0
 10
110.000000
 20
-21.000000
 40
1.650000
  0
CIRCLE
  8
0
 62
     4
 10
110.000000
 20
12.000000
 40
1.300000
  0
ARC
  8
0
 62
     4
 10
110.000000
 20
11.750027
 40
2.050003
 50
179.999954
 51
0.000000
  0
CIRCLE
  8
0
 10
102.500000
 20
-21.250000
 40
3.000000
  0
CIRCLE
  8
0
 10
102.500000
 20
-21.250000
 40
2.550000
  0
CIRCLE
  8
0
 10
117.500000
 20
-21.250000
 40
3.000000
  0
CIRCLE
  8
0
 10
117.500000
 20
-21.250000
 40
2.550000
  0
ARC
  8
0
 10
102.500000
 20
21.250000
 40
3.000001
 50
335.375763
 51
228.192062
  0
ARC
  8
0
 10
-2.700001
 20
80.000000
 40
2.500000
 50
90.000000
 51
270.000000
  0
ARC
  8
0
 10
-28.100231
 20
75.141754
 40
1.100001
 50
160.993347
 51
19.006647
  0
ARC
  8
0
 10
-3.600002
 20
80.000000
 40
1.599998
 50
90.000000
 51
270.000000
  0
ARC
  8
0
 10
4.799999
 20
73.999992
 40
4.250000
 50
124.560318
 51
55.439674
  0
ARC
  8
0
 10
16.299999
 20
86.000000
 40
4.250000
 50
304.560333
 51
235.439682
  0
CIRCLE
  8
0
 62
     4
 10
0.300014
 20
80.000000
 40
1.400000
  0
CIRCLE
  8
0
 62
     4
 10
0.300014
 20
80.000000
 40
1.250000
  0
CIRCLE
  8
0
 10
4.799999
 20
73.999992
 40
3.500000
  0
CIRCLE
  8
0
 10
16.299999
 20
86.000000
 40
3.500000
  0
ARC
  8
0
 10
-28.100231
 20
84.858231
 40
1.100000
 50
340.993774
 51
199.006241
  0
ARC
  8
0
 10
-2.700001
 20
-80.000000
 40
2.500000
 50
90.000000
 51
270.000000
  0
ARC
  8
0
 10
-28.100231
 20
-75.141754
 40
1.100000
 50
343.726624
 51
196.273376
  0
ARC
  8
0
 10
-3.600002
 20
-80.000000
 40
1.599998
 50
90.000000
 51
270.000000
  0
CIRCLE
  8
0
 10
3.799999
 20
-72.500000
 40
1.650000
  0
CIRCLE
  8
0
 62
     4
 10
5.800018
 20
-80.011635
 40
1.250000
  0
CIRCLE
  8
0
 62
     4
 10
5.800018
 20
-80.011635
 40
1.400000
  0
CIRCLE
  8
0
 10
3.799999
 20
-87.500000
 40
1.650000
  0
CIRCLE
  8
0
 62
     2
 10
3.799999
 20
-72.500000
 40
2.000000
  0
CIRCLE
  8
0
 62
     2
 10
3.799999
 20
-87.500000
 40
2.000000
  0
ARC
  8
0
 10
-28.100231
 20
-84.858246
 40
1.100001
 50
160.993347
 51
19.006647
  0
TEXT
  8
0
 10
133.907150
 20
122.050003
 40
4.500000
  1
Ver. 1.0
 50
0.000000
 41
1.052631
 51
0.000000
  7
STANDARD
  0
TEXT
  8
0
 10
113.700279
 20
-130.669998
 40
6.300000
  1
KOGANEI CORP.
 50
0.000000
 41
1.052632
 51
0.000000
  7
STANDARD
  0
TEXT
  8
0
 10
-170.142654
 20
122.050003
 40
4.500000
  1
AIR HAND
 50
0.000000
 41
1.052632
 51
0.000000
  7
STANDARD
  0
TEXT
  8
0
 10
-159.892654
 20
97.550003
 40
4.500000
  1
NHBDRG-16-ZE135A2
 50
0.000000
 41
1.052632
 51
0.000000
  7
STANDARD
  0
TEXT
  8
0
 10
-186.892654
 20
104.550003
 40
4.500000
  1
MODEL:NHBDPG-16-ZE135A2
 50
0.000000
 41
1.052632
 51
0.000000
  7
STANDARD
  0
ENDSEC
  0
EOF
