  0
SECTION
  2
HEADER
  0
ENDSEC
  0
SECTION
  2
TABLES
  0
TABLE
  2
LTYPE
 70
     4
  0
LTYPE
  2
CONTINUOUS
 70
    64
  3
Solid line
 72
    65
 73
     0
 40
0.000000
  0
LTYPE
  2
DASHED
 70
    64
  3
__ __ __ __ __ __ __ __ __ __ __ __ __ __ __
 72
    65
 73
     2
 40
3.500000
 49
2.000000
 49
-1.500000
  0
LTYPE
  2
CENTER
 70
    64
  3
____ _ ____ _ ____ _ ____ _ ____ _ ____ _ ____
 72
    65
 73
     4
 40
17.500000
 49
13.000000
 49
-1.500000
 49
1.500000
 49
-1.500000
  0
LTYPE
  2
PHANTOM
 70
    64
  3
_____ _ _ _____ _ _ _____ _ _ _____ _ _ ____  
 72
    65
 73
     6
 40
15.500000
 49
8.000000
 49
-1.500000
 49
1.500000
 49
-1.500000
 49
1.500000
 49
-1.500000
  0
LTYPE
  2
DASHED1
 70
    64
  3
__ __ __ __ __ __ __ __ __ __ __ __ __ __ __
 72
    65
 73
     2
 40
1.500000
 49
1.000000
 49
-0.500000
  0
LTYPE
  2
DASHED2
 70
    64
  3
__ __ __ __ __ __ __ __ __ __ __ __ __ __ __
 72
    65
 73
     2
 40
3.500000
 49
2.500000
 49
-1.000000
  0
LTYPE
  2
DASHED3
 70
    64
  3
__ __ __ __ __ __ __ __ __ __ __ __ __ __ __
 72
    65
 73
     2
 40
6.000000
 49
4.000000
 49
-2.000000
  0
LTYPE
  2
DASHED4
 70
    64
  3
__ __ __ __ __ __ __ __ __ __ __ __ __ __ __
 72
    65
 73
     2
 40
12.000000
 49
10.000000
 49
-2.000000
  0
LTYPE
  2
DASHED5
 70
    64
  3
__ __ __ __ __ __ __ __ __ __ __ __ __ __ __
 72
    65
 73
     2
 40
17.000000
 49
15.000000
 49
-2.000000
  0
LTYPE
  2
DASHED6
 70
    64
  3
__ __ __ __ __ __ __ __ __ __ __ __ __ __ __
 72
    65
 73
     2
 40
29.000000
 49
27.000000
 49
-2.000000
  0
LTYPE
  2
PHANTOM1
 70
    64
  3
_____ _ _ _____ _ _ _____ _ _ _____ _ _ ____  
 72
    65
 73
     6
 40
31.000000
 49
25.000000
 49
-1.500000
 49
1.000000
 49
-1.000000
 49
1.000000
 49
-1.500000
  0
LTYPE
  2
PHANTOM2
 70
    64
  3
_____ _ _ _____ _ _ _____ _ _ _____ _ _ ____  
 72
    65
 73
     6
 40
36.000000
 49
27.000000
 49
-1.500000
 49
2.500000
 49
-1.000000
 49
2.500000
 49
-1.500000
  0
LTYPE
  2
PHANTOM3
 70
    64
  3
_____ _ _ _____ _ _ _____ _ _ _____ _ _ ____  
 72
    65
 73
     6
 40
78.000000
 49
64.000000
 49
-2.000000
 49
4.000000
 49
-2.000000
 49
4.000000
 49
-2.000000
  0
LTYPE
  2
CENTER1
 70
    64
  3
____ _ ____ _ ____ _ ____ _ ____ _ ____ _ ____
 72
    65
 73
     4
 40
19.000000
 49
14.000000
 49
-1.000000
 49
3.000000
 49
-1.000000
  0
LTYPE
  2
CENTER2
 70
    64
  3
____ _ ____ _ ____ _ ____ _ ____ _ ____ _ ____
 72
    65
 73
     4
 40
28.500000
 49
25.000000
 49
-1.000000
 49
1.500000
 49
-1.000000
  0
LTYPE
  2
CENTER3
 70
    64
  3
____ _ ____ _ ____ _ ____ _ ____ _ ____ _ ____
 72
    65
 73
     4
 40
31.500000
 49
27.000000
 49
-1.000000
 49
2.500000
 49
-1.000000
  0
LTYPE
  2
CENTER4
 70
    64
  3
____ _ ____ _ ____ _ ____ _ ____ _ ____ _ ____
 72
    65
 73
     4
 40
50.000000
 49
45.000000
 49
-1.000000
 49
3.000000
 49
-1.000000
  0
LTYPE
  2
CENTER5
 70
    64
  3
____ _ ____ _ ____ _ ____ _ ____ _ ____ _ ____
 72
    65
 73
     4
 40
100.000000
 49
92.000000
 49
-2.000000
 49
4.000000
 49
-2.000000
  0
LTYPE
  2
SBK1
 70
    64
  3
______ _ _ _ ______ _ _ _ ______ _ _ _ _____  
 72
    65
 73
     8
 40
60.500000
 49
45.000000
 49
-2.000000
 49
2.500000
 49
-2.000000
 49
2.500000
 49
-2.000000
 49
2.500000
 49
-2.000000
  0
LTYPE
  2
SBK2
 70
    64
  3
______ _ _ _ ______ _ _ _ ______ _ _ _ _____  
 72
    65
 73
     8
 40
84.000000
 49
64.000000
 49
-2.000000
 49
4.000000
 49
-2.000000
 49
4.000000
 49
-2.000000
 49
4.000000
 49
-2.000000
  0
LTYPE
  2
STCH
 70
    64
  3
__ __ __ __ __ __ __ __ __ __ __ __ __ __ __
 72
    65
 73
     2
 40
3.000000
 49
1.000000
 49
-2.000000
  0
LTYPE
  2
MTCH
 70
    64
  3
_____ _ _ _____ _ _ _____ _ _ _____ _ _ ____  
 72
    65
 73
     6
 40
80.000000
 49
66.000000
 49
-2.000000
 49
4.000000
 49
-2.000000
 49
4.000000
 49
-2.000000
  0
ENDTAB
  0
TABLE
  2
LAYER
 70
     1
  0
LAYER
  2
0
 70
     0
 62
     7
  6
CONTINUOUS
  0
ENDTAB
  0
TABLE
  2
STYLE
 70
     1
  0
STYLE
  2
STANDARD
 70
     0
 40
0.000000
 41
1.000000
 50
0.000000
 71
     0
 42
0.200000
  3
txt
  4
BIGFONT
  0
ENDTAB
  0
TABLE
  2
VIEW
 70
     0
  0
ENDTAB
  0
ENDSEC
  0
SECTION
  2
BLOCKS
  0
ENDSEC
  0
SECTION
  2
ENTITIES
  0
LINE
  8
0
 10
-4.000002
 20
26.000000
 11
44.000015
 21
26.000000
  0
LINE
  8
0
  6
CENTER
 62
     2
 10
35.000000
 20
-4.049995
 11
35.000000
 21
-15.949995
  0
LINE
  8
0
  6
CENTER
 62
     2
 10
29.050003
 20
-10.000000
 11
40.949997
 21
-10.000000
  0
LINE
  8
0
  6
CENTER
 62
     2
 10
7.000015
 20
20.937107
 11
7.000015
 21
7.955753
  0
LINE
  8
0
  6
CENTER
 62
     2
 10
0.260071
 20
15.000000
 11
13.444260
 21
15.000000
  0
LINE
  8
0
  6
CENTER
 62
     2
 10
-13.101305
 20
15.000000
 11
-4.366686
 21
15.000000
  0
LINE
  8
0
  6
CENTER
 62
     2
 10
-7.999985
 20
18.768312
 11
-7.999985
 21
11.289644
  0
LINE
  8
0
  6
CENTER
 62
     2
 10
-18.999985
 20
30.064608
 11
-18.999985
 21
20.096468
  0
LINE
  8
0
  6
CENTER
 62
     2
 10
-23.268648
 20
25.000031
 11
-14.546801
 21
25.000031
  0
LINE
  8
0
 10
-3.999998
 20
-25.999969
 11
44.000015
 21
-25.999969
  0
LINE
  8
0
  6
CENTER
 62
     2
 10
7.000015
 20
-20.545071
 11
7.000015
 21
-9.832242
  0
LINE
  8
0
  6
CENTER
 62
     2
 10
1.313309
 20
-14.999969
 11
12.555191
 21
-14.999969
  0
LINE
  8
0
  6
CENTER
 62
     2
 10
-40.103836
 20
0.000000
 11
48.208557
 21
0.000000
  0
LINE
  8
0
  6
CENTER
 62
     2
 10
-11.339918
 20
-15.000000
 11
-4.956892
 21
-15.000000
  0
LINE
  8
0
  6
CENTER
 62
     2
 10
-7.999985
 20
-18.768309
 11
-7.999985
 21
-11.289610
  0
LINE
  8
0
  6
CENTER
 62
     2
 10
-18.999985
 20
-29.771330
 11
-18.999985
 21
-20.096403
  0
LINE
  8
0
  6
CENTER
 62
     2
 10
-23.268644
 20
-25.000000
 11
-14.546797
 21
-25.000000
  0
LINE
  8
0
 10
-38.999996
 20
-41.999969
 11
-34.999996
 21
-41.999969
  0
LINE
  8
0
 10
-39.000004
 20
42.000031
 11
-35.000004
 21
42.000031
  0
LINE
  8
0
 10
-4.000002
 20
23.685455
 11
44.000015
 21
23.685455
  0
LINE
  8
0
 10
-3.999998
 20
-23.685455
 11
44.000015
 21
-23.685455
  0
LINE
  8
0
 10
44.000000
 20
-25.999964
 11
44.000000
 21
26.000000
  0
LINE
  8
0
 10
-25.999989
 20
40.868683
 11
-4.000004
 21
40.868683
  0
LINE
  8
0
 10
-25.999981
 20
-40.868683
 11
-3.999996
 21
-40.868683
  0
LINE
  8
0
 10
-25.999985
 20
-42.499969
 11
-25.999985
 21
42.500031
  0
LINE
  8
0
 10
-39.000000
 20
-41.999969
 11
-39.000000
 21
-11.000000
  0
LINE
  8
0
 10
-35.000000
 20
-42.499969
 11
-35.000000
 21
42.500031
  0
LINE
  8
0
 10
-38.999996
 20
-40.800018
 11
-34.999996
 21
-40.800018
  0
LINE
  8
0
 10
-39.000000
 20
-12.200012
 11
-35.000000
 21
-12.200012
  0
LINE
  8
0
 10
-39.000000
 20
-11.000000
 11
-35.000000
 21
-11.000000
  0
LINE
  8
0
 10
-39.000004
 20
40.800018
 11
-35.000004
 21
40.800018
  0
LINE
  8
0
 10
-39.000000
 20
12.199982
 11
-35.000000
 21
12.199982
  0
LINE
  8
0
 10
-39.000000
 20
11.000031
 11
-35.000000
 21
11.000031
  0
LINE
  8
0
 10
-39.000000
 20
11.000031
 11
-39.000000
 21
42.000031
  0
LINE
  8
0
 10
-42.500015
 20
17.500000
 11
-39.000000
 21
17.500000
  0
LINE
  8
0
 10
-42.500015
 20
23.500000
 11
-39.000000
 21
23.500000
  0
LINE
  8
0
 10
-42.500015
 20
-23.500000
 11
-39.000000
 21
-23.500000
  0
LINE
  8
0
 10
-42.500015
 20
-17.500000
 11
-39.000000
 21
-17.500000
  0
LINE
  8
0
 10
-42.499985
 20
-23.500031
 11
-42.499985
 21
-17.500031
  0
LINE
  8
0
 10
-42.499985
 20
17.500000
 11
-42.499985
 21
23.500000
  0
LINE
  8
0
  6
CENTER
 62
     2
 10
-44.626022
 20
20.500000
 11
-35.000000
 21
20.500000
  0
LINE
  8
0
  6
CENTER
 62
     2
 10
-44.626022
 20
-20.500000
 11
-35.000000
 21
-20.500000
  0
LINE
  8
0
 10
19.000000
 20
27.000004
 11
19.000000
 21
31.000004
  0
LINE
  8
0
 10
11.250000
 20
27.000000
 11
19.750000
 21
27.000000
  0
LINE
  8
0
  6
CENTER
 62
     2
 10
15.500000
 20
24.157993
 11
15.500000
 21
31.715000
  0
LINE
  8
0
 10
11.250015
 20
26.000004
 11
11.250015
 21
27.000004
  0
LINE
  8
0
 10
19.750000
 20
26.000004
 11
19.750000
 21
27.000004
  0
LINE
  8
0
 10
12.000015
 20
27.000004
 11
12.000015
 21
31.000004
  0
LINE
  8
0
 10
12.000000
 20
31.000000
 11
19.000000
 21
31.000000
  0
LINE
  8
0
 10
38.500015
 20
27.000036
 11
38.500015
 21
31.000006
  0
LINE
  8
0
 10
30.750015
 20
27.000031
 11
39.250015
 21
27.000031
  0
LINE
  8
0
  6
CENTER
 62
     2
 10
35.000000
 20
24.157995
 11
35.000000
 21
31.715063
  0
LINE
  8
0
 10
30.750015
 20
26.000036
 11
30.750015
 21
27.000036
  0
LINE
  8
0
 10
39.250015
 20
26.000036
 11
39.250015
 21
27.000036
  0
LINE
  8
0
 10
31.500015
 20
27.000036
 11
31.500015
 21
31.000006
  0
LINE
  8
0
 10
31.500015
 20
31.000031
 11
38.500015
 21
31.000031
  0
LINE
  8
0
 10
-4.000000
 20
42.500034
 11
-4.000000
 21
23.685427
  0
LINE
  8
0
 10
-4.000000
 20
-42.499966
 11
-4.000000
 21
-23.685453
  0
LINE
  8
0
  6
CENTER
 62
     2
 10
9.550003
 20
10.000031
 11
21.450001
 21
10.000031
  0
LINE
  8
0
  6
CENTER
 62
     2
 10
15.500000
 20
15.950034
 11
15.500000
 21
4.050034
  0
LINE
  8
0
 10
-35.000004
 20
42.500031
 11
-4.000004
 21
42.500031
  0
LINE
  8
0
 10
-34.999996
 20
-42.499969
 11
-3.999996
 21
-42.499969
  0
LINE
  8
0
 62
     4
 10
44.000000
 20
-19.200012
 11
45.000000
 21
-19.200012
  0
LINE
  8
0
 62
     4
 10
44.000000
 20
-23.800011
 11
45.000000
 21
-23.800011
  0
LINE
  8
0
 62
     4
 10
45.000000
 20
-19.200006
 11
45.000000
 21
-23.800005
  0
LINE
  8
0
 62
     4
 10
44.000000
 20
-22.799988
 11
45.000000
 21
-22.799988
  0
LINE
  8
0
 62
     4
 10
44.000000
 20
-23.350006
 11
45.000000
 21
-23.350006
  0
LINE
  8
0
 62
     4
 10
45.000000
 20
-20.199997
 11
51.749443
 21
-20.199997
  0
LINE
  8
0
 62
     4
 10
45.000000
 20
-22.800003
 11
53.250557
 21
-22.800003
  0
LINE
  8
0
 62
     1
 10
51.250000
 20
-19.334883
 11
53.750000
 21
-23.665010
  0
LINE
  8
0
 62
     4
 10
44.000000
 20
19.200012
 11
45.000000
 21
19.200012
  0
LINE
  8
0
 62
     4
 10
44.000000
 20
23.800011
 11
45.000000
 21
23.800011
  0
LINE
  8
0
 62
     4
 10
45.000000
 20
19.200018
 11
45.000000
 21
23.800016
  0
LINE
  8
0
 62
     4
 10
44.000000
 20
22.799988
 11
45.000000
 21
22.799988
  0
LINE
  8
0
 62
     4
 10
44.000000
 20
23.350006
 11
45.000000
 21
23.350006
  0
LINE
  8
0
 62
     4
 10
45.000000
 20
22.800003
 11
51.749443
 21
22.800003
  0
LINE
  8
0
 62
     4
 10
45.000000
 20
20.199997
 11
53.250557
 21
20.199997
  0
LINE
  8
0
 62
     1
 10
51.250008
 20
23.665117
 11
53.750011
 21
19.334991
  0
LINE
  8
0
 10
-142.500000
 20
40.800003
 11
-127.500000
 21
40.800003
  0
LINE
  8
0
 10
-142.499969
 20
42.000000
 11
-127.500015
 21
42.000000
  0
LINE
  8
0
  6
CENTER
 62
     2
 10
-159.305725
 20
0.000000
 11
-110.139801
 21
0.000000
  0
LINE
  8
0
  6
CENTER
 62
     2
 10
-135.000000
 20
-45.256104
 11
-135.000000
 21
46.146545
  0
LINE
  8
0
  6
CENTER
 62
     2
 10
-142.500000
 20
34.500000
 11
-127.500000
 21
34.500000
  0
LINE
  8
0
  6
CENTER
 62
     2
 10
-142.500000
 20
-34.500000
 11
-127.500000
 21
-34.500000
  0
LINE
  8
0
  6
CENTER
 62
     2
 10
-140.684540
 20
-20.500000
 11
-127.500000
 21
-20.500000
  0
LINE
  8
0
  6
CENTER
 62
     2
 10
-140.684540
 20
20.500000
 11
-127.500000
 21
20.500000
  0
LINE
  8
0
 10
-155.000000
 20
-40.868683
 11
-155.000000
 21
40.868698
  0
LINE
  8
0
 10
-115.000000
 20
-40.868683
 11
-115.000000
 21
40.868698
  0
LINE
  8
0
 10
-151.000000
 20
-42.500000
 11
-151.000000
 21
42.500000
  0
LINE
  8
0
 10
-118.999985
 20
-42.500000
 11
-118.999985
 21
42.500000
  0
LINE
  8
0
 10
-142.499969
 20
-42.500031
 11
-142.499969
 21
42.500000
  0
LINE
  8
0
 10
-127.500015
 20
-42.500031
 11
-127.500015
 21
42.500000
  0
LINE
  8
0
 10
-142.500000
 20
12.199982
 11
-127.500000
 21
12.199982
  0
LINE
  8
0
 10
-142.500000
 20
11.000000
 11
-127.500000
 21
11.000000
  0
LINE
  8
0
 10
-142.500000
 20
-11.000000
 11
-127.500000
 21
-11.000000
  0
LINE
  8
0
 10
-142.500000
 20
-12.200012
 11
-127.500000
 21
-12.200012
  0
LINE
  8
0
 10
-142.500000
 20
-40.799988
 11
-127.500000
 21
-40.799988
  0
LINE
  8
0
 10
-142.499969
 20
-42.000000
 11
-127.500015
 21
-42.000000
  0
LINE
  8
0
 10
-151.248093
 20
42.500000
 11
-118.751907
 21
42.500000
  0
LINE
  8
0
 10
-151.248093
 20
-42.500000
 11
-118.751907
 21
-42.500000
  0
LINE
  8
0
 10
108.118057
 20
25.999985
 11
141.881958
 21
25.999985
  0
LINE
  8
0
  6
CENTER
 62
     2
 10
125.000000
 20
44.036911
 11
125.000000
 21
-45.255157
  0
LINE
  8
0
 10
108.751923
 20
42.500000
 11
141.248093
 21
42.500000
  0
LINE
  8
0
  6
CENTER
 62
     2
 10
105.667755
 20
20.000000
 11
115.003357
 21
20.000000
  0
LINE
  8
0
  6
CENTER
 62
     2
 10
119.443466
 20
34.999985
 11
129.917557
 21
34.999985
  0
LINE
  8
0
  6
CENTER
 62
     2
 10
106.937241
 20
37.000000
 11
117.956512
 21
37.000000
  0
LINE
  8
0
 10
123.400009
 20
24.500015
 11
123.400009
 21
23.420914
  0
LINE
  8
0
 10
126.600021
 20
24.500015
 11
126.600021
 21
23.420914
  0
LINE
  8
0
 10
127.500015
 20
26.000015
 11
127.500015
 21
24.500015
  0
LINE
  8
0
 10
122.500000
 20
26.000015
 11
122.500000
 21
24.500015
  0
LINE
  8
0
 10
122.499985
 20
24.499985
 11
123.400009
 21
24.499985
  0
LINE
  8
0
 10
126.600006
 20
24.499985
 11
127.500000
 21
24.499985
  0
LINE
  8
0
  6
CENTER
 62
     2
 10
132.186081
 20
37.000000
 11
142.858276
 21
37.000000
  0
LINE
  8
0
  6
CENTER
 62
     2
 10
112.500000
 20
41.858978
 11
112.500000
 21
32.054428
  0
LINE
  8
0
  6
CENTER
 62
     2
 10
137.500000
 20
41.858978
 11
137.500000
 21
31.967697
  0
LINE
  8
0
  6
CENTER
 62
     2
 10
110.000000
 20
24.802183
 11
110.000000
 21
15.238891
  0
LINE
  8
0
 10
108.118057
 20
-26.000000
 11
141.881958
 21
-26.000000
  0
LINE
  8
0
 10
105.000000
 20
-40.868683
 11
105.000000
 21
40.868698
  0
LINE
  8
0
 10
145.000000
 20
-40.868683
 11
145.000000
 21
40.868698
  0
LINE
  8
0
 10
108.751923
 20
-42.500000
 11
141.248093
 21
-42.500000
  0
LINE
  8
0
  6
CENTER
 62
     2
 10
119.898865
 20
-35.000000
 11
130.372955
 21
-35.000000
  0
LINE
  8
0
  6
CENTER
 62
     2
 10
106.937241
 20
-37.000031
 11
117.956512
 21
-37.000031
  0
LINE
  8
0
 10
123.400009
 20
-24.500000
 11
123.400009
 21
-23.420929
  0
LINE
  8
0
 10
126.600021
 20
-24.500000
 11
126.600021
 21
-23.420929
  0
LINE
  8
0
 10
127.500015
 20
-26.000000
 11
127.500015
 21
-24.500000
  0
LINE
  8
0
 10
122.500000
 20
-26.000000
 11
122.500000
 21
-24.500000
  0
LINE
  8
0
 10
122.499985
 20
-24.500000
 11
123.400009
 21
-24.500000
  0
LINE
  8
0
 10
126.600006
 20
-24.500000
 11
127.500000
 21
-24.500000
  0
LINE
  8
0
  6
CENTER
 62
     2
 10
132.186081
 20
-37.000031
 11
142.858276
 21
-37.000031
  0
LINE
  8
0
  6
CENTER
 62
     2
 10
135.154602
 20
-20.000000
 11
144.717911
 21
-20.000000
  0
LINE
  8
0
  6
CENTER
 62
     2
 10
112.500000
 20
-41.858978
 11
112.500000
 21
-32.054443
  0
LINE
  8
0
  6
CENTER
 62
     2
 10
137.500000
 20
-41.858978
 11
137.500000
 21
-31.967682
  0
LINE
  8
0
  6
CENTER
 62
     2
 10
139.999985
 20
-24.722044
 11
139.999985
 21
-15.158751
  0
LINE
  8
0
  6
CENTER
 62
     2
 10
147.221146
 20
0.000000
 11
102.507339
 21
0.000000
  0
LINE
  8
0
 10
137.499939
 20
34.799992
 11
139.405212
 21
35.899998
  0
LINE
  8
0
 10
139.405273
 20
35.900009
 11
139.405273
 21
38.099991
  0
LINE
  8
0
 10
137.499924
 20
39.199947
 11
139.405197
 21
38.099941
  0
LINE
  8
0
 10
135.594696
 20
38.099979
 11
137.499939
 21
39.199982
  0
LINE
  8
0
 10
135.594742
 20
35.900009
 11
135.594742
 21
38.099991
  0
LINE
  8
0
 10
137.500015
 20
34.799934
 11
135.594757
 21
35.899940
  0
LINE
  8
0
 10
137.500031
 20
-39.199978
 11
139.405258
 21
-38.099987
  0
LINE
  8
0
 10
139.405273
 20
-38.100006
 11
139.405273
 21
-35.899994
  0
LINE
  8
0
 10
137.500031
 20
-34.800049
 11
139.405258
 21
-35.900040
  0
LINE
  8
0
 10
135.594788
 20
-35.899967
 11
137.500031
 21
-34.799976
  0
LINE
  8
0
 10
135.594742
 20
-38.100006
 11
135.594742
 21
-35.899994
  0
LINE
  8
0
 10
137.500015
 20
-39.200069
 11
135.594727
 21
-38.100060
  0
LINE
  8
0
 10
112.499977
 20
-39.200001
 11
114.405243
 21
-38.099995
  0
LINE
  8
0
 10
114.405243
 20
-38.100006
 11
114.405243
 21
-35.899994
  0
LINE
  8
0
 10
112.500015
 20
-34.799992
 11
114.405281
 21
-35.899990
  0
LINE
  8
0
 10
110.594734
 20
-35.899990
 11
112.500000
 21
-34.799980
  0
LINE
  8
0
 10
110.594757
 20
-38.100006
 11
110.594757
 21
-35.899994
  0
LINE
  8
0
 10
112.499969
 20
-39.200058
 11
110.594711
 21
-38.100063
  0
LINE
  8
0
 10
112.500038
 20
34.800022
 11
114.405251
 21
35.899998
  0
LINE
  8
0
 10
114.405243
 20
35.900009
 11
114.405243
 21
38.099991
  0
LINE
  8
0
 10
112.499931
 20
39.199974
 11
114.405174
 21
38.099983
  0
LINE
  8
0
 10
110.594711
 20
38.100021
 11
112.499939
 21
39.200001
  0
LINE
  8
0
 10
110.594757
 20
35.900009
 11
110.594757
 21
38.099991
  0
LINE
  8
0
 10
112.499969
 20
34.799934
 11
110.594704
 21
35.899940
  0
LINE
  8
0
 10
118.500015
 20
-27.000000
 11
118.500015
 21
-31.000000
  0
LINE
  8
0
 10
110.750000
 20
-27.000000
 11
119.250015
 21
-27.000000
  0
LINE
  8
0
  6
CENTER
 62
     2
 10
115.000000
 20
-24.157990
 11
115.000000
 21
-31.715027
  0
LINE
  8
0
 10
110.750000
 20
-26.000002
 11
110.750000
 21
-27.000002
  0
LINE
  8
0
 10
119.250015
 20
-26.000000
 11
119.250015
 21
-27.000000
  0
LINE
  8
0
 10
111.500000
 20
-27.000002
 11
111.500000
 21
-31.000002
  0
LINE
  8
0
 10
111.500000
 20
-31.000031
 11
118.500000
 21
-31.000031
  0
LINE
  8
0
 10
138.500000
 20
-26.999998
 11
138.500000
 21
-30.999998
  0
LINE
  8
0
 10
130.750000
 20
-27.000000
 11
139.250000
 21
-27.000000
  0
LINE
  8
0
  6
CENTER
 62
     2
 10
135.000031
 20
-24.157990
 11
135.000031
 21
-31.715027
  0
LINE
  8
0
 10
130.750000
 20
-26.000000
 11
130.750000
 21
-27.000000
  0
LINE
  8
0
 10
139.249985
 20
-25.999998
 11
139.249985
 21
-26.999998
  0
LINE
  8
0
 10
131.500000
 20
-27.000000
 11
131.500000
 21
-31.000000
  0
LINE
  8
0
 10
131.499985
 20
-31.000031
 11
138.500000
 21
-31.000031
  0
LINE
  8
0
 62
     4
 10
122.949951
 20
-22.930025
 11
123.499947
 21
-23.480024
  0
LINE
  8
0
 62
     4
 10
123.500000
 20
-23.929989
 11
123.500000
 21
-23.479992
  0
LINE
  8
0
 62
     4
 10
123.500000
 20
-23.929989
 11
126.500000
 21
-23.929989
  0
LINE
  8
0
 62
     4
 10
126.500000
 20
-23.929989
 11
126.500000
 21
-23.479992
  0
LINE
  8
0
 62
     4
 10
127.049973
 20
-22.930027
 11
126.499985
 21
-23.480019
  0
LINE
  8
0
 62
     4
 10
123.750000
 20
-24.429989
 11
123.750000
 21
-23.929989
  0
LINE
  8
0
 62
     4
 10
126.250000
 20
-24.429989
 11
126.250000
 21
-23.929989
  0
LINE
  8
0
 62
     4
 10
123.750000
 20
-24.429989
 11
126.250000
 21
-24.429989
  0
LINE
  8
0
 62
     4
 10
122.949944
 20
-22.930027
 11
122.949944
 21
-21.380028
  0
LINE
  8
0
 62
     4
 10
127.050049
 20
-22.930027
 11
127.050049
 21
-21.380028
  0
LINE
  8
0
 62
     4
 10
122.949936
 20
22.930037
 11
123.499931
 21
23.480030
  0
LINE
  8
0
 62
     4
 10
123.500000
 20
23.929989
 11
123.500000
 21
23.479992
  0
LINE
  8
0
 62
     4
 10
123.500000
 20
23.929989
 11
126.500000
 21
23.929989
  0
LINE
  8
0
 62
     4
 10
126.500000
 20
23.929989
 11
126.500000
 21
23.479992
  0
LINE
  8
0
 62
     4
 10
127.049957
 20
22.930038
 11
126.499969
 21
23.480038
  0
LINE
  8
0
 62
     4
 10
123.750000
 20
24.429989
 11
123.750000
 21
23.929989
  0
LINE
  8
0
 62
     4
 10
126.250000
 20
24.429989
 11
126.250000
 21
23.929989
  0
LINE
  8
0
 62
     4
 10
123.750000
 20
24.429989
 11
126.250000
 21
24.429989
  0
LINE
  8
0
 62
     4
 10
122.949944
 20
22.930027
 11
122.949944
 21
21.380028
  0
LINE
  8
0
 62
     4
 10
127.050049
 20
22.930027
 11
127.050049
 21
21.380028
  0
LINE
  8
0
  6
CENTER
 62
     2
 10
-44.000061
 20
90.000000
 11
55.500000
 21
90.000000
  0
LINE
  8
0
 10
2.800011
 20
91.599998
 11
44.000008
 21
91.599998
  0
LINE
  8
0
 10
2.800011
 20
88.400002
 11
44.000008
 21
88.400002
  0
LINE
  8
0
 10
2.800014
 20
92.500008
 11
44.000015
 21
92.500008
  0
LINE
  8
0
 10
2.800007
 20
87.499992
 11
44.000000
 21
87.499992
  0
LINE
  8
0
 10
-35.000023
 20
73.999992
 11
-23.000006
 21
73.999992
  0
LINE
  8
0
 10
-34.999977
 20
106.000008
 11
-22.999964
 21
106.000008
  0
LINE
  8
0
 10
-25.999958
 20
109.999992
 11
44.000031
 21
109.999992
  0
LINE
  8
0
 10
44.000000
 20
69.999893
 11
44.000000
 21
88.499893
  0
LINE
  8
0
 10
-26.000011
 20
70.000000
 11
43.999985
 21
70.000000
  0
LINE
  8
0
 10
-22.999964
 20
104.790001
 11
-3.999979
 21
104.790001
  0
LINE
  8
0
 10
-23.000006
 20
75.209991
 11
-4.000021
 21
75.209991
  0
LINE
  8
0
 10
-4.000023
 20
73.120010
 11
43.999985
 21
73.120010
  0
LINE
  8
0
 10
-3.999977
 20
106.880005
 11
44.000031
 21
106.880005
  0
LINE
  8
0
 10
-22.999985
 20
73.999977
 11
-22.999985
 21
105.999992
  0
LINE
  8
0
 10
-25.999985
 20
105.999992
 11
-25.999985
 21
109.999977
  0
LINE
  8
0
 10
-25.999985
 20
69.999985
 11
-25.999985
 21
73.999977
  0
LINE
  8
0
 10
-35.000000
 20
106.000008
 11
-35.000000
 21
97.500000
  0
LINE
  8
0
 10
-39.000000
 20
97.500008
 11
-39.000000
 21
82.500008
  0
LINE
  8
0
 10
-42.499985
 20
93.000008
 11
-42.499985
 21
87.000008
  0
LINE
  8
0
 10
-38.999992
 20
97.500000
 11
-29.499975
 21
97.500000
  0
LINE
  8
0
 10
-39.000008
 20
82.500000
 11
-29.499994
 21
82.500000
  0
LINE
  8
0
 10
-42.500011
 20
93.000000
 11
-38.999996
 21
93.000000
  0
LINE
  8
0
 10
-42.500019
 20
87.000000
 11
-39.000004
 21
87.000000
  0
LINE
  8
0
 10
-29.499985
 20
97.499992
 11
-29.499985
 21
82.499992
  0
LINE
  8
0
 10
-35.000000
 20
82.500000
 11
-35.000000
 21
73.999992
  0
LINE
  8
0
  6
CENTER
 62
     2
 10
-33.999985
 20
97.500000
 11
-33.999985
 21
82.500000
  0
LINE
  8
0
  6
CENTER
 62
     2
 10
-39.000008
 20
85.799995
 11
-29.499990
 21
85.799995
  0
LINE
  8
0
  6
CENTER
 62
     2
 10
-38.999992
 20
94.200005
 11
-29.499979
 21
94.200005
  0
LINE
  8
0
 10
-34.999950
 20
105.499954
 11
-34.499947
 21
105.999954
  0
LINE
  8
0
  6
CENTER
 62
     2
 10
15.500000
 20
87.499924
 11
15.500000
 21
73.119942
  0
LINE
  8
0
  6
CENTER
 62
     2
 10
35.000000
 20
106.879913
 11
35.000000
 21
92.499916
  0
LINE
  8
0
  6
CENTER
 62
     2
 10
27.825233
 20
100.000000
 11
41.732277
 21
100.000000
  0
LINE
  8
0
  6
CENTER
 62
     2
 10
7.408485
 20
79.999992
 11
23.386795
 21
79.999992
  0
LINE
  8
0
 10
38.477089
 20
100.400002
 11
31.522964
 21
100.400002
  0
LINE
  8
0
 10
38.477089
 20
99.599991
 11
31.522964
 21
99.599991
  0
LINE
  8
0
 10
18.977051
 20
80.399994
 11
12.022926
 21
80.399994
  0
LINE
  8
0
 10
18.977051
 20
79.599998
 11
12.022926
 21
79.599998
  0
LINE
  8
0
 10
-4.000000
 20
69.999954
 11
-4.000000
 21
109.999947
  0
LINE
  8
0
 62
     4
 10
23.000000
 20
88.500000
 11
45.000000
 21
88.500000
  0
LINE
  8
0
 62
     4
 10
23.000000
 20
91.500000
 11
45.000000
 21
91.500000
  0
LINE
  8
0
 62
     4
 10
44.000000
 20
87.949997
 11
45.000000
 21
87.949997
  0
LINE
  8
0
 62
     4
 10
44.000000
 20
92.050003
 11
45.000000
 21
92.050003
  0
LINE
  8
0
 62
     4
 10
23.000000
 20
91.599922
 11
23.000000
 21
88.399925
  0
LINE
  8
0
 62
     4
 10
45.000000
 20
92.049896
 11
45.000000
 21
87.949890
  0
LINE
  8
0
 62
     4
 10
23.965767
 20
89.297882
 11
25.702044
 21
91.034149
  0
LINE
  8
0
 62
     4
 10
24.323708
 20
88.948685
 11
26.051270
 21
90.676239
  0
LINE
  8
0
 62
     4
 10
45.000000
 20
91.300003
 11
51.749443
 21
91.300003
  0
LINE
  8
0
 62
     4
 10
45.000000
 20
88.699997
 11
53.250557
 21
88.699997
  0
LINE
  8
0
 62
     1
 10
51.250008
 20
92.165024
 11
53.750000
 21
87.834892
  0
LINE
  8
0
 10
44.000000
 20
91.499893
 11
44.000000
 21
109.999886
  0
LINE
  8
0
  6
CENTER
 62
     2
 10
-44.000061
 20
-90.000000
 11
55.500000
 21
-90.000000
  0
LINE
  8
0
 10
2.800011
 20
-91.600006
 11
44.000008
 21
-91.600006
  0
LINE
  8
0
 10
2.800011
 20
-88.399994
 11
44.000008
 21
-88.399994
  0
LINE
  8
0
 10
2.800011
 20
-92.500000
 11
44.000008
 21
-92.500000
  0
LINE
  8
0
 10
2.800011
 20
-87.499969
 11
44.000008
 21
-87.499969
  0
LINE
  8
0
 10
-34.999992
 20
-73.999969
 11
-22.999987
 21
-73.999969
  0
LINE
  8
0
 10
-35.000008
 20
-106.000000
 11
-22.999998
 21
-106.000000
  0
LINE
  8
0
 10
-26.000000
 20
-109.999969
 11
44.000000
 21
-109.999969
  0
LINE
  8
0
 10
44.000000
 20
-70.000031
 11
44.000000
 21
-88.500031
  0
LINE
  8
0
 10
-25.999985
 20
-70.000000
 11
44.000015
 21
-70.000000
  0
LINE
  8
0
  6
CENTER
 62
     2
 10
14.000000
 20
-74.997917
 11
14.000000
 21
-83.779594
  0
LINE
  8
0
  6
CENTER
 62
     2
 10
8.764233
 20
-100.000000
 11
19.267803
 21
-100.000000
  0
LINE
  8
0
  6
CENTER
 62
     2
 10
9.280804
 20
-79.999969
 11
19.267811
 21
-79.999969
  0
LINE
  8
0
  6
CENTER
 62
     2
 10
14.000000
 20
-95.832878
 11
14.000000
 21
-104.442345
  0
LINE
  8
0
 10
-22.999998
 20
-104.790009
 11
-4.000006
 21
-104.790009
  0
LINE
  8
0
 10
-22.999987
 20
-75.209991
 11
-3.999994
 21
-75.209991
  0
LINE
  8
0
 10
-3.999992
 20
-73.119965
 11
44.000015
 21
-73.119965
  0
LINE
  8
0
 10
-4.000008
 20
-106.880005
 11
44.000000
 21
-106.880005
  0
LINE
  8
0
 10
-22.999992
 20
-73.999977
 11
-22.999992
 21
-106.000008
  0
LINE
  8
0
 10
-25.999992
 20
-106.000000
 11
-25.999992
 21
-109.999969
  0
LINE
  8
0
 10
-25.999992
 20
-70.000000
 11
-25.999992
 21
-73.999969
  0
LINE
  8
0
 10
-35.000000
 20
-106.000000
 11
-35.000000
 21
-97.500000
  0
LINE
  8
0
 10
-39.000000
 20
-97.500000
 11
-39.000000
 21
-82.499969
  0
LINE
  8
0
 10
-42.499985
 20
-93.000000
 11
-42.499985
 21
-86.999969
  0
LINE
  8
0
 10
-39.000004
 20
-97.500000
 11
-29.499989
 21
-97.500000
  0
LINE
  8
0
 10
-38.999996
 20
-82.499969
 11
-29.499981
 21
-82.499969
  0
LINE
  8
0
 10
-42.500000
 20
-93.000000
 11
-39.000000
 21
-93.000000
  0
LINE
  8
0
 10
-42.500000
 20
-86.999969
 11
-39.000000
 21
-86.999969
  0
LINE
  8
0
 10
-29.499985
 20
-97.500000
 11
-29.499985
 21
-82.499969
  0
LINE
  8
0
 10
-35.000000
 20
-82.499969
 11
-35.000000
 21
-73.999969
  0
LINE
  8
0
  6
CENTER
 62
     2
 10
-33.999985
 20
-97.500000
 11
-33.999985
 21
-82.499969
  0
LINE
  8
0
  6
CENTER
 62
     2
 10
-39.000000
 20
-85.799988
 11
-29.499983
 21
-85.799988
  0
LINE
  8
0
  6
CENTER
 62
     2
 10
-39.000000
 20
-94.199982
 11
-29.499987
 21
-94.199982
  0
LINE
  8
0
 10
-34.999851
 20
-105.499878
 11
-34.499859
 21
-105.999870
  0
LINE
  8
0
 10
-4.000000
 20
-70.000015
 11
-4.000000
 21
-109.999985
  0
LINE
  8
0
 62
     4
 10
23.000000
 20
-91.500000
 11
45.000000
 21
-91.500000
  0
LINE
  8
0
 62
     4
 10
23.000000
 20
-88.500000
 11
45.000000
 21
-88.500000
  0
LINE
  8
0
 62
     4
 10
44.000000
 20
-92.050003
 11
45.000000
 21
-92.050003
  0
LINE
  8
0
 62
     4
 10
44.000000
 20
-87.949997
 11
45.000000
 21
-87.949997
  0
LINE
  8
0
 62
     4
 10
23.000000
 20
-88.400017
 11
23.000000
 21
-91.600029
  0
LINE
  8
0
 62
     4
 10
45.000000
 20
-87.950027
 11
45.000000
 21
-92.050034
  0
LINE
  8
0
 62
     4
 10
23.965790
 20
-90.702057
 11
25.702063
 21
-88.965790
  0
LINE
  8
0
 62
     4
 10
24.323702
 20
-91.051285
 11
26.051256
 21
-89.323723
  0
LINE
  8
0
 62
     4
 10
45.000000
 20
-88.699997
 11
51.749443
 21
-88.699997
  0
LINE
  8
0
 62
     4
 10
45.000000
 20
-91.300003
 11
53.250557
 21
-91.300003
  0
LINE
  8
0
 62
     1
 10
51.249985
 20
-87.834930
 11
53.749981
 21
-92.165054
  0
LINE
  8
0
 10
44.000000
 20
-91.500031
 11
44.000000
 21
-110.000000
  0
LINE
  8
0
 10
-194.250000
 20
132.600006
 11
194.800003
 21
132.600006
  0
LINE
  8
0
 10
194.800003
 20
132.600006
 11
194.800003
 21
-133.500000
  0
LINE
  8
0
 10
-194.250000
 20
132.600006
 11
-194.250000
 21
-133.500000
  0
LINE
  8
0
 10
-194.250000
 20
-133.500000
 11
194.800003
 21
-133.500000
  0
LINE
  8
0
 10
109.800003
 20
-118.500000
 11
109.800003
 21
-133.500000
  0
LINE
  8
0
 10
109.800003
 20
-118.500000
 11
194.800003
 21
-118.500000
  0
LINE
  8
0
 10
109.800003
 20
132.600006
 11
109.800003
 21
117.600006
  0
LINE
  8
0
 10
109.800003
 20
117.600006
 11
194.800003
 21
117.600006
  0
LINE
  8
0
 10
-194.250000
 20
117.600006
 11
-109.250000
 21
117.600006
  0
LINE
  8
0
 10
-109.250000
 20
132.600006
 11
-109.250000
 21
117.600006
  0
CIRCLE
  8
0
 10
35.000000
 20
-9.999994
 40
4.250000
  0
CIRCLE
  8
0
 10
7.000015
 20
-14.999967
 40
2.600000
  0
CIRCLE
  8
0
 10
35.000000
 20
-9.999994
 40
2.000000
  0
CIRCLE
  8
0
 10
-7.999983
 20
-14.999998
 40
2.500000
  0
CIRCLE
  8
0
 10
-18.999983
 20
-24.999998
 40
2.000000
  0
CIRCLE
  8
0
 62
     2
 10
-18.999983
 20
-24.999998
 40
2.500000
  0
CIRCLE
  8
0
 10
7.000015
 20
-14.999967
 40
4.750000
  0
CIRCLE
  8
0
 62
     2
 10
15.500000
 20
10.000034
 40
2.500000
  0
CIRCLE
  8
0
 10
15.500000
 20
10.000034
 40
2.000000
  0
CIRCLE
  8
0
 10
15.500000
 20
10.000034
 40
4.250000
  0
CIRCLE
  8
0
 10
7.000015
 20
15.000003
 40
2.600000
  0
CIRCLE
  8
0
 10
-7.999987
 20
15.000002
 40
2.500000
  0
CIRCLE
  8
0
 62
     2
 10
-18.999987
 20
25.000032
 40
2.500000
  0
CIRCLE
  8
0
 10
-18.999987
 20
25.000032
 40
2.000000
  0
CIRCLE
  8
0
 10
7.000015
 20
15.000003
 40
4.750000
  0
CIRCLE
  8
0
 62
     2
 10
35.000000
 20
-9.999994
 40
2.500000
  0
ARC
  8
0
 10
-135.000000
 20
0.000000
 40
45.500004
 50
290.922272
 51
296.075867
  0
ARC
  8
0
 10
-135.000000
 20
0.000000
 40
45.500004
 50
110.922241
 51
116.075859
  0
CIRCLE
  8
0
 10
-135.000000
 20
-34.500000
 40
2.500000
  0
ARC
  8
0
 10
-135.000000
 20
0.000000
 40
45.500004
 50
63.924164
 51
69.077759
  0
ARC
  8
0
 10
-135.000000
 20
0.000000
 40
45.500004
 50
243.924164
 51
249.077805
  0
CIRCLE
  8
0
 62
     2
 10
-135.000000
 20
34.500000
 40
3.000000
  0
CIRCLE
  8
0
 10
-135.000000
 20
20.500000
 40
3.000000
  0
CIRCLE
  8
0
 10
-135.000000
 20
-20.500000
 40
3.000000
  0
CIRCLE
  8
0
 62
     2
 10
-135.000000
 20
-34.500000
 40
3.000000
  0
CIRCLE
  8
0
 10
-135.000000
 20
34.500000
 40
2.500000
  0
CIRCLE
  8
0
 62
     4
 10
125.000000
 20
-21.630001
 40
1.300000
  0
CIRCLE
  8
0
 10
112.500000
 20
37.000000
 40
4.250000
  0
ARC
  8
0
 62
     4
 10
125.000000
 20
-21.380028
 40
2.050003
 50
359.999939
 51
180.000000
  0
ARC
  8
0
 62
     4
 10
125.000000
 20
21.380028
 40
2.050003
 50
179.999954
 51
0.000000
  0
ARC
  8
0
 10
125.000000
 20
-21.500000
 40
2.500000
 50
306.869904
 51
0.000000
  0
CIRCLE
  8
0
 62
     4
 10
125.000000
 20
21.630001
 40
1.300000
  0
ARC
  8
0
 10
125.000000
 20
21.499985
 40
2.500000
 50
126.869896
 51
0.000000
  0
ARC
  8
0
 10
125.000000
 20
21.499985
 40
2.500000
 50
0.000000
 51
53.130104
  0
CIRCLE
  8
0
 62
     2
 10
125.000000
 20
34.999985
 40
3.000000
  0
CIRCLE
  8
0
 10
125.000000
 20
34.999985
 40
2.500000
  0
CIRCLE
  8
0
 10
112.500000
 20
37.000000
 40
2.200000
  0
CIRCLE
  8
0
 10
137.500000
 20
37.000000
 40
2.200000
  0
CIRCLE
  8
0
 10
112.500000
 20
37.000000
 40
4.500000
  0
CIRCLE
  8
0
 10
137.500000
 20
37.000000
 40
4.500000
  0
CIRCLE
  8
0
 10
125.000000
 20
0.000000
 40
17.000000
  0
ARC
  8
0
 10
125.000000
 20
0.000000
 40
30.999996
 50
49.822262
 51
57.004116
  0
ARC
  8
0
 10
125.000000
 20
0.000000
 40
31.000002
 50
122.995865
 51
130.177780
  0
ARC
  8
0
 10
125.000000
 20
-21.500000
 40
2.500000
 50
0.000000
 51
233.130096
  0
CIRCLE
  8
0
 62
     2
 10
125.000000
 20
-35.000000
 40
3.000000
  0
CIRCLE
  8
0
 10
125.000000
 20
-35.000000
 40
2.500000
  0
CIRCLE
  8
0
 10
112.500000
 20
-37.000031
 40
2.200000
  0
CIRCLE
  8
0
 10
137.500000
 20
-37.000031
 40
2.200000
  0
CIRCLE
  8
0
 10
112.500000
 20
-37.000031
 40
4.500000
  0
CIRCLE
  8
0
 10
137.500000
 20
-37.000031
 40
4.500000
  0
ARC
  8
0
 10
125.000000
 20
0.000000
 40
31.000004
 50
229.822220
 51
237.004120
  0
ARC
  8
0
 10
125.000000
 20
0.000000
 40
30.999998
 50
302.995880
 51
310.177765
  0
ARC
  8
0
 10
125.000000
 20
0.000000
 40
45.500004
 50
243.924164
 51
249.077728
  0
ARC
  8
0
 10
125.000000
 20
0.000000
 40
45.500004
 50
110.922272
 51
116.075836
  0
ARC
  8
0
 10
125.000000
 20
0.000000
 40
45.500004
 50
63.924183
 51
69.077759
  0
ARC
  8
0
 10
125.000000
 20
0.000000
 40
45.500004
 50
290.922272
 51
296.075836
  0
CIRCLE
  8
0
 62
     2
 10
110.000000
 20
19.999983
 40
3.000000
  0
CIRCLE
  8
0
 62
     2
 10
139.999985
 20
-19.999998
 40
3.000000
  0
CIRCLE
  8
0
 10
139.999985
 20
-19.999998
 40
2.500000
  0
CIRCLE
  8
0
 10
110.000000
 20
19.999983
 40
2.500000
  0
CIRCLE
  8
0
 10
137.500000
 20
37.000000
 40
4.250000
  0
CIRCLE
  8
0
 10
137.500000
 20
-37.000031
 40
4.250000
  0
CIRCLE
  8
0
 10
112.500000
 20
-37.000031
 40
4.250000
  0
CIRCLE
  8
0
 10
15.499985
 20
79.999924
 40
4.750000
  0
CIRCLE
  8
0
 10
35.000015
 20
99.999908
 40
4.750000
  0
CIRCLE
  8
0
 10
-33.999992
 20
85.800003
 40
2.000000
  0
CIRCLE
  8
0
 10
35.000015
 20
99.999908
 40
3.500000
  0
CIRCLE
  8
0
 62
     4
 10
25.000015
 20
89.999924
 40
1.400000
  0
CIRCLE
  8
0
 62
     4
 10
25.000015
 20
89.999924
 40
1.250000
  0
CIRCLE
  8
0
 10
15.499985
 20
79.999924
 40
3.500000
  0
ARC
  8
0
 10
2.800011
 20
89.999947
 40
2.500000
 50
89.999878
 51
269.999908
  0
ARC
  8
0
 10
2.800011
 20
89.999947
 40
1.599998
 50
89.999878
 51
269.999908
  0
CIRCLE
  8
0
 10
-33.999977
 20
94.200005
 40
2.000000
  0
CIRCLE
  8
0
 10
14.000004
 20
-79.999992
 40
2.500000
  0
CIRCLE
  8
0
 10
13.999996
 20
-100.000023
 40
2.500000
  0
CIRCLE
  8
0
 62
     2
 10
14.000004
 20
-79.999992
 40
3.000000
  0
CIRCLE
  8
0
 62
     4
 10
25.000015
 20
-90.000023
 40
1.250000
  0
CIRCLE
  8
0
 10
-33.999985
 20
-94.199982
 40
2.000000
  0
CIRCLE
  8
0
 10
-33.999985
 20
-85.799988
 40
2.000000
  0
CIRCLE
  8
0
 62
     4
 10
25.000015
 20
-90.000023
 40
1.400000
  0
ARC
  8
0
 10
2.800011
 20
-90.000015
 40
2.500000
 50
89.999969
 51
269.999939
  0
ARC
  8
0
 10
2.800011
 20
-90.000015
 40
1.599998
 50
89.999977
 51
269.999939
  0
CIRCLE
  8
0
 62
     2
 10
13.999996
 20
-100.000023
 40
3.000000
  0
TEXT
  8
0
 10
133.907150
 20
122.050003
 40
4.500000
  1
Ver. 1.0
 50
0.000000
 41
1.052631
 51
0.000000
  7
STANDARD
  0
TEXT
  8
0
 10
113.700279
 20
-130.669998
 40
6.300000
  1
KOGANEI CORP.
 50
0.000000
 41
1.052632
 51
0.000000
  7
STANDARD
  0
TEXT
  8
0
 10
-170.142654
 20
122.050003
 40
4.500000
  1
AIR HAND
 50
0.000000
 41
1.052632
 51
0.000000
  7
STANDARD
  0
TEXT
  8
0
 10
-186.892654
 20
104.550003
 40
4.500000
  1
MODEL:NHBDPG-32-ZE135A2
 50
0.000000
 41
1.052632
 51
0.000000
  7
STANDARD
  0
ENDSEC
  0
EOF
