  0
SECTION
  2
HEADER
  0
ENDSEC
  0
SECTION
  2
TABLES
  0
TABLE
  2
LTYPE
 70
     4
  0
LTYPE
  2
CONTINUOUS
 70
    64
  3
Solid line
 72
    65
 73
     0
 40
0.000000
  0
LTYPE
  2
DASHED
 70
    64
  3
__ __ __ __ __ __ __ __ __ __ __ __ __ __ __
 72
    65
 73
     2
 40
3.500000
 49
2.000000
 49
-1.500000
  0
LTYPE
  2
CENTER
 70
    64
  3
____ _ ____ _ ____ _ ____ _ ____ _ ____ _ ____
 72
    65
 73
     4
 40
17.500000
 49
13.000000
 49
-1.500000
 49
1.500000
 49
-1.500000
  0
LTYPE
  2
PHANTOM
 70
    64
  3
_____ _ _ _____ _ _ _____ _ _ _____ _ _ ____  
 72
    65
 73
     6
 40
15.500000
 49
8.000000
 49
-1.500000
 49
1.500000
 49
-1.500000
 49
1.500000
 49
-1.500000
  0
LTYPE
  2
DASHED1
 70
    64
  3
__ __ __ __ __ __ __ __ __ __ __ __ __ __ __
 72
    65
 73
     2
 40
1.500000
 49
1.000000
 49
-0.500000
  0
LTYPE
  2
DASHED2
 70
    64
  3
__ __ __ __ __ __ __ __ __ __ __ __ __ __ __
 72
    65
 73
     2
 40
3.500000
 49
2.500000
 49
-1.000000
  0
LTYPE
  2
DASHED3
 70
    64
  3
__ __ __ __ __ __ __ __ __ __ __ __ __ __ __
 72
    65
 73
     2
 40
6.000000
 49
4.000000
 49
-2.000000
  0
LTYPE
  2
DASHED4
 70
    64
  3
__ __ __ __ __ __ __ __ __ __ __ __ __ __ __
 72
    65
 73
     2
 40
12.000000
 49
10.000000
 49
-2.000000
  0
LTYPE
  2
DASHED5
 70
    64
  3
__ __ __ __ __ __ __ __ __ __ __ __ __ __ __
 72
    65
 73
     2
 40
17.000000
 49
15.000000
 49
-2.000000
  0
LTYPE
  2
DASHED6
 70
    64
  3
__ __ __ __ __ __ __ __ __ __ __ __ __ __ __
 72
    65
 73
     2
 40
29.000000
 49
27.000000
 49
-2.000000
  0
LTYPE
  2
PHANTOM1
 70
    64
  3
_____ _ _ _____ _ _ _____ _ _ _____ _ _ ____  
 72
    65
 73
     6
 40
31.000000
 49
25.000000
 49
-1.500000
 49
1.000000
 49
-1.000000
 49
1.000000
 49
-1.500000
  0
LTYPE
  2
PHANTOM2
 70
    64
  3
_____ _ _ _____ _ _ _____ _ _ _____ _ _ ____  
 72
    65
 73
     6
 40
36.000000
 49
27.000000
 49
-1.500000
 49
2.500000
 49
-1.000000
 49
2.500000
 49
-1.500000
  0
LTYPE
  2
PHANTOM3
 70
    64
  3
_____ _ _ _____ _ _ _____ _ _ _____ _ _ ____  
 72
    65
 73
     6
 40
78.000000
 49
64.000000
 49
-2.000000
 49
4.000000
 49
-2.000000
 49
4.000000
 49
-2.000000
  0
LTYPE
  2
CENTER1
 70
    64
  3
____ _ ____ _ ____ _ ____ _ ____ _ ____ _ ____
 72
    65
 73
     4
 40
19.000000
 49
14.000000
 49
-1.000000
 49
3.000000
 49
-1.000000
  0
LTYPE
  2
CENTER2
 70
    64
  3
____ _ ____ _ ____ _ ____ _ ____ _ ____ _ ____
 72
    65
 73
     4
 40
28.500000
 49
25.000000
 49
-1.000000
 49
1.500000
 49
-1.000000
  0
LTYPE
  2
CENTER3
 70
    64
  3
____ _ ____ _ ____ _ ____ _ ____ _ ____ _ ____
 72
    65
 73
     4
 40
31.500000
 49
27.000000
 49
-1.000000
 49
2.500000
 49
-1.000000
  0
LTYPE
  2
CENTER4
 70
    64
  3
____ _ ____ _ ____ _ ____ _ ____ _ ____ _ ____
 72
    65
 73
     4
 40
50.000000
 49
45.000000
 49
-1.000000
 49
3.000000
 49
-1.000000
  0
LTYPE
  2
CENTER5
 70
    64
  3
____ _ ____ _ ____ _ ____ _ ____ _ ____ _ ____
 72
    65
 73
     4
 40
100.000000
 49
92.000000
 49
-2.000000
 49
4.000000
 49
-2.000000
  0
LTYPE
  2
SBK1
 70
    64
  3
______ _ _ _ ______ _ _ _ ______ _ _ _ _____  
 72
    65
 73
     8
 40
60.500000
 49
45.000000
 49
-2.000000
 49
2.500000
 49
-2.000000
 49
2.500000
 49
-2.000000
 49
2.500000
 49
-2.000000
  0
LTYPE
  2
SBK2
 70
    64
  3
______ _ _ _ ______ _ _ _ ______ _ _ _ _____  
 72
    65
 73
     8
 40
84.000000
 49
64.000000
 49
-2.000000
 49
4.000000
 49
-2.000000
 49
4.000000
 49
-2.000000
 49
4.000000
 49
-2.000000
  0
LTYPE
  2
STCH
 70
    64
  3
__ __ __ __ __ __ __ __ __ __ __ __ __ __ __
 72
    65
 73
     2
 40
3.000000
 49
1.000000
 49
-2.000000
  0
LTYPE
  2
MTCH
 70
    64
  3
_____ _ _ _____ _ _ _____ _ _ _____ _ _ ____  
 72
    65
 73
     6
 40
80.000000
 49
66.000000
 49
-2.000000
 49
4.000000
 49
-2.000000
 49
4.000000
 49
-2.000000
  0
ENDTAB
  0
TABLE
  2
LAYER
 70
     1
  0
LAYER
  2
0
 70
     0
 62
     7
  6
CONTINUOUS
  0
ENDTAB
  0
TABLE
  2
STYLE
 70
     1
  0
STYLE
  2
STANDARD
 70
     0
 40
0.000000
 41
1.000000
 50
0.000000
 71
     0
 42
0.200000
  3
txt
  4
BIGFONT
  0
ENDTAB
  0
TABLE
  2
VIEW
 70
     0
  0
ENDTAB
  0
ENDSEC
  0
SECTION
  2
BLOCKS
  0
ENDSEC
  0
SECTION
  2
ENTITIES
  0
LINE
  8
0
  6
CENTER
 62
     2
 10
-70.400223
 20
-14.137978
 11
-27.390793
 21
-14.137978
  0
LINE
  8
0
 10
-67.106049
 20
-2.637978
 11
-31.106045
 21
-2.637978
  0
LINE
  8
0
 10
-67.106049
 20
-25.637978
 11
-31.106045
 21
-25.637978
  0
LINE
  8
0
  6
CENTER
 62
     2
 10
-62.981045
 20
-7.137978
 11
-59.231045
 21
-7.137978
  0
LINE
  8
0
  6
CENTER
 62
     2
 10
-53.356045
 20
-5.137978
 11
-48.856045
 21
-5.137978
  0
LINE
  8
0
 10
-67.106049
 20
-2.637978
 11
-67.106049
 21
-25.637978
  0
LINE
  8
0
 10
-31.106045
 20
-2.637975
 11
-31.106045
 21
-25.637974
  0
LINE
  8
0
 10
-80.260452
 20
0.582619
 11
-81.295731
 21
-3.281088
  0
LINE
  8
0
 10
-81.295769
 20
-3.281071
 11
-67.289841
 21
-7.033947
  0
LINE
  8
0
 10
-81.295753
 20
-24.994883
 11
-67.289825
 21
-21.242006
  0
LINE
  8
0
 10
-80.260460
 20
0.582626
 11
-67.106033
 21
-2.942092
  0
LINE
  8
0
 10
-80.260490
 20
-28.858585
 11
-67.106056
 21
-25.333862
  0
LINE
  8
0
 10
-81.295723
 20
-24.994867
 11
-80.260445
 21
-28.858572
  0
LINE
  8
0
  6
CENTER
 62
     2
 10
-84.555573
 20
-0.854695
 11
-56.968323
 21
-8.246676
  0
LINE
  8
0
  6
CENTER
 62
     2
 10
-84.171089
 20
-27.318235
 11
-56.514343
 21
-19.907631
  0
LINE
  8
0
  6
CENTER
 62
     2
 10
-51.106045
 20
-2.887977
 11
-51.106045
 21
-7.387977
  0
LINE
  8
0
  6
PHANTOM
 62
     2
 10
-81.397301
 20
-10.418950
 11
-67.106041
 21
-9.168627
  0
LINE
  8
0
  6
PHANTOM
 62
     2
 10
-81.397308
 20
-17.856995
 11
-67.106049
 21
-19.107317
  0
LINE
  8
0
  6
PHANTOM
 62
     2
 10
-81.745934
 20
-6.434173
 11
-67.106041
 21
-5.153349
  0
LINE
  8
0
  6
PHANTOM
 62
     2
 10
-81.745918
 20
-21.841784
 11
-67.106041
 21
-23.122608
  0
LINE
  8
0
  6
PHANTOM
 62
     2
 10
-81.745972
 20
-6.434195
 11
-81.397346
 21
-10.418969
  0
LINE
  8
0
  6
PHANTOM
 62
     2
 10
-81.397377
 20
-17.856989
 11
-81.745995
 21
-21.841768
  0
LINE
  8
0
  6
CENTER
 62
     2
 10
-61.106045
 20
-5.262978
 11
-61.106045
 21
-9.012978
  0
LINE
  8
0
 62
     4
 10
-31.106045
 20
-20.787994
 11
-27.606045
 21
-20.787994
  0
LINE
  8
0
 62
     4
 10
-31.106045
 20
-25.387993
 11
-27.606045
 21
-25.387993
  0
LINE
  8
0
 62
     4
 10
-27.606045
 20
-20.787991
 11
-27.606045
 21
-25.387989
  0
LINE
  8
0
 62
     1
 10
-22.356010
 20
-3.022974
 11
-19.856010
 21
-7.353100
  0
LINE
  8
0
 62
     4
 10
-31.106045
 20
-24.387993
 11
-27.606045
 21
-24.387993
  0
LINE
  8
0
 62
     4
 10
-31.106045
 20
-24.938011
 11
-27.606045
 21
-24.938011
  0
LINE
  8
0
 62
     4
 10
-27.606045
 20
-21.787979
 11
-21.856625
 21
-21.787979
  0
LINE
  8
0
 62
     4
 10
-27.606045
 20
-24.387985
 11
-20.355526
 21
-24.387985
  0
LINE
  8
0
 62
     4
 10
-31.106045
 20
-3.887982
 11
-21.856602
 21
-3.887982
  0
LINE
  8
0
 62
     4
 10
-31.106045
 20
-6.487988
 11
-20.355488
 21
-6.487988
  0
LINE
  8
0
 62
     1
 10
-22.356010
 20
-20.922972
 11
-19.856012
 21
-25.253099
  0
LINE
  8
0
  6
CENTER
 62
     2
 10
-61.106045
 20
-19.262978
 11
-61.106045
 21
-23.012978
  0
LINE
  8
0
  6
CENTER
 62
     2
 10
-62.981045
 20
-21.137978
 11
-59.231045
 21
-21.137978
  0
LINE
  8
0
  6
CENTER
 62
     2
 10
-51.106045
 20
-20.887978
 11
-51.106045
 21
-25.387978
  0
LINE
  8
0
  6
CENTER
 62
     2
 10
-53.356045
 20
-23.137978
 11
-48.856045
 21
-23.137978
  0
LINE
  8
0
 10
81.425499
 20
-2.637988
 11
81.425499
 21
-25.637989
  0
LINE
  8
0
 10
97.425499
 20
-2.637967
 11
97.425499
 21
-25.637966
  0
LINE
  8
0
  6
CENTER
 62
     2
 10
84.425507
 20
-3.387984
 11
84.425507
 21
-7.887984
  0
LINE
  8
0
 10
87.325500
 20
-24.337982
 11
87.325500
 21
-22.737984
  0
LINE
  8
0
 10
91.525497
 20
-24.337975
 11
91.525497
 21
-22.737972
  0
LINE
  8
0
 10
91.025497
 20
-25.137976
 11
91.025497
 21
-24.837976
  0
LINE
  8
0
 10
91.025566
 20
-24.837994
 11
91.525551
 21
-24.338005
  0
LINE
  8
0
 10
87.825539
 20
-24.837927
 11
87.325539
 21
-24.337925
  0
LINE
  8
0
 10
87.825500
 20
-3.137980
 11
87.825500
 21
-3.437983
  0
LINE
  8
0
 10
87.325508
 20
-3.938002
 11
87.825508
 21
-3.438001
  0
LINE
  8
0
 10
87.325500
 20
-5.537978
 11
87.325500
 21
-3.937980
  0
LINE
  8
0
 10
91.525497
 20
-5.537972
 11
91.525497
 21
-3.937974
  0
LINE
  8
0
 10
91.525551
 20
-3.937919
 11
91.025551
 21
-3.437918
  0
LINE
  8
0
 10
91.025497
 20
-3.137976
 11
91.025497
 21
-3.437975
  0
LINE
  8
0
 10
81.425484
 20
-2.637978
 11
87.325485
 21
-2.637978
  0
LINE
  8
0
 10
81.425514
 20
-25.637978
 11
87.325516
 21
-25.637978
  0
LINE
  8
0
  6
CENTER
 62
     2
 10
82.175491
 20
-5.637972
 11
86.675491
 21
-5.637972
  0
LINE
  8
0
 10
87.825500
 20
-25.137980
 11
87.825500
 21
-24.837980
  0
LINE
  8
0
 10
91.525482
 20
-2.637978
 11
97.425484
 21
-2.637978
  0
LINE
  8
0
 10
91.525513
 20
-25.637978
 11
97.425514
 21
-25.637978
  0
LINE
  8
0
 62
     4
 10
91.025482
 20
-3.437888
 11
90.925545
 21
-3.337949
  0
LINE
  8
0
 62
     4
 10
90.925499
 20
-2.887988
 11
90.925499
 21
-3.337985
  0
LINE
  8
0
 62
     4
 10
90.925484
 20
-2.887990
 11
87.925484
 21
-2.887990
  0
LINE
  8
0
 62
     4
 10
87.925499
 20
-2.887992
 11
87.925499
 21
-3.337989
  0
LINE
  8
0
 62
     4
 10
87.825485
 20
-3.437964
 11
87.925499
 21
-3.337955
  0
LINE
  8
0
 62
     4
 10
90.675499
 20
-2.387988
 11
90.675499
 21
-2.887988
  0
LINE
  8
0
 62
     4
 10
88.175499
 20
-2.387992
 11
88.175499
 21
-2.887992
  0
LINE
  8
0
 62
     4
 10
90.675484
 20
-2.387990
 11
88.175484
 21
-2.387990
  0
LINE
  8
0
 62
     4
 10
91.025497
 20
-24.838057
 11
90.925560
 21
-24.937998
  0
LINE
  8
0
 62
     4
 10
90.925499
 20
-25.387962
 11
90.925499
 21
-24.937965
  0
LINE
  8
0
 62
     4
 10
90.925514
 20
-25.387966
 11
87.925514
 21
-25.387966
  0
LINE
  8
0
 62
     4
 10
87.925499
 20
-25.387966
 11
87.925499
 21
-24.937969
  0
LINE
  8
0
 62
     4
 10
87.825508
 20
-24.838001
 11
87.925529
 21
-24.938013
  0
LINE
  8
0
 62
     4
 10
90.675499
 20
-25.887962
 11
90.675499
 21
-25.387962
  0
LINE
  8
0
 62
     4
 10
88.175499
 20
-25.887966
 11
88.175499
 21
-25.387966
  0
LINE
  8
0
 62
     4
 10
90.675514
 20
-25.887966
 11
88.175514
 21
-25.887966
  0
LINE
  8
0
  6
CENTER
 62
     2
 10
77.783096
 20
-14.137978
 11
100.883095
 21
-14.137978
  0
LINE
  8
0
  6
CENTER
 62
     2
 10
89.425499
 20
0.088861
 11
89.425499
 21
-28.086138
  0
LINE
  8
0
  6
CENTER
 62
     2
 10
94.425507
 20
-20.387970
 11
94.425507
 21
-24.887970
  0
LINE
  8
0
  6
CENTER
 62
     2
 10
92.175507
 20
-22.637972
 11
96.675507
 21
-22.637972
  0
LINE
  8
0
  6
CENTER
 62
     2
 10
-84.108742
 20
52.871658
 11
-18.106049
 21
52.871658
  0
LINE
  8
0
 10
-67.106049
 20
60.871658
 11
-31.106045
 21
60.871658
  0
LINE
  8
0
 10
-67.106049
 20
44.871658
 11
-31.106045
 21
44.871658
  0
LINE
  8
0
 10
-31.106045
 20
60.871651
 11
-31.106045
 21
54.171654
  0
LINE
  8
0
 10
-67.106049
 20
60.871658
 11
-67.106049
 21
56.571655
  0
LINE
  8
0
 10
-56.606045
 20
51.271667
 11
-31.106045
 21
51.271667
  0
LINE
  8
0
 10
-56.606045
 20
54.471664
 11
-31.106045
 21
54.471664
  0
LINE
  8
0
 10
-56.606045
 20
49.171658
 11
-56.606045
 21
56.571651
  0
LINE
  8
0
 10
-67.106049
 20
49.171661
 11
-56.606045
 21
49.171661
  0
LINE
  8
0
 10
-67.106049
 20
56.571655
 11
-56.606045
 21
56.571655
  0
LINE
  8
0
  6
CENTER
 62
     2
 10
-54.370674
 20
47.871658
 11
-45.969337
 21
47.871658
  0
LINE
  8
0
  6
CENTER
 62
     2
 10
-50.106045
 20
51.872601
 11
-50.106045
 21
43.936890
  0
LINE
  8
0
  6
CENTER
 62
     2
 10
-42.824364
 20
57.871658
 11
-34.234135
 21
57.871658
  0
LINE
  8
0
  6
CENTER
 62
     2
 10
-38.606045
 20
62.206463
 11
-38.606045
 21
53.538414
  0
LINE
  8
0
  6
CENTER
 62
     2
 10
-51.106045
 20
52.725307
 11
-51.106045
 21
62.873238
  0
LINE
  8
0
 10
-81.606049
 20
56.371658
 11
-58.106045
 21
56.371658
  0
LINE
  8
0
 10
-81.606049
 20
49.371658
 11
-58.106045
 21
49.371658
  0
LINE
  8
0
 10
-81.606049
 20
56.371662
 11
-81.606049
 21
49.371662
  0
LINE
  8
0
 10
-58.106045
 20
56.371658
 11
-58.106045
 21
49.371658
  0
LINE
  8
0
 10
-67.106049
 20
49.171661
 11
-67.106049
 21
44.871658
  0
LINE
  8
0
  6
CENTER
 62
     2
 10
-78.606049
 20
55.405392
 11
-78.606049
 21
50.337917
  0
LINE
  8
0
  6
CENTER
 62
     2
 10
-72.606049
 20
55.538742
 11
-72.606049
 21
50.471268
  0
LINE
  8
0
 62
     4
 10
-55.606045
 20
54.471661
 11
-55.606045
 21
51.271664
  0
LINE
  8
0
 62
     4
 10
-33.606045
 20
54.471657
 11
-33.606045
 21
51.271660
  0
LINE
  8
0
 62
     4
 10
-54.640270
 20
52.169624
 11
-52.903999
 21
53.905895
  0
LINE
  8
0
 62
     4
 10
-54.282341
 20
51.820415
 11
-52.554790
 21
53.547966
  0
LINE
  8
0
 62
     1
 10
-22.356066
 20
55.036751
 11
-19.856062
 21
50.706623
  0
LINE
  8
0
 62
     4
 10
-33.606045
 20
54.171661
 11
-21.856602
 21
54.171661
  0
LINE
  8
0
 62
     4
 10
-33.606045
 20
51.571655
 11
-20.355488
 21
51.571655
  0
LINE
  8
0
 10
-31.106045
 20
51.571648
 11
-31.106045
 21
44.871651
  0
LINE
  8
0
  6
CENTER
 62
     2
 10
-83.447594
 20
-84.177704
 11
-18.106041
 21
-84.177704
  0
LINE
  8
0
 10
-67.106049
 20
-76.177704
 11
-31.106045
 21
-76.177704
  0
LINE
  8
0
 10
-67.106049
 20
-92.177704
 11
-31.106045
 21
-92.177704
  0
LINE
  8
0
 10
-56.606045
 20
-85.777702
 11
-31.106045
 21
-85.777702
  0
LINE
  8
0
 10
-56.606045
 20
-82.577705
 11
-31.106045
 21
-82.577705
  0
LINE
  8
0
 10
-67.106049
 20
-87.877701
 11
-56.606045
 21
-87.877701
  0
LINE
  8
0
 10
-56.606045
 20
-80.477707
 11
-56.606045
 21
-87.877701
  0
LINE
  8
0
 10
-67.106049
 20
-80.477707
 11
-56.606045
 21
-80.477707
  0
LINE
  8
0
  6
CENTER
 62
     2
 10
-49.836617
 20
-79.177704
 11
-44.502434
 21
-79.177704
  0
LINE
  8
0
  6
CENTER
 62
     2
 10
-47.106045
 20
-81.777328
 11
-47.106045
 21
-76.843208
  0
LINE
  8
0
  6
CENTER
 62
     2
 10
-50.103325
 20
-89.177704
 11
-44.769142
 21
-89.177704
  0
LINE
  8
0
  6
CENTER
 62
     2
 10
-47.106045
 20
-86.711449
 11
-47.106045
 21
-91.512215
  0
LINE
  8
0
  6
CENTER
 62
     2
 10
-51.106045
 20
-84.031357
 11
-51.106045
 21
-94.434998
  0
LINE
  8
0
 10
-81.606049
 20
-80.677704
 11
-58.106045
 21
-80.677704
  0
LINE
  8
0
 10
-81.606049
 20
-87.677704
 11
-58.106045
 21
-87.677704
  0
LINE
  8
0
 10
-81.606049
 20
-80.677704
 11
-81.606049
 21
-87.677704
  0
LINE
  8
0
 10
-58.106045
 20
-80.677704
 11
-58.106045
 21
-87.677704
  0
LINE
  8
0
 10
-67.106049
 20
-76.177704
 11
-67.106049
 21
-80.477707
  0
LINE
  8
0
 10
-67.106049
 20
-87.877701
 11
-67.106049
 21
-92.177704
  0
LINE
  8
0
 10
-31.106045
 20
-76.177696
 11
-31.106045
 21
-82.577698
  0
LINE
  8
0
  6
CENTER
 62
     2
 10
-78.606049
 20
-81.777336
 11
-78.606049
 21
-86.578102
  0
LINE
  8
0
  6
CENTER
 62
     2
 10
-72.606049
 20
-81.777336
 11
-72.606049
 21
-86.578102
  0
LINE
  8
0
 62
     4
 10
-49.606049
 20
-82.577698
 11
-49.606049
 21
-85.777695
  0
LINE
  8
0
 62
     4
 10
-27.606045
 20
-82.127693
 11
-27.606045
 21
-86.227699
  0
LINE
  8
0
 62
     4
 10
-48.640266
 20
-84.879738
 11
-46.903999
 21
-83.143471
  0
LINE
  8
0
 62
     4
 10
-48.282333
 20
-85.228951
 11
-46.554783
 21
-83.501404
  0
LINE
  8
0
 62
     1
 10
-22.356073
 20
-82.012596
 11
-19.856070
 21
-86.342728
  0
LINE
  8
0
 62
     4
 10
-27.606045
 20
-82.877701
 11
-21.856655
 21
-82.877701
  0
LINE
  8
0
 62
     4
 10
-27.606045
 20
-85.477707
 11
-20.355526
 21
-85.477707
  0
LINE
  8
0
 62
     4
 10
-31.106045
 20
-82.127701
 11
-27.606045
 21
-82.127701
  0
LINE
  8
0
 62
     4
 10
-31.106045
 20
-86.227707
 11
-27.606045
 21
-86.227707
  0
LINE
  8
0
 62
     4
 10
-31.106045
 20
-82.577705
 11
-27.606045
 21
-82.577705
  0
LINE
  8
0
 62
     4
 10
-31.106045
 20
-85.777702
 11
-27.606045
 21
-85.777702
  0
LINE
  8
0
 10
-31.106045
 20
-85.777695
 11
-31.106045
 21
-92.177696
  0
LINE
  8
0
 10
-194.250000
 20
132.600006
 11
194.800003
 21
132.600006
  0
LINE
  8
0
 10
194.800003
 20
132.600006
 11
194.800003
 21
-133.500000
  0
LINE
  8
0
 10
-194.250000
 20
132.600006
 11
-194.250000
 21
-133.500000
  0
LINE
  8
0
 10
-194.250000
 20
-133.500000
 11
194.800003
 21
-133.500000
  0
LINE
  8
0
 10
109.800003
 20
-118.500000
 11
109.800003
 21
-133.500000
  0
LINE
  8
0
 10
109.800003
 20
-118.500000
 11
194.800003
 21
-118.500000
  0
LINE
  8
0
 10
109.800003
 20
132.600006
 11
109.800003
 21
117.600006
  0
LINE
  8
0
 10
109.800003
 20
117.600006
 11
194.800003
 21
117.600006
  0
LINE
  8
0
 10
-194.250000
 20
117.600006
 11
-109.250000
 21
117.600006
  0
LINE
  8
0
 10
-109.250000
 20
132.600006
 11
-109.250000
 21
117.600006
  0
CIRCLE
  8
0
  6
DASHED
 62
     2
 10
-51.106045
 20
-5.137977
 40
1.250000
  0
CIRCLE
  8
0
 10
-61.106045
 20
-21.137978
 40
1.250000
  0
CIRCLE
  8
0
 10
-61.106045
 20
-7.137977
 40
1.250000
  0
CIRCLE
  8
0
  6
DASHED
 62
     2
 10
-51.106045
 20
-23.137978
 40
1.250000
  0
CIRCLE
  8
0
  6
DASHED
 62
     2
 10
-51.106045
 20
-5.137977
 40
1.500000
  0
CIRCLE
  8
0
  6
DASHED
 62
     2
 10
-51.106045
 20
-23.137978
 40
1.500000
  0
CIRCLE
  8
0
 10
94.425507
 20
-22.637970
 40
1.250000
  0
CIRCLE
  8
0
 10
84.425491
 20
-5.637984
 40
1.250000
  0
CIRCLE
  8
0
 62
     4
 10
89.425514
 20
-23.087978
 40
1.300000
  0
CIRCLE
  8
0
 10
89.425499
 20
-14.137978
 40
5.500000
  0
CIRCLE
  8
0
 62
     2
 10
84.425491
 20
-5.637984
 40
1.500000
  0
CIRCLE
  8
0
 62
     2
 10
94.425507
 20
-22.637970
 40
1.500000
  0
ARC
  8
0
 10
89.425507
 20
-22.737980
 40
2.099998
 50
0.000000
 51
180.000000
  0
ARC
  8
0
 10
91.525513
 20
-25.137974
 40
0.500000
 50
180.000000
 51
270.000000
  0
ARC
  8
0
 10
87.325516
 20
-25.137981
 40
0.500000
 50
270.000000
 51
0.000000
  0
ARC
  8
0
 10
87.325485
 20
-3.137980
 40
0.500000
 50
0.000027
 51
90.000000
  0
ARC
  8
0
 10
89.425491
 20
-5.537975
 40
2.099998
 50
179.999969
 51
0.000013
  0
ARC
  8
0
 10
91.525482
 20
-3.137975
 40
0.500000
 50
90.000000
 51
179.999969
  0
CIRCLE
  8
0
 62
     4
 10
89.425484
 20
-5.187978
 40
1.300000
  0
CIRCLE
  8
0
 10
-38.606041
 20
57.871651
 40
1.250000
  0
CIRCLE
  8
0
 10
-50.106049
 20
47.871655
 40
1.250000
  0
CIRCLE
  8
0
 10
-72.606049
 20
52.871658
 40
1.250000
  0
CIRCLE
  8
0
 10
-50.106049
 20
47.871655
 40
3.000000
  0
CIRCLE
  8
0
 62
     2
 10
-50.106049
 20
47.871655
 40
1.500000
  0
CIRCLE
  8
0
 10
-38.606041
 20
57.871651
 40
3.000000
  0
CIRCLE
  8
0
 62
     2
 10
-38.606041
 20
57.871651
 40
1.500000
  0
CIRCLE
  8
0
 62
     2
 10
-78.606049
 20
52.871662
 40
1.500000
  0
CIRCLE
  8
0
 62
     2
 10
-72.606049
 20
52.871658
 40
1.500000
  0
CIRCLE
  8
0
 62
     4
 10
-53.606030
 20
52.871655
 40
1.250000
  0
CIRCLE
  8
0
 62
     4
 10
-53.606030
 20
52.871655
 40
1.400000
  0
CIRCLE
  8
0
 10
-78.606049
 20
52.871662
 40
1.250000
  0
CIRCLE
  8
0
 62
     4
 10
-47.606033
 20
-84.177704
 40
1.400000
  0
CIRCLE
  8
0
 10
-78.606049
 20
-84.177704
 40
1.250000
  0
CIRCLE
  8
0
 62
     4
 10
-47.606033
 20
-84.177704
 40
1.250000
  0
CIRCLE
  8
0
 10
-47.106049
 20
-79.177696
 40
1.250000
  0
CIRCLE
  8
0
 10
-47.106041
 20
-89.177696
 40
1.250000
  0
CIRCLE
  8
0
 10
-72.606049
 20
-84.177704
 40
1.250000
  0
CIRCLE
  8
0
 62
     2
 10
-72.606049
 20
-84.177704
 40
1.500000
  0
CIRCLE
  8
0
 62
     2
 10
-78.606049
 20
-84.177704
 40
1.500000
  0
CIRCLE
  8
0
 62
     2
 10
-47.106049
 20
-79.177696
 40
1.500000
  0
CIRCLE
  8
0
 62
     2
 10
-47.106041
 20
-89.177696
 40
1.500000
  0
TEXT
  8
0
 10
133.907150
 20
122.050003
 40
4.500000
  1
Ver. 1.0
 50
0.000000
 41
1.052631
 51
0.000000
  7
STANDARD
  0
TEXT
  8
0
 10
113.700279
 20
-130.669998
 40
6.300000
  1
KOGANEI CORP.
 50
0.000000
 41
1.052632
 51
0.000000
  7
STANDARD
  0
TEXT
  8
0
 10
-170.142654
 20
122.050003
 40
4.500000
  1
AIR HAND
 50
0.000000
 41
1.052632
 51
0.000000
  7
STANDARD
  0
TEXT
  8
0
 10
-159.892654
 20
97.550003
 40
4.500000
  1
NHBRS-10-ZE135A2
 50
0.000000
 41
1.052632
 51
0.000000
  7
STANDARD
  0
TEXT
  8
0
 10
-186.892654
 20
104.550003
 40
4.500000
  1
MODEL:NHBDS-10-ZE135A2
 50
0.000000
 41
1.052632
 51
0.000000
  7
STANDARD
  0
ENDSEC
  0
EOF
