  0
SECTION
  2
HEADER
  0
ENDSEC
  0
SECTION
  2
TABLES
  0
TABLE
  2
LTYPE
 70
     4
  0
LTYPE
  2
CONTINUOUS
 70
    64
  3
Solid line
 72
    65
 73
     0
 40
0.000000
  0
LTYPE
  2
DASHED
 70
    64
  3
__ __ __ __ __ __ __ __ __ __ __ __ __ __ __
 72
    65
 73
     2
 40
3.500000
 49
2.000000
 49
-1.500000
  0
LTYPE
  2
CENTER
 70
    64
  3
____ _ ____ _ ____ _ ____ _ ____ _ ____ _ ____
 72
    65
 73
     4
 40
17.500000
 49
13.000000
 49
-1.500000
 49
1.500000
 49
-1.500000
  0
LTYPE
  2
PHANTOM
 70
    64
  3
_____ _ _ _____ _ _ _____ _ _ _____ _ _ ____  
 72
    65
 73
     6
 40
15.500000
 49
8.000000
 49
-1.500000
 49
1.500000
 49
-1.500000
 49
1.500000
 49
-1.500000
  0
LTYPE
  2
DASHED1
 70
    64
  3
__ __ __ __ __ __ __ __ __ __ __ __ __ __ __
 72
    65
 73
     2
 40
1.500000
 49
1.000000
 49
-0.500000
  0
LTYPE
  2
DASHED2
 70
    64
  3
__ __ __ __ __ __ __ __ __ __ __ __ __ __ __
 72
    65
 73
     2
 40
3.500000
 49
2.500000
 49
-1.000000
  0
LTYPE
  2
DASHED3
 70
    64
  3
__ __ __ __ __ __ __ __ __ __ __ __ __ __ __
 72
    65
 73
     2
 40
6.000000
 49
4.000000
 49
-2.000000
  0
LTYPE
  2
DASHED4
 70
    64
  3
__ __ __ __ __ __ __ __ __ __ __ __ __ __ __
 72
    65
 73
     2
 40
12.000000
 49
10.000000
 49
-2.000000
  0
LTYPE
  2
DASHED5
 70
    64
  3
__ __ __ __ __ __ __ __ __ __ __ __ __ __ __
 72
    65
 73
     2
 40
17.000000
 49
15.000000
 49
-2.000000
  0
LTYPE
  2
DASHED6
 70
    64
  3
__ __ __ __ __ __ __ __ __ __ __ __ __ __ __
 72
    65
 73
     2
 40
29.000000
 49
27.000000
 49
-2.000000
  0
LTYPE
  2
PHANTOM1
 70
    64
  3
_____ _ _ _____ _ _ _____ _ _ _____ _ _ ____  
 72
    65
 73
     6
 40
31.000000
 49
25.000000
 49
-1.500000
 49
1.000000
 49
-1.000000
 49
1.000000
 49
-1.500000
  0
LTYPE
  2
PHANTOM2
 70
    64
  3
_____ _ _ _____ _ _ _____ _ _ _____ _ _ ____  
 72
    65
 73
     6
 40
36.000000
 49
27.000000
 49
-1.500000
 49
2.500000
 49
-1.000000
 49
2.500000
 49
-1.500000
  0
LTYPE
  2
PHANTOM3
 70
    64
  3
_____ _ _ _____ _ _ _____ _ _ _____ _ _ ____  
 72
    65
 73
     6
 40
78.000000
 49
64.000000
 49
-2.000000
 49
4.000000
 49
-2.000000
 49
4.000000
 49
-2.000000
  0
LTYPE
  2
CENTER1
 70
    64
  3
____ _ ____ _ ____ _ ____ _ ____ _ ____ _ ____
 72
    65
 73
     4
 40
19.000000
 49
14.000000
 49
-1.000000
 49
3.000000
 49
-1.000000
  0
LTYPE
  2
CENTER2
 70
    64
  3
____ _ ____ _ ____ _ ____ _ ____ _ ____ _ ____
 72
    65
 73
     4
 40
28.500000
 49
25.000000
 49
-1.000000
 49
1.500000
 49
-1.000000
  0
LTYPE
  2
CENTER3
 70
    64
  3
____ _ ____ _ ____ _ ____ _ ____ _ ____ _ ____
 72
    65
 73
     4
 40
31.500000
 49
27.000000
 49
-1.000000
 49
2.500000
 49
-1.000000
  0
LTYPE
  2
CENTER4
 70
    64
  3
____ _ ____ _ ____ _ ____ _ ____ _ ____ _ ____
 72
    65
 73
     4
 40
50.000000
 49
45.000000
 49
-1.000000
 49
3.000000
 49
-1.000000
  0
LTYPE
  2
CENTER5
 70
    64
  3
____ _ ____ _ ____ _ ____ _ ____ _ ____ _ ____
 72
    65
 73
     4
 40
100.000000
 49
92.000000
 49
-2.000000
 49
4.000000
 49
-2.000000
  0
LTYPE
  2
SBK1
 70
    64
  3
______ _ _ _ ______ _ _ _ ______ _ _ _ _____  
 72
    65
 73
     8
 40
60.500000
 49
45.000000
 49
-2.000000
 49
2.500000
 49
-2.000000
 49
2.500000
 49
-2.000000
 49
2.500000
 49
-2.000000
  0
LTYPE
  2
SBK2
 70
    64
  3
______ _ _ _ ______ _ _ _ ______ _ _ _ _____  
 72
    65
 73
     8
 40
84.000000
 49
64.000000
 49
-2.000000
 49
4.000000
 49
-2.000000
 49
4.000000
 49
-2.000000
 49
4.000000
 49
-2.000000
  0
LTYPE
  2
STCH
 70
    64
  3
__ __ __ __ __ __ __ __ __ __ __ __ __ __ __
 72
    65
 73
     2
 40
3.000000
 49
1.000000
 49
-2.000000
  0
LTYPE
  2
MTCH
 70
    64
  3
_____ _ _ _____ _ _ _____ _ _ _____ _ _ ____  
 72
    65
 73
     6
 40
80.000000
 49
66.000000
 49
-2.000000
 49
4.000000
 49
-2.000000
 49
4.000000
 49
-2.000000
  0
ENDTAB
  0
TABLE
  2
LAYER
 70
     1
  0
LAYER
  2
0
 70
     0
 62
     7
  6
CONTINUOUS
  0
ENDTAB
  0
TABLE
  2
STYLE
 70
     1
  0
STYLE
  2
STANDARD
 70
     0
 40
0.000000
 41
1.000000
 50
0.000000
 71
     0
 42
0.200000
  3
txt
  4
BIGFONT
  0
ENDTAB
  0
TABLE
  2
VIEW
 70
     0
  0
ENDTAB
  0
ENDSEC
  0
SECTION
  2
BLOCKS
  0
ENDSEC
  0
SECTION
  2
ENTITIES
  0
LINE
  8
0
  6
CENTER
 62
     2
 10
-82.903236
 20
-22.266407
 11
-35.212536
 21
-22.266407
  0
LINE
  8
0
 10
-80.166313
 20
-5.266411
 11
-37.666313
 21
-5.266411
  0
LINE
  8
0
 10
-80.166313
 20
-39.266407
 11
-37.666313
 21
-39.266407
  0
LINE
  8
0
  6
CENTER
 62
     2
 10
-72.666313
 20
-7.566411
 11
-72.666313
 21
-12.966411
  0
LINE
  8
0
  6
CENTER
 62
     2
 10
-75.366310
 20
-10.266411
 11
-69.966316
 21
-10.266411
  0
LINE
  8
0
  6
CENTER
 62
     2
 10
-60.166313
 20
-13.425678
 11
-60.166313
 21
-7.055679
  0
LINE
  8
0
  6
CENTER
 62
     2
 10
-63.403435
 20
-10.266411
 11
-57.033432
 21
-10.266411
  0
LINE
  8
0
 10
-96.037956
 20
-0.898168
 11
-97.590866
 21
-6.693722
  0
LINE
  8
0
 10
-80.166313
 20
-5.266411
 11
-80.166313
 21
-39.266407
  0
LINE
  8
0
 10
-37.666313
 20
-5.266411
 11
-37.666313
 21
-39.266407
  0
LINE
  8
0
  6
CENTER
 62
     2
 10
-98.134109
 20
-3.442326
 11
-67.756454
 21
-11.581997
  0
LINE
  8
0
  6
CENTER
 62
     2
 10
-98.248146
 20
-41.121037
 11
-67.974022
 21
-33.009106
  0
LINE
  8
0
 10
-96.038002
 20
-0.898145
 11
-79.735458
 21
-5.266398
  0
LINE
  8
0
 10
-97.590927
 20
-6.693689
 11
-80.166321
 21
-11.362597
  0
LINE
  8
0
 10
-96.037994
 20
-43.634651
 11
-79.735443
 21
-39.266399
  0
LINE
  8
0
 10
-97.590919
 20
-37.839100
 11
-80.166321
 21
-33.170193
  0
LINE
  8
0
 10
-97.590874
 20
-37.839096
 11
-96.037956
 21
-43.634651
  0
LINE
  8
0
  6
PHANTOM
 62
     2
 10
-97.309692
 20
-29.098953
 11
-80.166306
 21
-30.598804
  0
LINE
  8
0
  6
PHANTOM
 62
     2
 10
-97.832657
 20
-35.076134
 11
-80.166313
 21
-36.621738
  0
LINE
  8
0
  6
PHANTOM
 62
     2
 10
-97.832664
 20
-9.456697
 11
-80.166328
 21
-7.911093
  0
LINE
  8
0
  6
PHANTOM
 62
     2
 10
-97.309715
 20
-15.433876
 11
-80.166306
 21
-13.934023
  0
LINE
  8
0
  6
PHANTOM
 62
     2
 10
-97.832741
 20
-9.456725
 11
-97.309807
 21
-15.433889
  0
LINE
  8
0
  6
PHANTOM
 62
     2
 10
-97.309814
 20
-29.098925
 11
-97.832748
 21
-35.076084
  0
LINE
  8
0
 62
     4
 10
-37.666313
 20
-8.521407
 11
-28.416878
 21
-8.521407
  0
LINE
  8
0
 62
     4
 10
-37.666313
 20
-11.121413
 11
-26.915760
 21
-11.121413
  0
LINE
  8
0
 62
     1
 10
-28.916336
 20
-7.656315
 11
-26.416336
 21
-11.986438
  0
LINE
  8
0
 62
     4
 10
-37.666313
 20
-37.011391
 11
-35.166313
 21
-37.011391
  0
LINE
  8
0
 62
     4
 10
-37.666313
 20
-32.411392
 11
-35.166313
 21
-32.411392
  0
LINE
  8
0
 62
     4
 10
-35.166313
 20
-32.411415
 11
-35.166313
 21
-37.011414
  0
LINE
  8
0
 62
     4
 10
-37.666313
 20
-36.011391
 11
-35.166313
 21
-36.011391
  0
LINE
  8
0
 62
     4
 10
-37.666313
 20
-36.561409
 11
-35.166313
 21
-36.561409
  0
LINE
  8
0
 62
     4
 10
-35.166313
 20
-33.411400
 11
-28.416878
 21
-33.411400
  0
LINE
  8
0
 62
     4
 10
-35.166313
 20
-36.011406
 11
-26.915760
 21
-36.011406
  0
LINE
  8
0
 62
     1
 10
-28.916328
 20
-32.546303
 11
-26.416328
 21
-36.876427
  0
LINE
  8
0
  6
CENTER
 62
     2
 10
-60.166313
 20
-31.188179
 11
-60.166313
 21
-37.313179
  0
LINE
  8
0
  6
CENTER
 62
     2
 10
-63.158432
 20
-34.266411
 11
-57.278435
 21
-34.266411
  0
LINE
  8
0
  6
CENTER
 62
     2
 10
-75.366310
 20
-34.266411
 11
-69.966316
 21
-34.266411
  0
LINE
  8
0
  6
CENTER
 62
     2
 10
-72.666313
 20
-31.566410
 11
-72.666313
 21
-36.966412
  0
LINE
  8
0
 10
81.157288
 20
-5.266436
 11
81.157288
 21
-39.266434
  0
LINE
  8
0
 10
103.157288
 20
-5.266436
 11
103.157288
 21
-39.266434
  0
LINE
  8
0
  6
CENTER
 62
     2
 10
85.157288
 20
-6.266436
 11
85.157288
 21
-12.266436
  0
LINE
  8
0
 10
89.757294
 20
-38.966431
 11
89.757294
 21
-38.266434
  0
LINE
  8
0
 10
89.757355
 20
-38.266518
 11
90.557350
 21
-37.466526
  0
LINE
  8
0
 10
90.557289
 20
-37.466431
 11
90.557289
 21
-36.466431
  0
LINE
  8
0
 10
90.557335
 20
-36.466385
 11
90.057335
 21
-35.966385
  0
LINE
  8
0
 10
90.057289
 20
-35.966431
 11
90.057289
 21
-34.366432
  0
LINE
  8
0
 10
94.257286
 20
-35.966431
 11
94.257286
 21
-34.366432
  0
LINE
  8
0
 10
93.757339
 20
-36.466499
 11
94.257339
 21
-35.966496
  0
LINE
  8
0
 10
93.757286
 20
-37.466431
 11
93.757286
 21
-36.466431
  0
LINE
  8
0
 10
94.557327
 20
-38.266399
 11
93.757332
 21
-37.466400
  0
LINE
  8
0
 10
94.557289
 20
-38.966431
 11
94.557289
 21
-38.266434
  0
LINE
  8
0
 10
90.057289
 20
-10.166433
 11
90.057289
 21
-8.566431
  0
LINE
  8
0
 10
90.057365
 20
-8.566483
 11
90.557365
 21
-8.066482
  0
LINE
  8
0
 10
90.557289
 20
-7.066431
 11
90.557289
 21
-8.066435
  0
LINE
  8
0
 10
89.757370
 20
-6.266398
 11
90.557365
 21
-7.066391
  0
LINE
  8
0
 10
89.757294
 20
-5.566431
 11
89.757294
 21
-6.266432
  0
LINE
  8
0
 10
94.557289
 20
-5.566431
 11
94.557289
 21
-6.266432
  0
LINE
  8
0
 10
94.557358
 20
-6.266478
 11
93.757362
 21
-7.066477
  0
LINE
  8
0
 10
94.257347
 20
-8.566347
 11
93.757347
 21
-8.066339
  0
LINE
  8
0
 10
93.757286
 20
-7.066431
 11
93.757286
 21
-8.066431
  0
LINE
  8
0
 10
94.257286
 20
-10.166433
 11
94.257286
 21
-8.566431
  0
LINE
  8
0
 10
81.157288
 20
-39.266434
 11
89.457291
 21
-39.266434
  0
LINE
  8
0
 10
81.157288
 20
-5.266436
 11
89.457291
 21
-5.266436
  0
LINE
  8
0
  6
CENTER
 62
     2
 10
82.157288
 20
-9.266436
 11
88.157288
 21
-9.266436
  0
LINE
  8
0
 10
94.857292
 20
-5.266436
 11
103.157288
 21
-5.266436
  0
LINE
  8
0
 10
94.857292
 20
-39.266434
 11
103.157288
 21
-39.266434
  0
LINE
  8
0
 62
     4
 10
93.757286
 20
-8.071354
 11
93.657349
 21
-7.971415
  0
LINE
  8
0
 62
     4
 10
93.657288
 20
-7.521448
 11
93.657288
 21
-7.971445
  0
LINE
  8
0
 62
     4
 10
93.657288
 20
-7.521448
 11
90.657288
 21
-7.521448
  0
LINE
  8
0
 62
     4
 10
90.657288
 20
-7.521448
 11
90.657288
 21
-7.971445
  0
LINE
  8
0
 62
     4
 10
90.557281
 20
-8.071424
 11
90.657288
 21
-7.971424
  0
LINE
  8
0
 62
     4
 10
93.407288
 20
-7.021448
 11
93.407288
 21
-7.521448
  0
LINE
  8
0
 62
     4
 10
90.907288
 20
-7.021448
 11
90.907288
 21
-7.521448
  0
LINE
  8
0
 62
     4
 10
93.407288
 20
-7.021448
 11
90.907288
 21
-7.021448
  0
LINE
  8
0
 62
     4
 10
93.757294
 20
-36.461498
 11
93.657341
 21
-36.561443
  0
LINE
  8
0
 62
     4
 10
93.657288
 20
-37.011414
 11
93.657288
 21
-36.561417
  0
LINE
  8
0
 62
     4
 10
93.657288
 20
-37.011414
 11
90.657288
 21
-37.011414
  0
LINE
  8
0
 62
     4
 10
90.657288
 20
-37.011414
 11
90.657288
 21
-36.561417
  0
LINE
  8
0
 62
     4
 10
90.557281
 20
-36.461445
 11
90.657280
 21
-36.561443
  0
LINE
  8
0
 62
     4
 10
93.407288
 20
-37.511414
 11
93.407288
 21
-37.011414
  0
LINE
  8
0
 62
     4
 10
90.907288
 20
-37.511414
 11
90.907288
 21
-37.011414
  0
LINE
  8
0
 62
     4
 10
93.407288
 20
-37.511414
 11
90.907288
 21
-37.511414
  0
LINE
  8
0
  6
CENTER
 62
     2
 10
77.794060
 20
-22.266432
 11
105.969063
 21
-22.266432
  0
LINE
  8
0
  6
CENTER
 62
     2
 10
92.157288
 20
-1.298208
 11
92.157288
 21
-41.723206
  0
LINE
  8
0
  6
CENTER
 62
     2
 10
99.157288
 20
-32.266434
 11
99.157288
 21
-38.266434
  0
LINE
  8
0
  6
CENTER
 62
     2
 10
96.157288
 20
-35.266434
 11
102.157288
 21
-35.266434
  0
LINE
  8
0
  6
CENTER
 62
     2
 10
-100.892792
 20
51.338692
 11
-24.666367
 21
51.338692
  0
LINE
  8
0
 10
-37.666367
 20
62.338692
 11
-37.666367
 21
52.638695
  0
LINE
  8
0
 10
-80.166367
 20
62.338692
 11
-37.666367
 21
62.338692
  0
LINE
  8
0
 10
-80.166367
 20
40.338692
 11
-37.666367
 21
40.338692
  0
LINE
  8
0
 10
-80.166367
 20
62.338692
 11
-80.166367
 21
55.838692
  0
LINE
  8
0
 10
-66.666367
 20
48.938698
 11
-37.666367
 21
48.938698
  0
LINE
  8
0
 10
-66.666367
 20
53.738701
 11
-37.666367
 21
53.738701
  0
LINE
  8
0
  6
CENTER
 62
     2
 10
-45.166367
 20
62.834312
 11
-45.166367
 21
52.176811
  0
LINE
  8
0
  6
CENTER
 62
     2
 10
-50.847237
 20
57.338699
 11
-39.699738
 21
57.338699
  0
LINE
  8
0
  6
CENTER
 62
     2
 10
-60.166367
 20
65.161087
 11
-60.166367
 21
52.193062
  0
LINE
  8
0
  6
CENTER
 62
     2
 10
-59.666367
 20
49.838692
 11
-59.666367
 21
39.559315
  0
LINE
  8
0
  6
CENTER
 62
     2
 10
-65.302238
 20
45.338692
 11
-54.032234
 21
45.338692
  0
LINE
  8
0
 10
-66.666367
 20
46.638695
 11
-66.666367
 21
56.038696
  0
LINE
  8
0
 10
-80.166367
 20
46.638695
 11
-66.666367
 21
46.638695
  0
LINE
  8
0
 10
-80.166367
 20
56.038696
 11
-66.666367
 21
56.038696
  0
LINE
  8
0
 10
-97.666367
 20
55.838692
 11
-69.166367
 21
55.838692
  0
LINE
  8
0
 10
-97.666367
 20
46.838692
 11
-69.166367
 21
46.838692
  0
LINE
  8
0
 10
-97.666367
 20
55.838692
 11
-97.666367
 21
46.838692
  0
LINE
  8
0
 10
-69.166367
 20
55.838692
 11
-69.166367
 21
46.838692
  0
LINE
  8
0
 10
-70.666367
 20
55.838692
 11
-70.666367
 21
46.838692
  0
LINE
  8
0
  6
CENTER
 62
     2
 10
-94.666367
 20
53.867065
 11
-94.666367
 21
48.742882
  0
LINE
  8
0
  6
CENTER
 62
     2
 10
-86.666367
 20
53.867065
 11
-86.666367
 21
48.686573
  0
LINE
  8
0
 10
-69.166367
 20
55.338692
 11
-66.666367
 21
55.338692
  0
LINE
  8
0
 10
-69.166367
 20
47.338692
 11
-66.666367
 21
47.338692
  0
LINE
  8
0
 10
-80.166367
 20
46.838692
 11
-80.166367
 21
40.338692
  0
LINE
  8
0
 62
     4
 10
-65.666367
 20
52.938698
 11
-65.666367
 21
49.738701
  0
LINE
  8
0
 62
     4
 10
-43.666367
 20
52.938698
 11
-43.666367
 21
49.738701
  0
LINE
  8
0
 62
     4
 10
-64.700600
 20
50.636662
 11
-62.964325
 21
52.372936
  0
LINE
  8
0
 62
     4
 10
-64.342667
 20
50.287457
 11
-62.615116
 21
52.015007
  0
LINE
  8
0
 62
     4
 10
-43.666367
 20
52.638695
 11
-28.416965
 21
52.638695
  0
LINE
  8
0
 62
     4
 10
-43.666367
 20
50.038689
 11
-26.915836
 21
50.038689
  0
LINE
  8
0
 62
     1
 10
-28.916384
 20
53.503796
 11
-26.416380
 21
49.173668
  0
LINE
  8
0
 10
-66.666367
 20
52.938698
 11
-37.666367
 21
52.938698
  0
LINE
  8
0
 10
-66.666367
 20
49.738701
 11
-37.666367
 21
49.738701
  0
LINE
  8
0
 10
-37.666367
 20
50.038689
 11
-37.666367
 21
40.338692
  0
LINE
  8
0
  6
CENTER
 62
     2
 10
-99.884933
 20
-91.308456
 11
-24.666321
 21
-91.308456
  0
LINE
  8
0
 10
-80.166321
 20
-80.308456
 11
-37.666321
 21
-80.308456
  0
LINE
  8
0
 10
-80.166321
 20
-102.308449
 11
-37.666321
 21
-102.308449
  0
LINE
  8
0
 10
-66.666321
 20
-93.708458
 11
-37.666321
 21
-93.708458
  0
LINE
  8
0
 10
-66.666321
 20
-92.908463
 11
-37.666321
 21
-92.908463
  0
LINE
  8
0
 10
-66.666321
 20
-89.708458
 11
-37.666321
 21
-89.708458
  0
LINE
  8
0
 10
-66.666321
 20
-88.908463
 11
-37.666321
 21
-88.908463
  0
LINE
  8
0
  6
CENTER
 62
     2
 10
-58.748444
 20
-84.308456
 11
-52.623444
 21
-84.308456
  0
LINE
  8
0
  6
CENTER
 62
     2
 10
-55.666321
 20
-81.315659
 11
-55.666321
 21
-87.563164
  0
LINE
  8
0
 10
-80.166321
 20
-96.008453
 11
-66.666321
 21
-96.008453
  0
LINE
  8
0
 10
-66.666321
 20
-86.608459
 11
-66.666321
 21
-96.008453
  0
LINE
  8
0
 10
-80.166321
 20
-86.608459
 11
-66.666321
 21
-86.608459
  0
LINE
  8
0
  6
CENTER
 62
     2
 10
-55.666321
 20
-95.035660
 11
-55.666321
 21
-101.528160
  0
LINE
  8
0
  6
CENTER
 62
     2
 10
-58.380943
 20
-98.308456
 11
-52.623444
 21
-98.308456
  0
LINE
  8
0
  6
CENTER
 62
     2
 10
-60.166321
 20
-105.130844
 11
-60.166321
 21
-92.162811
  0
LINE
  8
0
 10
-97.666321
 20
-86.808456
 11
-69.166321
 21
-86.808456
  0
LINE
  8
0
 10
-97.666321
 20
-95.808456
 11
-69.166321
 21
-95.808456
  0
LINE
  8
0
 10
-97.666321
 20
-86.808456
 11
-97.666321
 21
-95.808456
  0
LINE
  8
0
 10
-80.166321
 20
-80.308456
 11
-80.166321
 21
-86.808456
  0
LINE
  8
0
 10
-37.666321
 20
-80.308456
 11
-37.666321
 21
-89.708458
  0
LINE
  8
0
 10
-69.166321
 20
-86.808456
 11
-69.166321
 21
-95.808456
  0
LINE
  8
0
 10
-70.666321
 20
-86.808456
 11
-70.666321
 21
-95.808456
  0
LINE
  8
0
 10
-69.166321
 20
-87.308456
 11
-66.666321
 21
-87.308456
  0
LINE
  8
0
 10
-69.166321
 20
-95.308456
 11
-66.666321
 21
-95.308456
  0
LINE
  8
0
 10
-80.166321
 20
-95.808456
 11
-80.166321
 21
-102.308449
  0
LINE
  8
0
  6
CENTER
 62
     2
 10
-94.666321
 20
-88.665665
 11
-94.666321
 21
-94.178162
  0
LINE
  8
0
  6
CENTER
 62
     2
 10
-86.666321
 20
-88.543159
 11
-86.666321
 21
-94.300659
  0
LINE
  8
0
 62
     4
 10
-37.666321
 20
-93.358459
 11
-35.166321
 21
-93.358459
  0
LINE
  8
0
 62
     4
 10
-37.666321
 20
-89.258453
 11
-35.166321
 21
-89.258453
  0
LINE
  8
0
 62
     4
 10
-57.166321
 20
-89.708458
 11
-57.166321
 21
-92.908463
  0
LINE
  8
0
 62
     4
 10
-35.166321
 20
-89.258453
 11
-35.166321
 21
-93.358459
  0
LINE
  8
0
 62
     4
 10
-56.200546
 20
-92.010498
 11
-54.464272
 21
-90.274231
  0
LINE
  8
0
 62
     4
 10
-55.842609
 20
-92.359695
 11
-54.115059
 21
-90.632141
  0
LINE
  8
0
 62
     4
 10
-35.166321
 20
-90.008453
 11
-28.416924
 21
-90.008453
  0
LINE
  8
0
 62
     4
 10
-35.166321
 20
-92.608459
 11
-26.915794
 21
-92.608459
  0
LINE
  8
0
 62
     1
 10
-28.916340
 20
-89.143356
 11
-26.416340
 21
-93.473488
  0
LINE
  8
0
 10
-37.666321
 20
-92.908463
 11
-37.666321
 21
-102.308449
  0
LINE
  8
0
 62
     4
 10
-37.666321
 20
-92.908463
 11
-35.166321
 21
-92.908463
  0
LINE
  8
0
 62
     4
 10
-37.666321
 20
-89.708458
 11
-35.166321
 21
-89.708458
  0
LINE
  8
0
 10
-194.250000
 20
132.600006
 11
194.800003
 21
132.600006
  0
LINE
  8
0
 10
194.800003
 20
132.600006
 11
194.800003
 21
-133.500000
  0
LINE
  8
0
 10
-194.250000
 20
132.600006
 11
-194.250000
 21
-133.500000
  0
LINE
  8
0
 10
-194.250000
 20
-133.500000
 11
194.800003
 21
-133.500000
  0
LINE
  8
0
 10
109.800003
 20
-118.500000
 11
109.800003
 21
-133.500000
  0
LINE
  8
0
 10
109.800003
 20
-118.500000
 11
194.800003
 21
-118.500000
  0
LINE
  8
0
 10
109.800003
 20
132.600006
 11
109.800003
 21
117.600006
  0
LINE
  8
0
 10
109.800003
 20
117.600006
 11
194.800003
 21
117.600006
  0
LINE
  8
0
 10
-194.250000
 20
117.600006
 11
-109.250000
 21
117.600006
  0
LINE
  8
0
 10
-109.250000
 20
132.600006
 11
-109.250000
 21
117.600006
  0
CIRCLE
  8
0
  6
DASHED
 62
     2
 10
-60.166313
 20
-10.266411
 40
1.650000
  0
CIRCLE
  8
0
  6
DASHED
 62
     2
 10
-60.166313
 20
-34.266411
 40
2.000000
  0
CIRCLE
  8
0
  6
DASHED
 62
     2
 10
-60.166313
 20
-34.266411
 40
1.650000
  0
CIRCLE
  8
0
  6
DASHED
 62
     2
 10
-60.166313
 20
-10.266411
 40
2.000000
  0
CIRCLE
  8
0
 10
-72.666313
 20
-10.266411
 40
1.500000
  0
CIRCLE
  8
0
 10
-72.666313
 20
-34.266411
 40
1.500000
  0
CIRCLE
  8
0
 62
     4
 10
92.157288
 20
-9.821436
 40
1.300000
  0
CIRCLE
  8
0
 62
     4
 10
92.157288
 20
-34.711426
 40
1.300000
  0
CIRCLE
  8
0
 10
99.157288
 20
-35.266434
 40
1.650000
  0
CIRCLE
  8
0
 10
92.157288
 20
-22.266432
 40
8.500000
  0
CIRCLE
  8
0
 62
     2
 10
85.157288
 20
-9.266436
 40
2.000000
  0
CIRCLE
  8
0
 62
     2
 10
99.157288
 20
-35.266434
 40
2.000000
  0
ARC
  8
0
 10
89.457291
 20
-38.966431
 40
0.299999
 50
270.000000
 51
0.000000
  0
ARC
  8
0
 10
92.157288
 20
-34.366432
 40
2.099998
 50
0.000000
 51
180.000000
  0
ARC
  8
0
 10
94.857292
 20
-38.966431
 40
0.300003
 50
180.000000
 51
270.000000
  0
ARC
  8
0
 10
92.157288
 20
-10.166433
 40
2.099998
 50
179.999969
 51
0.000000
  0
ARC
  8
0
 10
89.457291
 20
-5.566431
 40
0.300003
 50
0.000000
 51
90.000000
  0
ARC
  8
0
 10
94.857292
 20
-5.566431
 40
0.300000
 50
90.000000
 51
180.000000
  0
CIRCLE
  8
0
 10
85.157288
 20
-9.266436
 40
1.650000
  0
CIRCLE
  8
0
 62
     4
 10
-63.666351
 20
51.338692
 40
1.250000
  0
CIRCLE
  8
0
 62
     4
 10
-63.666351
 20
51.338692
 40
1.400000
  0
CIRCLE
  8
0
 10
-45.166367
 20
57.338699
 40
2.100000
  0
CIRCLE
  8
0
 62
     2
 10
-94.666367
 20
51.338692
 40
1.500000
  0
CIRCLE
  8
0
 62
     2
 10
-86.666367
 20
51.338692
 40
1.500000
  0
ARC
  8
0
 10
-45.166367
 20
57.338699
 40
4.250000
 50
302.106842
 51
237.893127
  0
CIRCLE
  8
0
 62
     2
 10
-45.166367
 20
57.338699
 40
2.500000
  0
CIRCLE
  8
0
 62
     2
 10
-59.666367
 20
45.338692
 40
2.500000
  0
ARC
  8
0
 10
-59.666367
 20
45.338692
 40
4.250000
 50
122.106644
 51
57.893353
  0
CIRCLE
  8
0
 10
-94.666367
 20
51.338692
 40
1.250000
  0
CIRCLE
  8
0
 10
-86.666367
 20
51.338692
 40
1.250000
  0
CIRCLE
  8
0
 10
-59.666367
 20
45.338692
 40
2.100000
  0
CIRCLE
  8
0
 62
     4
 10
-55.166306
 20
-91.308456
 40
1.250000
  0
CIRCLE
  8
0
 62
     4
 10
-55.166306
 20
-91.308456
 40
1.400000
  0
CIRCLE
  8
0
 10
-55.666321
 20
-84.308456
 40
1.650000
  0
CIRCLE
  8
0
 62
     2
 10
-86.666321
 20
-91.308456
 40
1.500000
  0
CIRCLE
  8
0
 62
     2
 10
-94.666321
 20
-91.308456
 40
1.500000
  0
CIRCLE
  8
0
 62
     2
 10
-55.666321
 20
-84.308456
 40
2.000000
  0
CIRCLE
  8
0
 62
     2
 10
-55.666321
 20
-98.308456
 40
2.000000
  0
CIRCLE
  8
0
 10
-94.666321
 20
-91.308456
 40
1.250000
  0
CIRCLE
  8
0
 10
-86.666321
 20
-91.308456
 40
1.250000
  0
CIRCLE
  8
0
 10
-55.666321
 20
-98.308456
 40
1.650000
  0
TEXT
  8
0
 10
133.907150
 20
122.050003
 40
4.500000
  1
Ver. 1.0
 50
0.000000
 41
1.052631
 51
0.000000
  7
STANDARD
  0
TEXT
  8
0
 10
113.700279
 20
-130.669998
 40
6.300000
  1
KOGANEI CORP.
 50
0.000000
 41
1.052632
 51
0.000000
  7
STANDARD
  0
TEXT
  8
0
 10
-170.142654
 20
122.050003
 40
4.500000
  1
AIR HAND
 50
0.000000
 41
1.052632
 51
0.000000
  7
STANDARD
  0
TEXT
  8
0
 10
-159.892654
 20
97.550003
 40
4.500000
  1
NHBRS-16-ZE135A2
 50
0.000000
 41
1.052632
 51
0.000000
  7
STANDARD
  0
TEXT
  8
0
 10
-186.892654
 20
104.550003
 40
4.500000
  1
MODEL:NHBDS-16-ZE135A2
 50
0.000000
 41
1.052632
 51
0.000000
  7
STANDARD
  0
ENDSEC
  0
EOF
