  0
SECTION
  2
HEADER
  0
ENDSEC
  0
SECTION
  2
TABLES
  0
TABLE
  2
LTYPE
 70
     4
  0
LTYPE
  2
CONTINUOUS
 70
    64
  3
Solid line
 72
    65
 73
     0
 40
0.000000
  0
LTYPE
  2
DASHED
 70
    64
  3
__ __ __ __ __ __ __ __ __ __ __ __ __ __ __
 72
    65
 73
     2
 40
3.500000
 49
2.000000
 49
-1.500000
  0
LTYPE
  2
CENTER
 70
    64
  3
____ _ ____ _ ____ _ ____ _ ____ _ ____ _ ____
 72
    65
 73
     4
 40
17.500000
 49
13.000000
 49
-1.500000
 49
1.500000
 49
-1.500000
  0
LTYPE
  2
PHANTOM
 70
    64
  3
_____ _ _ _____ _ _ _____ _ _ _____ _ _ ____  
 72
    65
 73
     6
 40
15.500000
 49
8.000000
 49
-1.500000
 49
1.500000
 49
-1.500000
 49
1.500000
 49
-1.500000
  0
LTYPE
  2
DASHED1
 70
    64
  3
__ __ __ __ __ __ __ __ __ __ __ __ __ __ __
 72
    65
 73
     2
 40
1.500000
 49
1.000000
 49
-0.500000
  0
LTYPE
  2
DASHED2
 70
    64
  3
__ __ __ __ __ __ __ __ __ __ __ __ __ __ __
 72
    65
 73
     2
 40
3.500000
 49
2.500000
 49
-1.000000
  0
LTYPE
  2
DASHED3
 70
    64
  3
__ __ __ __ __ __ __ __ __ __ __ __ __ __ __
 72
    65
 73
     2
 40
6.000000
 49
4.000000
 49
-2.000000
  0
LTYPE
  2
DASHED4
 70
    64
  3
__ __ __ __ __ __ __ __ __ __ __ __ __ __ __
 72
    65
 73
     2
 40
12.000000
 49
10.000000
 49
-2.000000
  0
LTYPE
  2
DASHED5
 70
    64
  3
__ __ __ __ __ __ __ __ __ __ __ __ __ __ __
 72
    65
 73
     2
 40
17.000000
 49
15.000000
 49
-2.000000
  0
LTYPE
  2
DASHED6
 70
    64
  3
__ __ __ __ __ __ __ __ __ __ __ __ __ __ __
 72
    65
 73
     2
 40
29.000000
 49
27.000000
 49
-2.000000
  0
LTYPE
  2
PHANTOM1
 70
    64
  3
_____ _ _ _____ _ _ _____ _ _ _____ _ _ ____  
 72
    65
 73
     6
 40
31.000000
 49
25.000000
 49
-1.500000
 49
1.000000
 49
-1.000000
 49
1.000000
 49
-1.500000
  0
LTYPE
  2
PHANTOM2
 70
    64
  3
_____ _ _ _____ _ _ _____ _ _ _____ _ _ ____  
 72
    65
 73
     6
 40
36.000000
 49
27.000000
 49
-1.500000
 49
2.500000
 49
-1.000000
 49
2.500000
 49
-1.500000
  0
LTYPE
  2
PHANTOM3
 70
    64
  3
_____ _ _ _____ _ _ _____ _ _ _____ _ _ ____  
 72
    65
 73
     6
 40
78.000000
 49
64.000000
 49
-2.000000
 49
4.000000
 49
-2.000000
 49
4.000000
 49
-2.000000
  0
LTYPE
  2
CENTER1
 70
    64
  3
____ _ ____ _ ____ _ ____ _ ____ _ ____ _ ____
 72
    65
 73
     4
 40
19.000000
 49
14.000000
 49
-1.000000
 49
3.000000
 49
-1.000000
  0
LTYPE
  2
CENTER2
 70
    64
  3
____ _ ____ _ ____ _ ____ _ ____ _ ____ _ ____
 72
    65
 73
     4
 40
28.500000
 49
25.000000
 49
-1.000000
 49
1.500000
 49
-1.000000
  0
LTYPE
  2
CENTER3
 70
    64
  3
____ _ ____ _ ____ _ ____ _ ____ _ ____ _ ____
 72
    65
 73
     4
 40
31.500000
 49
27.000000
 49
-1.000000
 49
2.500000
 49
-1.000000
  0
LTYPE
  2
CENTER4
 70
    64
  3
____ _ ____ _ ____ _ ____ _ ____ _ ____ _ ____
 72
    65
 73
     4
 40
50.000000
 49
45.000000
 49
-1.000000
 49
3.000000
 49
-1.000000
  0
LTYPE
  2
CENTER5
 70
    64
  3
____ _ ____ _ ____ _ ____ _ ____ _ ____ _ ____
 72
    65
 73
     4
 40
100.000000
 49
92.000000
 49
-2.000000
 49
4.000000
 49
-2.000000
  0
LTYPE
  2
SBK1
 70
    64
  3
______ _ _ _ ______ _ _ _ ______ _ _ _ _____  
 72
    65
 73
     8
 40
60.500000
 49
45.000000
 49
-2.000000
 49
2.500000
 49
-2.000000
 49
2.500000
 49
-2.000000
 49
2.500000
 49
-2.000000
  0
LTYPE
  2
SBK2
 70
    64
  3
______ _ _ _ ______ _ _ _ ______ _ _ _ _____  
 72
    65
 73
     8
 40
84.000000
 49
64.000000
 49
-2.000000
 49
4.000000
 49
-2.000000
 49
4.000000
 49
-2.000000
 49
4.000000
 49
-2.000000
  0
LTYPE
  2
STCH
 70
    64
  3
__ __ __ __ __ __ __ __ __ __ __ __ __ __ __
 72
    65
 73
     2
 40
3.000000
 49
1.000000
 49
-2.000000
  0
LTYPE
  2
MTCH
 70
    64
  3
_____ _ _ _____ _ _ _____ _ _ _____ _ _ ____  
 72
    65
 73
     6
 40
80.000000
 49
66.000000
 49
-2.000000
 49
4.000000
 49
-2.000000
 49
4.000000
 49
-2.000000
  0
ENDTAB
  0
TABLE
  2
LAYER
 70
     1
  0
LAYER
  2
0
 70
     0
 62
     7
  6
CONTINUOUS
  0
ENDTAB
  0
TABLE
  2
STYLE
 70
     1
  0
STYLE
  2
STANDARD
 70
     0
 40
0.000000
 41
1.000000
 50
0.000000
 71
     0
 42
0.200000
  3
txt
  4
BIGFONT
  0
ENDTAB
  0
TABLE
  2
VIEW
 70
     0
  0
ENDTAB
  0
ENDSEC
  0
SECTION
  2
BLOCKS
  0
ENDSEC
  0
SECTION
  2
ENTITIES
  0
LINE
  8
0
  6
CENTER
 62
     2
 10
-74.724998
 20
-11.330097
 11
-13.474998
 21
-11.330097
  0
LINE
  8
0
 10
-68.691681
 20
11.169903
 11
-18.691681
 21
11.169903
  0
LINE
  8
0
 10
-68.691696
 20
-33.830097
 11
-18.691696
 21
-33.830097
  0
LINE
  8
0
 10
-68.691689
 20
11.169903
 11
-68.691689
 21
-33.830097
  0
LINE
  8
0
 10
-18.691689
 20
11.169891
 11
-18.691689
 21
-33.830109
  0
LINE
  8
0
  6
CENTER
 62
     2
 10
-58.191689
 20
6.995043
 11
-58.191689
 21
0.121143
  0
LINE
  8
0
  6
CENTER
 62
     2
 10
-61.740181
 20
3.669903
 11
-54.669884
 21
3.669903
  0
LINE
  8
0
  6
CENTER
 62
     2
 10
-48.372799
 20
3.669903
 11
-38.798439
 21
3.669903
  0
LINE
  8
0
  6
CENTER
 62
     2
 10
-43.691689
 20
-1.060981
 11
-43.691689
 21
8.267883
  0
LINE
  8
0
  6
CENTER
 62
     2
 10
-95.284798
 20
-36.269165
 11
-54.433136
 21
-25.322992
  0
LINE
  8
0
  6
CENTER
 62
     2
 10
-94.947647
 20
13.518631
 11
-54.433128
 21
2.662798
  0
LINE
  8
0
  6
PHANTOM
 62
     2
 10
-90.873055
 20
4.324030
 11
-68.691681
 21
6.264649
  0
LINE
  8
0
  6
PHANTOM
 62
     2
 10
-90.262955
 20
-2.649337
 11
-68.691681
 21
-0.762095
  0
LINE
  8
0
  6
PHANTOM
 62
     2
 10
-90.873070
 20
-26.984224
 11
-68.691711
 21
-28.924841
  0
LINE
  8
0
  6
PHANTOM
 62
     2
 10
-90.262978
 20
-20.010864
 11
-68.691689
 21
-21.898108
  0
LINE
  8
0
  6
PHANTOM
 62
     2
 10
-90.873093
 20
4.324028
 11
-90.263008
 21
-2.649341
  0
LINE
  8
0
  6
PHANTOM
 62
     2
 10
-90.263016
 20
-20.010851
 11
-90.873108
 21
-26.984213
  0
LINE
  8
0
 10
-88.678398
 20
15.462253
 11
-68.691673
 21
10.106826
  0
LINE
  8
0
 10
-90.490143
 20
8.700781
 11
-68.691681
 21
2.859900
  0
LINE
  8
0
 62
     2
 10
-90.490143
 20
-31.360975
 11
-68.691673
 21
-25.520094
  0
LINE
  8
0
 62
     2
 10
-88.678413
 20
-38.122456
 11
-68.691696
 21
-32.767029
  0
LINE
  8
0
 10
-88.678383
 20
15.462258
 11
-90.490112
 21
8.700778
  0
LINE
  8
0
 62
     2
 10
-90.490120
 20
-31.360962
 11
-88.678383
 21
-38.122444
  0
LINE
  8
0
 62
     4
 10
-18.691689
 20
-23.975109
 11
-16.191689
 21
-23.975109
  0
LINE
  8
0
 62
     4
 10
-18.691689
 20
-28.575108
 11
-16.191689
 21
-28.575108
  0
LINE
  8
0
 62
     4
 10
-16.191689
 20
-23.975121
 11
-16.191689
 21
-28.575119
  0
LINE
  8
0
 62
     4
 10
-16.191689
 20
-24.975094
 11
-7.442249
 21
-24.975094
  0
LINE
  8
0
 62
     4
 10
-16.191689
 20
-27.575100
 11
-5.941135
 21
-27.575100
  0
LINE
  8
0
 62
     1
 10
-7.941704
 20
-24.110012
 11
-5.441704
 21
-28.440140
  0
LINE
  8
0
 62
     4
 10
-18.691689
 20
-28.125103
 11
-16.191689
 21
-28.125103
  0
LINE
  8
0
 62
     4
 10
-18.691689
 20
-27.575085
 11
-16.191689
 21
-27.575085
  0
LINE
  8
0
 62
     4
 10
-18.691689
 20
4.914906
 11
-7.442249
 21
4.914906
  0
LINE
  8
0
 62
     1
 10
-7.941700
 20
5.779984
 11
-5.441700
 21
1.449856
  0
LINE
  8
0
 62
     4
 10
-18.691689
 20
2.314899
 11
-5.941135
 21
2.314899
  0
LINE
  8
0
  6
CENTER
 62
     2
 10
-43.691689
 20
-22.173674
 11
-43.691689
 21
-30.766050
  0
LINE
  8
0
  6
CENTER
 62
     2
 10
-48.127304
 20
-26.330097
 11
-39.289433
 21
-26.330097
  0
LINE
  8
0
  6
CENTER
 62
     2
 10
-58.191689
 20
-23.004955
 11
-58.191689
 21
-29.878857
  0
LINE
  8
0
  6
CENTER
 62
     2
 10
-61.740181
 20
-26.330097
 11
-54.669884
 21
-26.330097
  0
LINE
  8
0
 10
87.369392
 20
11.169895
 11
87.369392
 21
-33.830105
  0
LINE
  8
0
 10
113.369392
 20
11.169909
 11
113.369392
 21
-33.830093
  0
LINE
  8
0
  6
CENTER
 62
     2
 10
92.369385
 20
9.919899
 11
92.369385
 21
2.419899
  0
LINE
  8
0
 10
97.869392
 20
-33.530102
 11
97.869392
 21
-29.930096
  0
LINE
  8
0
 10
97.869423
 20
-29.930145
 11
98.769424
 21
-29.030144
  0
LINE
  8
0
 10
98.769394
 20
-29.030098
 11
98.769394
 21
-28.030098
  0
LINE
  8
0
 10
98.769440
 20
-28.030081
 11
98.269432
 21
-27.530071
  0
LINE
  8
0
 10
98.269394
 20
-27.530098
 11
98.269394
 21
-25.930099
  0
LINE
  8
0
 10
102.469391
 20
-27.530098
 11
102.469391
 21
-25.930099
  0
LINE
  8
0
 10
101.969391
 20
-29.030098
 11
101.969391
 21
-28.030098
  0
LINE
  8
0
 10
101.969444
 20
-28.030155
 11
102.469444
 21
-27.530153
  0
LINE
  8
0
 10
102.869423
 20
-29.930082
 11
101.969429
 21
-29.030083
  0
LINE
  8
0
 10
102.869392
 20
-33.530102
 11
102.869392
 21
-29.930096
  0
LINE
  8
0
 10
97.869392
 20
10.869904
 11
97.869392
 21
7.269905
  0
LINE
  8
0
 10
97.869408
 20
7.269943
 11
98.769409
 21
6.369942
  0
LINE
  8
0
 10
98.769394
 20
6.369904
 11
98.769394
 21
5.369900
  0
LINE
  8
0
 10
98.269417
 20
4.869891
 11
98.769417
 21
5.369892
  0
LINE
  8
0
 10
98.269394
 20
3.269900
 11
98.269394
 21
4.869904
  0
LINE
  8
0
 10
102.469391
 20
3.269902
 11
102.469391
 21
4.869904
  0
LINE
  8
0
 10
102.469437
 20
4.869940
 11
101.969444
 21
5.369936
  0
LINE
  8
0
 10
101.969391
 20
6.369904
 11
101.969391
 21
5.369904
  0
LINE
  8
0
 10
102.869415
 20
7.269894
 11
101.969414
 21
6.369890
  0
LINE
  8
0
 10
102.869392
 20
10.869904
 11
102.869392
 21
7.269901
  0
LINE
  8
0
 10
87.369385
 20
11.169903
 11
97.569389
 21
11.169903
  0
LINE
  8
0
 10
87.369400
 20
-33.830097
 11
97.569405
 21
-33.830097
  0
LINE
  8
0
  6
CENTER
 62
     2
 10
88.619385
 20
6.169886
 11
96.119385
 21
6.169886
  0
LINE
  8
0
 10
103.169388
 20
11.169903
 11
113.369385
 21
11.169903
  0
LINE
  8
0
 10
103.169403
 20
-33.830097
 11
113.369400
 21
-33.830097
  0
LINE
  8
0
 62
     4
 10
101.969383
 20
5.364986
 11
101.869438
 21
5.464928
  0
LINE
  8
0
 62
     4
 10
101.869392
 20
5.914890
 11
101.869392
 21
5.464893
  0
LINE
  8
0
 62
     4
 10
101.869385
 20
5.914890
 11
98.869385
 21
5.914890
  0
LINE
  8
0
 62
     4
 10
98.869392
 20
5.914890
 11
98.869392
 21
5.464893
  0
LINE
  8
0
 62
     4
 10
98.769386
 20
5.364913
 11
98.869392
 21
5.464923
  0
LINE
  8
0
 62
     4
 10
101.619392
 20
6.414890
 11
101.619392
 21
5.914890
  0
LINE
  8
0
 62
     4
 10
99.119392
 20
6.414890
 11
99.119392
 21
5.914890
  0
LINE
  8
0
 62
     4
 10
101.619385
 20
6.414890
 11
99.119385
 21
6.414890
  0
LINE
  8
0
 62
     4
 10
101.969391
 20
-28.025169
 11
101.869446
 21
-28.125113
  0
LINE
  8
0
 62
     4
 10
101.869392
 20
-28.575085
 11
101.869392
 21
-28.125088
  0
LINE
  8
0
 62
     4
 10
101.869400
 20
-28.575085
 11
98.869400
 21
-28.575085
  0
LINE
  8
0
 62
     4
 10
98.869392
 20
-28.575085
 11
98.869392
 21
-28.125088
  0
LINE
  8
0
 62
     4
 10
98.769394
 20
-28.025118
 11
98.869400
 21
-28.125128
  0
LINE
  8
0
 62
     4
 10
101.619392
 20
-29.075085
 11
101.619392
 21
-28.575085
  0
LINE
  8
0
 62
     4
 10
99.119392
 20
-29.075085
 11
99.119392
 21
-28.575085
  0
LINE
  8
0
 62
     4
 10
101.619400
 20
-29.075085
 11
99.119400
 21
-29.075085
  0
LINE
  8
0
  6
CENTER
 62
     2
 10
81.224998
 20
-11.330097
 11
118.324997
 21
-11.330097
  0
LINE
  8
0
  6
CENTER
 62
     2
 10
100.369392
 20
17.173683
 11
100.369392
 21
-39.176315
  0
LINE
  8
0
  6
CENTER
 62
     2
 10
108.369385
 20
-25.080093
 11
108.369385
 21
-32.580093
  0
LINE
  8
0
  6
CENTER
 62
     2
 10
104.619400
 20
-28.830114
 11
112.119400
 21
-28.830114
  0
LINE
  8
0
  6
CENTER
 62
     2
 10
-91.074997
 20
60.909866
 11
-5.691692
 21
60.909866
  0
LINE
  8
0
 10
-18.691689
 20
73.909859
 11
-18.691689
 21
62.209869
  0
LINE
  8
0
 10
-68.691689
 20
73.909866
 11
-18.691689
 21
73.909866
  0
LINE
  8
0
 10
-68.691689
 20
47.909866
 11
-18.691689
 21
47.909866
  0
LINE
  8
0
 10
-68.691689
 20
54.709869
 11
-50.191689
 21
54.709869
  0
LINE
  8
0
 10
-50.191689
 20
54.709866
 11
-50.191689
 21
67.109863
  0
LINE
  8
0
 10
-50.191689
 20
58.509872
 11
-18.691689
 21
58.509872
  0
LINE
  8
0
 10
-50.191689
 20
63.309875
 11
-18.691689
 21
63.309875
  0
LINE
  8
0
  6
CENTER
 62
     2
 10
-49.109291
 20
54.409866
 11
-37.079964
 21
54.409866
  0
LINE
  8
0
  6
CENTER
 62
     2
 10
-43.191689
 20
48.121677
 11
-43.191689
 21
59.905506
  0
LINE
  8
0
  6
CENTER
 62
     2
 10
-32.906525
 20
67.409866
 11
-20.631706
 21
67.409866
  0
LINE
  8
0
  6
CENTER
 62
     2
 10
-26.691689
 20
62.605965
 11
-26.691689
 21
73.162308
  0
LINE
  8
0
  6
CENTER
 62
     2
 10
-43.691689
 20
61.120785
 11
-43.691689
 21
77.640808
  0
LINE
  8
0
 10
-68.691689
 20
67.109863
 11
-50.191689
 21
67.109863
  0
LINE
  8
0
 10
-68.691689
 20
73.909866
 11
-68.691689
 21
67.109863
  0
LINE
  8
0
 10
-90.691689
 20
66.909866
 11
-90.691689
 21
54.909870
  0
LINE
  8
0
 10
-90.691689
 20
66.909866
 11
-53.191689
 21
66.909866
  0
LINE
  8
0
 10
-90.691689
 20
54.909866
 11
-53.191689
 21
54.909866
  0
LINE
  8
0
 10
-68.691689
 20
54.709869
 11
-68.691689
 21
47.909866
  0
LINE
  8
0
 10
-53.191689
 20
66.909866
 11
-53.191689
 21
54.909863
  0
LINE
  8
0
 10
-54.691689
 20
66.909866
 11
-54.691689
 21
54.909863
  0
LINE
  8
0
 10
-53.191689
 20
65.909866
 11
-50.191689
 21
65.909866
  0
LINE
  8
0
 10
-53.191689
 20
55.909866
 11
-50.191689
 21
55.909866
  0
LINE
  8
0
  6
CENTER
 62
     2
 10
-86.691689
 20
64.909866
 11
-86.691689
 21
56.909870
  0
LINE
  8
0
  6
CENTER
 62
     2
 10
-76.691689
 20
64.909866
 11
-76.691689
 21
56.909866
  0
LINE
  8
0
 62
     4
 10
-49.191692
 20
62.509853
 11
-49.191692
 21
59.309872
  0
LINE
  8
0
 62
     4
 10
-27.191692
 20
62.509850
 11
-27.191692
 21
59.309868
  0
LINE
  8
0
 62
     4
 10
-48.225922
 20
60.207844
 11
-46.489647
 21
61.944115
  0
LINE
  8
0
 62
     4
 10
-47.867996
 20
59.858635
 11
-46.140442
 21
61.586185
  0
LINE
  8
0
 62
     4
 10
-27.191692
 20
62.209877
 11
-9.442253
 21
62.209877
  0
LINE
  8
0
 62
     4
 10
-27.191692
 20
59.609871
 11
-7.941139
 21
59.609871
  0
LINE
  8
0
 62
     1
 10
-9.941714
 20
63.074966
 11
-7.441712
 21
58.744843
  0
LINE
  8
0
 10
-50.191689
 20
59.309875
 11
-18.691689
 21
59.309875
  0
LINE
  8
0
 10
-50.191689
 20
62.509857
 11
-18.691689
 21
62.509857
  0
LINE
  8
0
 10
-18.691689
 20
59.609863
 11
-18.691689
 21
47.909859
  0
LINE
  8
0
  6
CENTER
 62
     2
 10
-96.614227
 20
-91.043274
 11
-5.691689
 21
-91.043274
  0
LINE
  8
0
 10
-68.691696
 20
-78.043274
 11
-18.691696
 21
-78.043274
  0
LINE
  8
0
 10
-68.691681
 20
-104.043266
 11
-18.691681
 21
-104.043266
  0
LINE
  8
0
 10
-68.691689
 20
-97.243263
 11
-50.191689
 21
-97.243263
  0
LINE
  8
0
 10
-68.691689
 20
-84.843277
 11
-50.191689
 21
-84.843277
  0
LINE
  8
0
 10
-50.191689
 20
-84.843269
 11
-50.191689
 21
-97.243256
  0
LINE
  8
0
 10
-50.191689
 20
-88.643280
 11
-18.691689
 21
-88.643280
  0
LINE
  8
0
 10
-50.191689
 20
-89.443283
 11
-18.691689
 21
-89.443283
  0
LINE
  8
0
 10
-50.191689
 20
-92.643280
 11
-18.691689
 21
-92.643280
  0
LINE
  8
0
  6
CENTER
 62
     2
 10
-37.691689
 20
-87.230209
 11
-37.691689
 21
-78.883331
  0
LINE
  8
0
  6
CENTER
 62
     2
 10
-42.112640
 20
-83.043274
 11
-33.274765
 21
-83.043274
  0
LINE
  8
0
  6
CENTER
 62
     2
 10
-37.691689
 20
-94.595100
 11
-37.691689
 21
-103.187469
  0
LINE
  8
0
  6
CENTER
 62
     2
 10
-41.867142
 20
-99.043266
 11
-33.274765
 21
-99.043266
  0
LINE
  8
0
  6
CENTER
 62
     2
 10
-43.691689
 20
-91.254181
 11
-43.691689
 21
-107.774193
  0
LINE
  8
0
 10
-50.191689
 20
-93.443283
 11
-18.691689
 21
-93.443283
  0
LINE
  8
0
 10
-18.691689
 20
-78.043251
 11
-18.691689
 21
-89.443260
  0
LINE
  8
0
 10
-68.691689
 20
-78.043274
 11
-68.691689
 21
-84.843277
  0
LINE
  8
0
 10
-90.691689
 20
-85.043282
 11
-90.691689
 21
-97.043274
  0
LINE
  8
0
 10
-90.691689
 20
-85.043274
 11
-53.191689
 21
-85.043274
  0
LINE
  8
0
 10
-90.691689
 20
-97.043266
 11
-53.191689
 21
-97.043266
  0
LINE
  8
0
 10
-68.691689
 20
-97.243263
 11
-68.691689
 21
-104.043266
  0
LINE
  8
0
 10
-53.191689
 20
-85.043266
 11
-53.191689
 21
-97.043259
  0
LINE
  8
0
 10
-54.691689
 20
-85.043266
 11
-54.691689
 21
-97.043259
  0
LINE
  8
0
 10
-53.191689
 20
-86.043274
 11
-50.191689
 21
-86.043274
  0
LINE
  8
0
 10
-53.191689
 20
-96.043266
 11
-50.191689
 21
-96.043266
  0
LINE
  8
0
  6
CENTER
 62
     2
 10
-86.691689
 20
-87.043282
 11
-86.691689
 21
-95.577110
  0
LINE
  8
0
  6
CENTER
 62
     2
 10
-76.691689
 20
-86.739227
 11
-76.691689
 21
-95.331604
  0
LINE
  8
0
 62
     4
 10
-18.691689
 20
-93.093292
 11
-16.191689
 21
-93.093292
  0
LINE
  8
0
 62
     4
 10
-38.191696
 20
-89.443268
 11
-38.191696
 21
-92.643265
  0
LINE
  8
0
 62
     4
 10
-16.191689
 20
-88.993263
 11
-16.191689
 21
-93.093269
  0
LINE
  8
0
 62
     4
 10
-37.225910
 20
-91.745316
 11
-35.489635
 21
-90.009041
  0
LINE
  8
0
 62
     4
 10
-36.867985
 20
-92.094528
 11
-35.140438
 21
-90.366982
  0
LINE
  8
0
 62
     4
 10
-16.191689
 20
-89.743286
 11
-9.442284
 21
-89.743286
  0
LINE
  8
0
 62
     4
 10
-16.191689
 20
-92.343292
 11
-7.941154
 21
-92.343292
  0
LINE
  8
0
 62
     1
 10
-9.941714
 20
-88.878159
 11
-7.441712
 21
-93.208298
  0
LINE
  8
0
 10
-18.691689
 20
-92.643257
 11
-18.691689
 21
-104.043243
  0
LINE
  8
0
 62
     4
 10
-18.691689
 20
-92.643280
 11
-16.191689
 21
-92.643280
  0
LINE
  8
0
 62
     4
 10
-18.691689
 20
-89.443268
 11
-16.191689
 21
-89.443268
  0
LINE
  8
0
 62
     4
 10
-18.691689
 20
-88.993256
 11
-16.191689
 21
-88.993256
  0
LINE
  8
0
 10
-194.250000
 20
132.600006
 11
194.800003
 21
132.600006
  0
LINE
  8
0
 10
194.800003
 20
132.600006
 11
194.800003
 21
-133.500000
  0
LINE
  8
0
 10
-194.250000
 20
132.600006
 11
-194.250000
 21
-133.500000
  0
LINE
  8
0
 10
-194.250000
 20
-133.500000
 11
194.800003
 21
-133.500000
  0
LINE
  8
0
 10
109.800003
 20
-118.500000
 11
109.800003
 21
-133.500000
  0
LINE
  8
0
 10
109.800003
 20
-118.500000
 11
194.800003
 21
-118.500000
  0
LINE
  8
0
 10
109.800003
 20
132.600006
 11
109.800003
 21
117.600006
  0
LINE
  8
0
 10
109.800003
 20
117.600006
 11
194.800003
 21
117.600006
  0
LINE
  8
0
 10
-194.250000
 20
117.600006
 11
-109.250000
 21
117.600006
  0
LINE
  8
0
 10
-109.250000
 20
132.600006
 11
-109.250000
 21
117.600006
  0
CIRCLE
  8
0
  6
DASHED
 62
     2
 10
-43.691692
 20
-26.330103
 40
2.100000
  0
CIRCLE
  8
0
 10
-58.191692
 20
-26.330099
 40
2.000000
  0
CIRCLE
  8
0
  6
DASHED
 62
     2
 10
-43.691685
 20
3.669897
 40
2.100000
  0
CIRCLE
  8
0
 10
-58.191685
 20
3.669901
 40
2.000000
  0
CIRCLE
  8
0
  6
DASHED
 62
     2
 10
-43.691685
 20
3.669897
 40
2.500000
  0
CIRCLE
  8
0
  6
DASHED
 62
     2
 10
-43.691692
 20
-26.330103
 40
2.500000
  0
CIRCLE
  8
0
 62
     4
 10
100.369385
 20
3.614903
 40
1.300000
  0
CIRCLE
  8
0
 62
     4
 10
100.369400
 20
-26.275099
 40
1.300000
  0
CIRCLE
  8
0
 10
108.369400
 20
-28.830093
 40
2.100000
  0
CIRCLE
  8
0
 10
100.369392
 20
-11.330098
 40
10.500000
  0
ARC
  8
0
 10
97.569405
 20
-33.530106
 40
0.299999
 50
270.000000
 51
0.000000
  0
ARC
  8
0
 10
100.369400
 20
-25.930099
 40
2.099998
 50
0.000000
 51
180.000000
  0
ARC
  8
0
 10
103.169403
 20
-33.530098
 40
0.300003
 50
180.000000
 51
270.000000
  0
ARC
  8
0
 10
97.569389
 20
10.869902
 40
0.300003
 50
0.000000
 51
90.000000
  0
ARC
  8
0
 10
100.369385
 20
3.269901
 40
2.099998
 50
179.999985
 51
0.000013
  0
ARC
  8
0
 10
103.169388
 20
10.869905
 40
0.300000
 50
90.000000
 51
180.000000
  0
CIRCLE
  8
0
 62
     2
 10
92.369385
 20
6.169899
 40
2.500000
  0
CIRCLE
  8
0
 62
     2
 10
108.369400
 20
-28.830093
 40
2.500000
  0
CIRCLE
  8
0
 10
92.369385
 20
6.169899
 40
2.100000
  0
CIRCLE
  8
0
 62
     4
 10
-47.191677
 20
60.909870
 40
1.250000
  0
CIRCLE
  8
0
 62
     4
 10
-47.191677
 20
60.909870
 40
1.400000
  0
CIRCLE
  8
0
 10
-26.691689
 20
67.409859
 40
2.100000
  0
CIRCLE
  8
0
 62
     2
 10
-76.691689
 20
60.909866
 40
2.000000
  0
CIRCLE
  8
0
 62
     2
 10
-86.691689
 20
60.909870
 40
2.000000
  0
ARC
  8
0
 10
-43.191689
 20
54.409863
 40
4.250000
 50
105.267418
 51
74.732582
  0
CIRCLE
  8
0
 62
     2
 10
-43.191689
 20
54.409863
 40
2.500000
  0
ARC
  8
0
 10
-26.691689
 20
67.409859
 40
4.250000
 50
285.267822
 51
254.732208
  0
CIRCLE
  8
0
 62
     2
 10
-26.691689
 20
67.409859
 40
2.500000
  0
CIRCLE
  8
0
 10
-86.691689
 20
60.909870
 40
1.650000
  0
CIRCLE
  8
0
 10
-76.691689
 20
60.909866
 40
1.650000
  0
CIRCLE
  8
0
 10
-43.191689
 20
54.409863
 40
2.100000
  0
CIRCLE
  8
0
 62
     4
 10
-36.191681
 20
-91.043274
 40
1.250000
  0
CIRCLE
  8
0
 62
     4
 10
-36.191681
 20
-91.043274
 40
1.400000
  0
CIRCLE
  8
0
 10
-37.691692
 20
-83.043259
 40
2.100000
  0
CIRCLE
  8
0
 62
     2
 10
-76.691689
 20
-91.043274
 40
2.000000
  0
CIRCLE
  8
0
 62
     2
 10
-37.691692
 20
-83.043259
 40
2.500000
  0
CIRCLE
  8
0
 62
     2
 10
-37.691685
 20
-99.043251
 40
2.500000
  0
CIRCLE
  8
0
 62
     2
 10
-86.691689
 20
-91.043282
 40
2.000000
  0
CIRCLE
  8
0
 10
-86.691689
 20
-91.043282
 40
1.650000
  0
CIRCLE
  8
0
 10
-76.691689
 20
-91.043274
 40
1.650000
  0
CIRCLE
  8
0
 10
-37.691685
 20
-99.043251
 40
2.100000
  0
TEXT
  8
0
 10
133.907150
 20
122.050003
 40
4.500000
  1
Ver. 1.0
 50
0.000000
 41
1.052631
 51
0.000000
  7
STANDARD
  0
TEXT
  8
0
 10
113.700279
 20
-130.669998
 40
6.300000
  1
KOGANEI CORP.
 50
0.000000
 41
1.052632
 51
0.000000
  7
STANDARD
  0
TEXT
  8
0
 10
-170.142654
 20
122.050003
 40
4.500000
  1
AIR HAND
 50
0.000000
 41
1.052632
 51
0.000000
  7
STANDARD
  0
TEXT
  8
0
 10
-159.892654
 20
97.550003
 40
4.500000
  1
NHBRS-20-ZE135A2
 50
0.000000
 41
1.052632
 51
0.000000
  7
STANDARD
  0
TEXT
  8
0
 10
-186.892654
 20
104.550003
 40
4.500000
  1
MODEL:NHBDS-20-ZE135A2
 50
0.000000
 41
1.052632
 51
0.000000
  7
STANDARD
  0
ENDSEC
  0
EOF
