  0
SECTION
  2
HEADER
  9
$ACADVER
  1
AC1012
  9
$DWGCODEPAGE
  3
dos932
  9
$INSBASE
 10
0.0
 20
0.0
 30
0.0
  9
$EXTMIN
 10
-194.25
 20
-133.5
 30
0.0
  9
$EXTMAX
 10
196.25000429153442
 20
132.59999999999999
 30
0.0
  9
$LIMMIN
 10
-194.25
 20
-133.5
  9
$LIMMAX
 10
196.25000429153442
 20
132.59999999999999
  9
$ORTHOMODE
 70
               0
  9
$REGENMODE
 70
               1
  9
$FILLMODE
 70
               1
  9
$QTEXTMODE
 70
               0
  9
$MIRRTEXT
 70
               1
  9
$DRAGMODE
 70
               2
  9
$LTSCALE
 40
1.0
  9
$OSMODE
 70
               0
  9
$ATTMODE
 70
               1
  9
$TEXTSIZE
 40
3.2000000476837158
  9
$TRACEWID
 40
0.05
  9
$TEXTSTYLE
  7
MX_NOTE_STANDARD
  9
$CLAYER
  8
LY_1
  9
$CELTYPE
  6
CONTINUOUS
  9
$CECOLOR
 62
             256
  9
$CELTSCALE
 40
1.0
  9
$DELOBJ
 70
               1
  9
$DISPSILH
 70
               0
  9
$DIMSCALE
 40
1.0
  9
$DIMASZ
 40
2.5
  9
$DIMEXO
 40
1.5
  9
$DIMDLI
 40
3.75
  9
$DIMRND
 40
0.0
  9
$DIMDLE
 40
0.0
  9
$DIMEXE
 40
1.5
  9
$DIMTP
 40
0.0
  9
$DIMTM
 40
0.0
  9
$DIMTXT
 40
3.2000000476837158
  9
$DIMCEN
 40
2.5
  9
$DIMTSZ
 40
0.0
  9
$DIMTOL
 70
               0
  9
$DIMLIM
 70
               0
  9
$DIMTIH
 70
               0
  9
$DIMTOH
 70
               0
  9
$DIMSE1
 70
               0
  9
$DIMSE2
 70
               0
  9
$DIMTAD
 70
               1
  9
$DIMZIN
 70
               8
  9
$DIMBLK
  1

  9
$DIMASO
 70
               1
  9
$DIMSHO
 70
               1
  9
$DIMPOST
  1

  9
$DIMAPOST
  1

  9
$DIMALT
 70
               0
  9
$DIMALTD
 70
               4
  9
$DIMALTF
 40
0.03937007874016
  9
$DIMLFAC
 40
1.0
  9
$DIMTOFL
 70
               1
  9
$DIMTVP
 40
0.0
  9
$DIMTIX
 70
               0
  9
$DIMSOXD
 70
               0
  9
$DIMSAH
 70
               0
  9
$DIMBLK1
  1

  9
$DIMBLK2
  1

  9
$DIMSTYLE
  2
MXDIMSTYLE
  9
$DIMCLRD
 70
               0
  9
$DIMCLRE
 70
               0
  9
$DIMCLRT
 70
               0
  9
$DIMTFAC
 40
1.0
  9
$DIMGAP
 40
1.0
  9
$DIMJUST
 70
               0
  9
$DIMSD1
 70
               0
  9
$DIMSD2
 70
               0
  9
$DIMTOLJ
 70
               1
  9
$DIMTZIN
 70
               0
  9
$DIMALTZ
 70
               0
  9
$DIMALTTZ
 70
               0
  9
$DIMFIT
 70
               3
  9
$DIMUPT
 70
               1
  9
$DIMUNIT
 70
               2
  9
$DIMDEC
 70
               4
  9
$DIMTDEC
 70
               4
  9
$DIMALTU
 70
               2
  9
$DIMALTTD
 70
               4
  9
$DIMTXSTY
  7
MX_NOTE_STANDARD
  9
$DIMAUNIT
 70
               0
  9
$LUNITS
 70
               2
  9
$LUPREC
 70
               4
  9
$SKETCHINC
 40
0.1
  9
$FILLETRAD
 40
0.0
  9
$AUNITS
 70
               0
  9
$AUPREC
 70
               0
  9
$MENU
  1
acad
  9
$ELEVATION
 40
0.0
  9
$PELEVATION
 40
0.0
  9
$THICKNESS
 40
0.0
  9
$LIMCHECK
 70
               0
  9
$BLIPMODE
 70
               1
  9
$CHAMFERA
 40
0.0
  9
$CHAMFERB
 40
0.0
  9
$CHAMFERC
 40
0.0
  9
$CHAMFERD
 40
0.0
  9
$SKPOLY
 70
               0
  9
$TDCREATE
 40
2453433.738379630
  9
$TDUPDATE
 40
2453433.738379630
  9
$TDINDWG
 40
0.0000000000
  9
$TDUSRTIMER
 40
0.0000000000
  9
$USRTIMER
 70
               1
  9
$ANGBASE
 50
0.0
  9
$ANGDIR
 70
               0
  9
$PDMODE
 70
               0
  9
$PDSIZE
 40
0.0
  9
$PLINEWID
 40
0.0
  9
$COORDS
 70
               1
  9
$SPLFRAME
 70
               0
  9
$SPLINETYPE
 70
               6
  9
$SPLINESEGS
 70
               8
  9
$ATTDIA
 70
               0
  9
$ATTREQ
 70
               1
  9
$HANDLING
 70
               1
  9
$HANDSEED
  5
FC
  9
$SURFTAB1
 70
               6
  9
$SURFTAB2
 70
               6
  9
$SURFTYPE
 70
               6
  9
$SURFU
 70
               6
  9
$SURFV
 70
               6
  9
$UCSNAME
  2

  9
$UCSORG
 10
0.0
 20
0.0
 30
0.0
  9
$UCSXDIR
 10
1.0
 20
0.0
 30
0.0
  9
$UCSYDIR
 10
0.0
 20
1.0
 30
0.0
  9
$PUCSNAME
  2

  9
$PUCSORG
 10
0.0
 20
0.0
 30
0.0
  9
$PUCSXDIR
 10
1.0
 20
0.0
 30
0.0
  9
$PUCSYDIR
 10
0.0
 20
1.0
 30
0.0
  9
$USERI1
 70
               0
  9
$USERI2
 70
               0
  9
$USERI3
 70
               0
  9
$USERI4
 70
               0
  9
$USERI5
 70
               0
  9
$USERR1
 40
0.0
  9
$USERR2
 40
0.0
  9
$USERR3
 40
0.0
  9
$USERR4
 40
0.0
  9
$USERR5
 40
0.0
  9
$WORLDVIEW
 70
               1
  9
$SHADEDGE
 70
               3
  9
$SHADEDIF
 70
              70
  9
$TILEMODE
 70
               1
  9
$MAXACTVP
 70
              16
  9
$PINSBASE
 10
0.0
 20
0.0
 30
0.0
  9
$PLIMCHECK
 70
               0
  9
$PEXTMIN
 10
1.0000000000000000E+20
 20
1.0000000000000000E+20
 30
1.0000000000000000E+20
  9
$PEXTMAX
 10
-1.0000000000000000E+20
 20
-1.0000000000000000E+20
 30
-1.0000000000000000E+20
  9
$PLIMMIN
 10
0.0
 20
0.0
  9
$PLIMMAX
 10
12.0
 20
9.0
  9
$UNITMODE
 70
               0
  9
$VISRETAIN
 70
               0
  9
$PLINEGEN
 70
               1
  9
$PSLTSCALE
 70
               0
  9
$TREEDEPTH
 70
            3020
  9
$PICKSTYLE
 70
               1
  9
$CMLSTYLE
  2
Standard
  9
$CMLJUST
 70
               0
  9
$CMLSCALE
 40
1.0
  9
$SAVEIMAGES
 70
               0
  0
ENDSEC
  0
SECTION
  2
CLASSES
  0
CLASS
  1
LWPOLYLINE
  2
AcDbPolyline
  3
"AutoCAD"
 90
        0
280
               0
281
               1
  0
CLASS
  1
IMAGE
  2
AcDbRasterImage
  3
ISM
 90
      127
280
               0
281
               1
  0
CLASS
  1
OLE2FRAME
  2
AcDbOle2Frame
  3
""
 90
        0
280
               0
281
               1
  0
CLASS
  1
HATCH
  2
AcDbHatch
  3
"ACAD_SEDONA"
 90
        0
280
               0
281
               1
  0
CLASS
  1
DICTIONARYVAR
  2
AcDbDictionaryVar
  3
"AutoCAD"
 90
        0
280
               0
281
               0
  0
CLASS
  1
RASTERVARIABLES
  2
AcDbRasterVariables
  3
ISM
 90
        0
280
               0
281
               0
  0
CLASS
  1
IMAGEDEF
  2
AcDbRasterImageDef
  3
ISM
 90
        0
280
               0
281
               0
  0
CLASS
  1
IMAGEDEF_REACTOR
  2
AcDbRasterImageDefReactor
  3
ISM
 90
        1
280
               0
281
               0
  0
CLASS
  1
IDBUFFER
  2
AcDbIdBuffer
  3
"Acad"
 90
        0
280
               0
281
               0
  0
CLASS
  1
SPATIAL_FILTER
  2
AcDbSpatialFilter
  3
"Acad"
 90
        0
280
               0
281
               0
  0
CLASS
  1
XRECORD
  2
AcDbXrecord
  3
"<Built In>"
 90
        0
280
               0
281
               0
  0
CLASS
  1
SORTENTSTABLE
  2
AcDbSortentsTable
  3
"AutoCAD"
 90
        0
280
               0
281
               0
  0
CLASS
  1
LAYER_INDEX
  2
AcDbLayerIndex
  3
"Acad"
 90
        0
280
               0
281
               0
  0
CLASS
  1
SPATIAL_INDEX
  2
AcDbSpatialIndex
  3
"Acad"
 90
        0
280
               0
281
               0
  0
CLASS
  1
OBJECT_PTR
  2
CAseDLPNTableRecord
  3
"ASE-LPNTableRecord"
 90
        1
280
               0
281
               0
  0
CLASS
  1
LAYOUT
  2
AcDbLayout
  3
"AutoCAD 2000"
 90
        1
280
               0
281
               0
  0
CLASS
  1
PLOTSETTINGS
  2
AcDbPlotSettings
  3
"AutoCAD 2000"
 90
        1
280
               0
281
               0
  0
CLASS
  1
ACDBDICTIONARYWDFLT
  2
AcDbDictionaryWithDefault
  3
"AutoCAD 2000"
 90
        1
280
               0
281
               0
  0
CLASS
  1
ACDBPLACEHOLDER
  2
AcDbPlaceHolder
  3
"AutoCAD 2000"
 90
        1
280
               0
281
               0
  0
ENDSEC
  0
SECTION
  2
TABLES
  0
TABLE
  2
VPORT
  5
7
100
AcDbSymbolTable
 70
               1
  0
VPORT
  5
15
100
AcDbSymbolTableRecord
100
AcDbViewportTableRecord
  2
*ACTIVE
 70
               0
 10
0.0
 20
0.0
 11
1.0
 21
1.0
 12
1.0000021457672119
 22
-0.4499999999999886
 13
0.0
 23
0.0
 14
1.0
 24
1.0
 15
0.0
 25
0.0
 16
0.0
 26
0.0
 36
1.0
 17
0.0
 27
0.0
 37
0.0
 40
268.76100000000002
 41
1.7320508075688772
 42
50.0
 43
0.0
 44
0.0
 50
0.0
 51
0.0
 71
               0
 72
             100
 73
               1
 74
               1
 75
               0
 76
               0
 77
               0
 78
               0
  0
ENDTAB
  0
TABLE
  2
LTYPE
  5
4
100
AcDbSymbolTable
 70
               6
  0
LTYPE
  5
11
100
AcDbSymbolTableRecord
100
AcDbLinetypeTableRecord
  2
BYBLOCK
 70
              64
  3

 72
              65
 73
               0
 40
0.0
  0
LTYPE
  5
12
100
AcDbSymbolTableRecord
100
AcDbLinetypeTableRecord
  2
BYLAYER
 70
              64
  3

 72
              65
 73
               0
 40
0.0
  0
LTYPE
  5
13
100
AcDbSymbolTableRecord
100
AcDbLinetypeTableRecord
  2
CONTINUOUS
 70
              64
  3
Solid line
 72
              65
 73
               0
 40
0.0
  0
LTYPE
  5
1F
100
AcDbSymbolTableRecord
100
AcDbLinetypeTableRecord
  2
CENTER
 70
              64
  3
Center ____ _ ____ _ ____ _ ____ _ ____ _ ____
 72
              65
 73
               4
 40
26.0
 49
20.0
 74
               0
 49
-2.0
 74
               0
 49
2.0
 74
               0
 49
-2.0
 74
               0
  0
LTYPE
  5
29
100
AcDbSymbolTableRecord
100
AcDbLinetypeTableRecord
  2
PHANTOM
 70
              64
  3
Phantom ______  __  __  ______  __  __  ______
 72
              65
 73
               6
 40
30.0
 49
20.0
 74
               0
 49
-2.0
 74
               0
 49
2.0
 74
               0
 49
-2.0
 74
               0
 49
2.0
 74
               0
 49
-2.0
 74
               0
  0
LTYPE
  5
47
100
AcDbSymbolTableRecord
100
AcDbLinetypeTableRecord
  2
DASHED
 70
              64
  3
Dashed __ __ __ __ __ __ __ __ __ __ __ __ __ _
 72
              65
 73
               2
 40
4.0
 49
2.0
 74
               0
 49
-2.0
 74
               0
  0
ENDTAB
  0
TABLE
  2
LAYER
  5
2
100
AcDbSymbolTable
 70
               3
  0
LAYER
  5
14
100
AcDbSymbolTableRecord
100
AcDbLayerTableRecord
  2
0
 70
               0
 62
               7
  6
CONTINUOUS
  0
LAYER
  5
1D
100
AcDbSymbolTableRecord
100
AcDbLayerTableRecord
  2
LY_1
 70
               0
 62
               7
  6
CONTINUOUS
  0
LAYER
  5
1E
100
AcDbSymbolTableRecord
100
AcDbLayerTableRecord
  2
DEFPOINTS
 70
               0
 62
               7
  6
CONTINUOUS
  0
ENDTAB
  0
TABLE
  2
STYLE
  5
3
100
AcDbSymbolTable
 70
               1
  0
STYLE
  5
17
100
AcDbSymbolTableRecord
100
AcDbTextStyleTableRecord
  2
MX_NOTE_STANDARD
 70
               0
 40
0.0
 41
1.0
 50
0.0
 71
               0
 42
3.2000000476837158
  3
txt.shx
  4
extfont.shx
  0
ENDTAB
  0
TABLE
  2
VIEW
  5
5
100
AcDbSymbolTable
 70
               0
  0
ENDTAB
  0
TABLE
  2
UCS
  5
6
100
AcDbSymbolTable
 70
               0
  0
ENDTAB
  0
TABLE
  2
APPID
  5
8
100
AcDbSymbolTable
 70
               1
  0
APPID
  5
16
100
AcDbSymbolTableRecord
100
AcDbRegAppTableRecord
  2
ACAD
 70
               0
  0
ENDTAB
  0
TABLE
  2
DIMSTYLE
  5
9
100
AcDbSymbolTable
 70
               1
  0
DIMSTYLE
105
18
100
AcDbSymbolTableRecord
100
AcDbDimStyleTableRecord
  2
MXDIMSTYLE
 70
               0
  3

  4

  5

  6

  7

 40
1.0
 41
2.5
 42
1.5
 43
3.75
 44
1.5
 45
0.0
 46
0.0
 47
0.0
 48
0.0
 71
               0
 72
               0
 73
               0
 74
               0
 75
               0
 76
               0
 77
               1
 78
               8
140
3.2000000476837158
141
2.5
142
0.0
143
0.03937007874016
144
1.0
145
0.0
146
1.0
147
1.0
170
               0
171
               4
172
               1
173
               0
174
               0
175
               0
176
               0
177
               0
178
               0
270
               2
271
               4
272
               4
273
               2
274
               4
275
               0
280
               0
281
               0
282
               0
283
               1
284
               0
285
               0
286
               0
287
               3
288
               1
340
17
  0
ENDTAB
  0
TABLE
  2
BLOCK_RECORD
  5
1
100
AcDbSymbolTable
 70
               0
  0
BLOCK_RECORD
  5
A
100
AcDbSymbolTableRecord
100
AcDbBlockTableRecord
  2
*MODEL_SPACE
  0
BLOCK_RECORD
  5
B
100
AcDbSymbolTableRecord
100
AcDbBlockTableRecord
  2
*PAPER_SPACE
  0
ENDTAB
  0
ENDSEC
  0
SECTION
  2
BLOCKS
  0
BLOCK
  5
D
100
AcDbEntity
  8
0
100
AcDbBlockBegin
  2
*MODEL_SPACE
 70
               0
 10
0.0
 20
0.0
 30
0.0
  3
*MODEL_SPACE
  1

  0
ENDBLK
  5
E
100
AcDbEntity
  8
0
100
AcDbBlockEnd
  0
BLOCK
  5
F
100
AcDbEntity
 67
               1
  8
0
100
AcDbBlockBegin
  2
*PAPER_SPACE
 70
               0
 10
0.0
 20
0.0
 30
0.0
  3
*PAPER_SPACE
  1

  0
ENDBLK
  5
10
100
AcDbEntity
 67
               1
  8
0
100
AcDbBlockEnd
  0
ENDSEC
  0
SECTION
  2
ENTITIES
  0
LINE
  5
20
100
AcDbEntity
  8
LY_1
  6
CENTER
 62
               2
100
AcDbLine
 10
-83.217752075195307
 20
-19.299697875976563
 30
0.0
 11
-13.767752075195311
 21
-19.299697875976563
 31
0.0
  0
LINE
  5
21
100
AcDbEntity
  8
LY_1
  6
CONTINUOUS
 62
               7
100
AcDbLine
 10
-77.117752075195313
 20
6.7003021240234375
 30
0.0
 11
-19.117752075195313
 21
6.7003021240234375
 31
0.0
  0
LINE
  5
22
100
AcDbEntity
  8
LY_1
  6
CONTINUOUS
 62
               7
100
AcDbLine
 10
-77.117752075195313
 20
-45.299697875976563
 30
0.0
 11
-19.117752075195313
 21
-45.299697875976563
 31
0.0
  0
LINE
  5
23
100
AcDbEntity
  8
LY_1
  6
CONTINUOUS
 62
               7
100
AcDbLine
 10
-77.117752075195313
 20
6.7003021240234375
 30
0.0
 11
-77.117752075195313
 21
-45.299697875976563
 31
0.0
  0
LINE
  5
24
100
AcDbEntity
  8
LY_1
  6
CONTINUOUS
 62
               7
100
AcDbLine
 10
-19.117752075195313
 20
6.7003021240234375
 30
0.0
 11
-19.117752075195313
 21
-45.299697875976563
 31
0.0
  0
LINE
  5
25
100
AcDbEntity
  8
LY_1
  6
CENTER
 62
               2
100
AcDbLine
 10
-64.617752075195312
 20
3.2003021240234375
 30
0.0
 11
-64.617752075195312
 21
-5.7996978759765625
 31
0.0
  0
LINE
  5
26
100
AcDbEntity
  8
LY_1
  6
CENTER
 62
               2
100
AcDbLine
 10
-47.617752075195313
 20
3.6203021240234392
 30
0.0
 11
-47.617752075195313
 21
-5.989697875976562
 31
0.0
  0
LINE
  5
27
100
AcDbEntity
  8
LY_1
  6
CENTER
 62
               2
100
AcDbLine
 10
-103.92775207519531
 20
-47.829697875976564
 30
0.0
 11
-58.777752075195309
 21
-35.729697875976562
 31
0.0
  0
LINE
  5
28
100
AcDbEntity
  8
LY_1
  6
CENTER
 62
               2
100
AcDbLine
 10
-103.85775207519531
 20
9.2103021240234391
 30
0.0
 11
-57.16775207519531
 21
-3.2996978759765625
 31
0.0
  0
LINE
  5
2A
100
AcDbEntity
  8
LY_1
  6
PHANTOM
 62
               2
100
AcDbLine
 10
-103.39775207519531
 20
0.3203021240234385
 30
0.0
 11
-102.61775207519531
 21
-8.6396978759765624
 31
0.0
  0
LINE
  5
2B
100
AcDbEntity
  8
LY_1
  6
PHANTOM
 62
               2
100
AcDbLine
 10
-102.61775207519531
 20
-8.6396978759765624
 30
0.0
 11
-77.117752075195313
 21
-6.4096978759765619
 31
0.0
  0
LINE
  5
2C
100
AcDbEntity
  8
LY_1
  6
PHANTOM
 62
               2
100
AcDbLine
 10
-102.61775207519531
 20
-29.959697875976563
 30
0.0
 11
-77.117752075195313
 21
-32.189697875976563
 31
0.0
  0
LINE
  5
2D
100
AcDbEntity
  8
LY_1
  6
PHANTOM
 62
               2
100
AcDbLine
 10
-103.39775207519531
 20
-38.919697875976567
 30
0.0
 11
-77.117752075195313
 21
-41.219697875976564
 31
0.0
  0
LINE
  5
2E
100
AcDbEntity
  8
LY_1
  6
PHANTOM
 62
               2
100
AcDbLine
 10
-103.39775207519531
 20
0.3203021240234385
 30
0.0
 11
-77.117752075195313
 21
2.6203021240234392
 31
0.0
  0
LINE
  5
2F
100
AcDbEntity
  8
LY_1
  6
PHANTOM
 62
               2
100
AcDbLine
 10
-102.61775207519531
 20
-29.959697875976563
 30
0.0
 11
-103.39775207519531
 21
-38.919697875976567
 31
0.0
  0
LINE
  5
30
100
AcDbEntity
  8
LY_1
  6
CONTINUOUS
 62
               7
100
AcDbLine
 10
-100.50775207519531
 20
13.490302124023437
 30
0.0
 11
-102.83775207519531
 21
4.8003021240234389
 31
0.0
  0
LINE
  5
31
100
AcDbEntity
  8
LY_1
  6
CONTINUOUS
 62
               7
100
AcDbLine
 10
-100.50775207519531
 20
13.490302124023437
 30
0.0
 11
-75.157752075195319
 21
6.7003021240234375
 31
0.0
  0
LINE
  5
32
100
AcDbEntity
  8
LY_1
  6
CONTINUOUS
 62
               7
100
AcDbLine
 10
-100.50775207519531
 20
-52.089697875976562
 30
0.0
 11
-75.157752075195319
 21
-45.299697875976563
 31
0.0
  0
LINE
  5
33
100
AcDbEntity
  8
LY_1
  6
CONTINUOUS
 62
               7
100
AcDbLine
 10
-102.83775207519531
 20
-43.399697875976564
 30
0.0
 11
-77.117752075195313
 21
-36.499697875976565
 31
0.0
  0
LINE
  5
34
100
AcDbEntity
  8
LY_1
  6
CONTINUOUS
 62
               7
100
AcDbLine
 10
-102.83775207519531
 20
4.8003021240234389
 30
0.0
 11
-77.117752075195313
 21
-2.0996978759765632
 31
0.0
  0
LINE
  5
35
100
AcDbEntity
  8
LY_1
  6
CONTINUOUS
 62
               7
100
AcDbLine
 10
-102.83775207519531
 20
-43.399697875976564
 30
0.0
 11
-100.50775207519531
 21
-52.089697875976562
 31
0.0
  0
LINE
  5
36
100
AcDbEntity
  8
LY_1
  6
CENTER
 62
               2
100
AcDbLine
 10
-53.117752075195313
 20
-1.2996978759765625
 30
0.0
 11
-42.647752075195314
 21
-1.2996978759765625
 31
0.0
  0
LINE
  5
37
100
AcDbEntity
  8
LY_1
  6
CENTER
 62
               2
100
AcDbLine
 10
-69.117752075195312
 20
-1.2996978759765625
 30
0.0
 11
-60.117752075195313
 21
-1.2996978759765625
 31
0.0
  0
LINE
  5
38
100
AcDbEntity
  8
LY_1
  6
CONTINUOUS
 62
               4
100
AcDbLine
 10
-19.117752075195313
 20
-34.429697875976565
 30
0.0
 11
-18.617752075195312
 21
-34.429697875976565
 31
0.0
  0
LINE
  5
39
100
AcDbEntity
  8
LY_1
  6
CONTINUOUS
 62
               4
100
AcDbLine
 10
-19.117752075195313
 20
-39.029697875976566
 30
0.0
 11
-18.617752075195312
 21
-39.029697875976566
 31
0.0
  0
LINE
  5
3A
100
AcDbEntity
  8
LY_1
  6
CONTINUOUS
 62
               4
100
AcDbLine
 10
-18.617752075195312
 20
-34.429697875976565
 30
0.0
 11
-18.617752075195312
 21
-39.029697875976566
 31
0.0
  0
LINE
  5
3B
100
AcDbEntity
  8
LY_1
  6
CONTINUOUS
 62
               4
100
AcDbLine
 10
-19.117752075195313
 20
-38.029697875976566
 30
0.0
 11
-18.617752075195312
 21
-38.029697875976566
 31
0.0
  0
LINE
  5
3C
100
AcDbEntity
  8
LY_1
  6
CONTINUOUS
 62
               4
100
AcDbLine
 10
-19.117752075195313
 20
-38.579697875976564
 30
0.0
 11
-18.617752075195312
 21
-38.579697875976564
 31
0.0
  0
LINE
  5
3D
100
AcDbEntity
  8
LY_1
  6
CONTINUOUS
 62
               4
100
AcDbLine
 10
-18.617752075195312
 20
-35.429697875976558
 30
0.0
 11
-12.877752075195318
 21
-35.429697875976558
 31
0.0
  0
LINE
  5
3E
100
AcDbEntity
  8
LY_1
  6
CONTINUOUS
 62
               4
100
AcDbLine
 10
-18.617752075195312
 20
-38.029697875976566
 30
0.0
 11
-11.367752075195313
 21
-38.029697875976566
 31
0.0
  0
LINE
  5
3F
100
AcDbEntity
  8
LY_1
  6
CONTINUOUS
 62
             200
100
AcDbLine
 10
-13.367752075195312
 20
-34.559697875976561
 30
0.0
 11
-10.867752075195312
 21
-38.889697875976566
 31
0.0
  0
LINE
  5
40
100
AcDbEntity
  8
LY_1
  6
CONTINUOUS
 62
               4
100
AcDbLine
 10
-19.117752075195313
 20
-0.5696978759765621
 30
0.0
 11
-12.877752075195318
 21
-0.5696978759765621
 31
0.0
  0
LINE
  5
41
100
AcDbEntity
  8
LY_1
  6
CONTINUOUS
 62
             200
100
AcDbLine
 10
-13.367752075195312
 20
0.2903021240234374
 30
0.0
 11
-10.867752075195312
 21
-4.0396978759765627
 31
0.0
  0
LINE
  5
42
100
AcDbEntity
  8
LY_1
  6
CONTINUOUS
 62
               4
100
AcDbLine
 10
-19.117752075195313
 20
-3.1696978759765635
 30
0.0
 11
-11.367752075195313
 21
-3.1696978759765635
 31
0.0
  0
LINE
  5
43
100
AcDbEntity
  8
LY_1
  6
CENTER
 62
               2
100
AcDbLine
 10
-47.617752075195313
 20
-32.159697875976562
 30
0.0
 11
-47.617752075195313
 21
-42.639697875976566
 31
0.0
  0
LINE
  5
44
100
AcDbEntity
  8
LY_1
  6
CENTER
 62
               2
100
AcDbLine
 10
-53.777752075195309
 20
-37.299697875976562
 30
0.0
 11
-42.427752075195315
 21
-37.299697875976562
 31
0.0
  0
LINE
  5
45
100
AcDbEntity
  8
LY_1
  6
CENTER
 62
               2
100
AcDbLine
 10
-64.617752075195312
 20
-32.799697875976562
 30
0.0
 11
-64.617752075195312
 21
-41.799697875976562
 31
0.0
  0
LINE
  5
46
100
AcDbEntity
  8
LY_1
  6
CENTER
 62
               2
100
AcDbLine
 10
-69.117752075195312
 20
-37.299697875976562
 30
0.0
 11
-60.117752075195313
 21
-37.299697875976562
 31
0.0
  0
CIRCLE
  5
48
100
AcDbEntity
  8
LY_1
  6
DASHED
 62
               2
100
AcDbCircle
 10
-47.617767333984375
 20
-37.2996826171875
 30
0.0
 40
2.5
  0
CIRCLE
  5
49
100
AcDbEntity
  8
LY_1
  6
DASHED
 62
               2
100
AcDbCircle
 10
-47.617767333984375
 20
-1.299713134765625
 30
0.0
 40
3.0
  0
CIRCLE
  5
4A
100
AcDbEntity
  8
LY_1
  6
DASHED
 62
               2
100
AcDbCircle
 10
-47.617767333984375
 20
-1.299713134765625
 30
0.0
 40
2.5
  0
CIRCLE
  5
4B
100
AcDbEntity
  8
LY_1
  6
CONTINUOUS
 62
               7
100
AcDbCircle
 10
-64.617752075195312
 20
-1.299713134765625
 30
0.0
 40
2.5
  0
CIRCLE
  5
4C
100
AcDbEntity
  8
LY_1
  6
CONTINUOUS
 62
               7
100
AcDbCircle
 10
-64.617752075195312
 20
-37.2996826171875
 30
0.0
 40
2.5
  0
CIRCLE
  5
4D
100
AcDbEntity
  8
LY_1
  6
DASHED
 62
               2
100
AcDbCircle
 10
-47.617767333984375
 20
-37.2996826171875
 30
0.0
 40
3.0
  0
LINE
  5
4E
100
AcDbEntity
  8
LY_1
  6
CONTINUOUS
 62
               7
100
AcDbLine
 10
76.979873657226563
 20
6.7003021240234375
 30
0.0
 11
76.979873657226563
 21
-45.299697875976563
 31
0.0
  0
LINE
  5
4F
100
AcDbEntity
  8
LY_1
  6
CONTINUOUS
 62
               7
100
AcDbLine
 10
108.97987365722656
 20
6.7003021240234375
 30
0.0
 11
108.97987365722656
 21
-45.299697875976563
 31
0.0
  0
LINE
  5
50
100
AcDbEntity
  8
LY_1
  6
CENTER
 62
               2
100
AcDbLine
 10
82.979873657226562
 20
5.2003021240234375
 30
0.0
 11
82.979873657226562
 21
-3.7996978759765625
 31
0.0
  0
LINE
  5
51
100
AcDbEntity
  8
LY_1
  6
CONTINUOUS
 62
               7
100
AcDbLine
 10
76.979873657226563
 20
6.7003021240234375
 30
0.0
 11
90.179873657226565
 21
6.7003021240234375
 31
0.0
  0
LINE
  5
52
100
AcDbEntity
  8
LY_1
  6
CONTINUOUS
 62
               7
100
AcDbLine
 10
76.979873657226563
 20
-45.299697875976563
 30
0.0
 11
90.179873657226565
 21
-45.299697875976563
 31
0.0
  0
LINE
  5
53
100
AcDbEntity
  8
LY_1
  6
CONTINUOUS
 62
               7
100
AcDbLine
 10
90.479873657226562
 20
-44.999697875976565
 30
0.0
 11
90.479873657226562
 21
-40.399697875976564
 31
0.0
  0
LINE
  5
54
100
AcDbEntity
  8
LY_1
  6
CONTINUOUS
 62
               7
100
AcDbLine
 10
90.479873657226562
 20
-40.399697875976564
 30
0.0
 11
91.379873657226568
 21
-39.499697875976565
 31
0.0
  0
LINE
  5
55
100
AcDbEntity
  8
LY_1
  6
CONTINUOUS
 62
               7
100
AcDbLine
 10
91.379873657226568
 20
-39.499697875976565
 30
0.0
 11
91.379873657226568
 21
-38.499697875976565
 31
0.0
  0
LINE
  5
56
100
AcDbEntity
  8
LY_1
  6
CONTINUOUS
 62
               7
100
AcDbLine
 10
91.379873657226568
 20
-38.499697875976565
 30
0.0
 11
90.879873657226568
 21
-37.999697875976565
 31
0.0
  0
LINE
  5
57
100
AcDbEntity
  8
LY_1
  6
CONTINUOUS
 62
               7
100
AcDbLine
 10
90.879873657226568
 20
-37.999697875976565
 30
0.0
 11
90.879873657226568
 21
-36.399697875976564
 31
0.0
  0
LINE
  5
58
100
AcDbEntity
  8
LY_1
  6
CONTINUOUS
 62
               7
100
AcDbLine
 10
95.079873657226557
 20
-37.999697875976565
 30
0.0
 11
95.079873657226557
 21
-36.399697875976564
 31
0.0
  0
LINE
  5
59
100
AcDbEntity
  8
LY_1
  6
CONTINUOUS
 62
               7
100
AcDbLine
 10
94.579873657226557
 20
-39.499697875976565
 30
0.0
 11
94.579873657226557
 21
-38.499697875976565
 31
0.0
  0
LINE
  5
5A
100
AcDbEntity
  8
LY_1
  6
CONTINUOUS
 62
               7
100
AcDbLine
 10
94.579873657226557
 20
-38.499697875976565
 30
0.0
 11
95.079873657226557
 21
-37.999697875976565
 31
0.0
  0
LINE
  5
5B
100
AcDbEntity
  8
LY_1
  6
CONTINUOUS
 62
               7
100
AcDbLine
 10
95.479873657226562
 20
-40.399697875976564
 30
0.0
 11
94.579873657226557
 21
-39.499697875976565
 31
0.0
  0
LINE
  5
5C
100
AcDbEntity
  8
LY_1
  6
CONTINUOUS
 62
               7
100
AcDbLine
 10
95.479873657226562
 20
-44.999697875976565
 30
0.0
 11
95.479873657226562
 21
-40.399697875976564
 31
0.0
  0
LINE
  5
5D
100
AcDbEntity
  8
LY_1
  6
CONTINUOUS
 62
               7
100
AcDbLine
 10
94.579873657226557
 20
-0.0996978759765632
 30
0.0
 11
95.079873657226557
 21
-0.5996978759765632
 31
0.0
  0
LINE
  5
5E
100
AcDbEntity
  8
LY_1
  6
CONTINUOUS
 62
               7
100
AcDbLine
 10
95.479873657226562
 20
1.8003021240234389
 30
0.0
 11
94.579873657226557
 21
0.9003021240234368
 31
0.0
  0
LINE
  5
5F
100
AcDbEntity
  8
LY_1
  6
CONTINUOUS
 62
               7
100
AcDbLine
 10
95.479873657226562
 20
6.4003021240234368
 30
0.0
 11
95.479873657226562
 21
1.8003021240234389
 31
0.0
  0
LINE
  5
60
100
AcDbEntity
  8
LY_1
  6
CONTINUOUS
 62
               7
100
AcDbLine
 10
94.579873657226557
 20
0.9003021240234368
 30
0.0
 11
94.579873657226557
 21
-0.0996978759765632
 31
0.0
  0
LINE
  5
61
100
AcDbEntity
  8
LY_1
  6
CONTINUOUS
 62
               7
100
AcDbLine
 10
95.079873657226557
 20
-0.5996978759765632
 30
0.0
 11
95.079873657226557
 21
-2.1996978759765611
 31
0.0
  0
LINE
  5
62
100
AcDbEntity
  8
LY_1
  6
CONTINUOUS
 62
               7
100
AcDbLine
 10
90.879873657226568
 20
-0.5996978759765632
 30
0.0
 11
90.879873657226568
 21
-2.1996978759765611
 31
0.0
  0
LINE
  5
63
100
AcDbEntity
  8
LY_1
  6
CONTINUOUS
 62
               7
100
AcDbLine
 10
91.379873657226568
 20
-0.0996978759765632
 30
0.0
 11
90.879873657226568
 21
-0.5996978759765632
 31
0.0
  0
LINE
  5
64
100
AcDbEntity
  8
LY_1
  6
CONTINUOUS
 62
               7
100
AcDbLine
 10
91.379873657226568
 20
0.9003021240234368
 30
0.0
 11
91.379873657226568
 21
-0.0996978759765632
 31
0.0
  0
LINE
  5
65
100
AcDbEntity
  8
LY_1
  6
CONTINUOUS
 62
               7
100
AcDbLine
 10
90.479873657226562
 20
1.8003021240234389
 30
0.0
 11
91.379873657226568
 21
0.9003021240234368
 31
0.0
  0
LINE
  5
66
100
AcDbEntity
  8
LY_1
  6
CONTINUOUS
 62
               7
100
AcDbLine
 10
90.479873657226562
 20
6.4003021240234368
 30
0.0
 11
90.479873657226562
 21
1.8003021240234389
 31
0.0
  0
LINE
  5
67
100
AcDbEntity
  8
LY_1
  6
CENTER
 62
               2
100
AcDbLine
 10
78.479873657226562
 20
0.7003021240234375
 30
0.0
 11
87.479873657226563
 21
0.7003021240234375
 31
0.0
  0
LINE
  5
68
100
AcDbEntity
  8
LY_1
  6
CONTINUOUS
 62
               7
100
AcDbLine
 10
95.77987365722656
 20
6.7003021240234375
 30
0.0
 11
108.97987365722656
 21
6.7003021240234375
 31
0.0
  0
LINE
  5
69
100
AcDbEntity
  8
LY_1
  6
CONTINUOUS
 62
               7
100
AcDbLine
 10
95.77987365722656
 20
-45.299697875976563
 30
0.0
 11
108.97987365722656
 21
-45.299697875976563
 31
0.0
  0
LINE
  5
6A
100
AcDbEntity
  8
LY_1
  6
CONTINUOUS
 62
               4
100
AcDbLine
 10
94.579873657226557
 20
-0.1196978759765628
 30
0.0
 11
94.479873657226562
 21
-0.0196978759765614
 31
0.0
  0
LINE
  5
6B
100
AcDbEntity
  8
LY_1
  6
CONTINUOUS
 62
               4
100
AcDbLine
 10
94.479873657226562
 20
0.4303021240234379
 30
0.0
 11
94.479873657226562
 21
-0.0196978759765614
 31
0.0
  0
LINE
  5
6C
100
AcDbEntity
  8
LY_1
  6
CONTINUOUS
 62
               4
100
AcDbLine
 10
94.479873657226562
 20
0.4303021240234379
 30
0.0
 11
91.479873657226563
 21
0.4303021240234379
 31
0.0
  0
LINE
  5
6D
100
AcDbEntity
  8
LY_1
  6
CONTINUOUS
 62
               4
100
AcDbLine
 10
91.479873657226563
 20
0.4303021240234379
 30
0.0
 11
91.479873657226563
 21
-0.0196978759765614
 31
0.0
  0
LINE
  5
6E
100
AcDbEntity
  8
LY_1
  6
CONTINUOUS
 62
               4
100
AcDbLine
 10
91.379873657226568
 20
-0.1196978759765628
 30
0.0
 11
91.479873657226563
 21
-0.0196978759765614
 31
0.0
  0
LINE
  5
6F
100
AcDbEntity
  8
LY_1
  6
CONTINUOUS
 62
               4
100
AcDbLine
 10
94.229873657226563
 20
0.9303021240234379
 30
0.0
 11
94.229873657226563
 21
0.4303021240234379
 31
0.0
  0
LINE
  5
70
100
AcDbEntity
  8
LY_1
  6
CONTINUOUS
 62
               4
100
AcDbLine
 10
91.729873657226563
 20
0.9303021240234379
 30
0.0
 11
91.729873657226563
 21
0.4303021240234379
 31
0.0
  0
LINE
  5
71
100
AcDbEntity
  8
LY_1
  6
CONTINUOUS
 62
               4
100
AcDbLine
 10
94.229873657226563
 20
0.9303021240234379
 30
0.0
 11
91.729873657226563
 21
0.9303021240234379
 31
0.0
  0
LINE
  5
72
100
AcDbEntity
  8
LY_1
  6
CONTINUOUS
 62
               4
100
AcDbLine
 10
94.579873657226557
 20
-38.479697875976562
 30
0.0
 11
94.479873657226562
 21
-38.579697875976564
 31
0.0
  0
LINE
  5
73
100
AcDbEntity
  8
LY_1
  6
CONTINUOUS
 62
               4
100
AcDbLine
 10
94.479873657226562
 20
-39.029697875976566
 30
0.0
 11
94.479873657226562
 21
-38.579697875976564
 31
0.0
  0
LINE
  5
74
100
AcDbEntity
  8
LY_1
  6
CONTINUOUS
 62
               4
100
AcDbLine
 10
94.479873657226562
 20
-39.029697875976566
 30
0.0
 11
91.479873657226563
 21
-39.029697875976566
 31
0.0
  0
LINE
  5
75
100
AcDbEntity
  8
LY_1
  6
CONTINUOUS
 62
               4
100
AcDbLine
 10
91.479873657226563
 20
-39.029697875976566
 30
0.0
 11
91.479873657226563
 21
-38.579697875976564
 31
0.0
  0
LINE
  5
76
100
AcDbEntity
  8
LY_1
  6
CONTINUOUS
 62
               4
100
AcDbLine
 10
91.379873657226568
 20
-38.479697875976562
 30
0.0
 11
91.479873657226563
 21
-38.579697875976564
 31
0.0
  0
LINE
  5
77
100
AcDbEntity
  8
LY_1
  6
CONTINUOUS
 62
               4
100
AcDbLine
 10
94.229873657226563
 20
-39.529697875976566
 30
0.0
 11
94.229873657226563
 21
-39.029697875976566
 31
0.0
  0
LINE
  5
78
100
AcDbEntity
  8
LY_1
  6
CONTINUOUS
 62
               4
100
AcDbLine
 10
91.729873657226563
 20
-39.529697875976566
 30
0.0
 11
91.729873657226563
 21
-39.029697875976566
 31
0.0
  0
LINE
  5
79
100
AcDbEntity
  8
LY_1
  6
CONTINUOUS
 62
               4
100
AcDbLine
 10
94.229873657226563
 20
-39.529697875976566
 30
0.0
 11
91.729873657226563
 21
-39.529697875976566
 31
0.0
  0
LINE
  5
7A
100
AcDbEntity
  8
LY_1
  6
CENTER
 62
               2
100
AcDbLine
 10
92.979873657226563
 20
10.820302124023438
 30
0.0
 11
92.979873657226563
 21
-49.179697875976558
 31
0.0
  0
LINE
  5
7B
100
AcDbEntity
  8
LY_1
  6
CENTER
 62
               2
100
AcDbLine
 10
72.359873657226558
 20
-19.299697875976563
 30
0.0
 11
113.15987365722657
 21
-19.299697875976563
 31
0.0
  0
LINE
  5
7C
100
AcDbEntity
  8
LY_1
  6
CENTER
 62
               2
100
AcDbLine
 10
102.97987365722656
 20
-34.799697875976563
 30
0.0
 11
102.97987365722656
 21
-43.799697875976562
 31
0.0
  0
LINE
  5
7D
100
AcDbEntity
  8
LY_1
  6
CENTER
 62
               2
100
AcDbLine
 10
98.479873657226563
 20
-39.299697875976562
 30
0.0
 11
107.47987365722656
 21
-39.299697875976562
 31
0.0
  0
CIRCLE
  5
7E
100
AcDbEntity
  8
LY_1
  6
CONTINUOUS
 62
               4
100
AcDbCircle
 10
92.979873657226563
 20
-1.8697052001953125
 30
0.0
 40
1.2999992370605469
  0
CIRCLE
  5
7F
100
AcDbEntity
  8
LY_1
  6
CONTINUOUS
 62
               4
100
AcDbCircle
 10
92.979873657226563
 20
-36.72967529296875
 30
0.0
 40
1.2999992370605469
  0
CIRCLE
  5
80
100
AcDbEntity
  8
LY_1
  6
CONTINUOUS
 62
               7
100
AcDbCircle
 10
102.97986602783203
 20
-39.2996826171875
 30
0.0
 40
2.5
  0
CIRCLE
  5
81
100
AcDbEntity
  8
LY_1
  6
CONTINUOUS
 62
               7
100
AcDbCircle
 10
92.979873657226563
 20
-19.299688339233398
 30
0.0
 40
13.0
  0
ARC
  5
82
100
AcDbEntity
  8
LY_1
  6
CONTINUOUS
 62
               7
100
AcDbCircle
 10
92.979873657226563
 20
-36.399697875976564
 30
0.0
 40
2.1000000001419159
100
AcDbArc
 50
0.0
 51
180.0
  0
ARC
  5
83
100
AcDbEntity
  8
LY_1
  6
CONTINUOUS
 62
               7
100
AcDbCircle
 10
92.979873657226563
 20
-2.1996978759765611
 30
0.0
 40
2.1000000000088699
100
AcDbArc
 50
180.0
 51
0.0
  0
ARC
  5
84
100
AcDbEntity
  8
LY_1
  6
CONTINUOUS
 62
               7
100
AcDbCircle
 10
95.77988815310043
 20
-44.999683380102702
 30
0.0
 40
0.3000144962240629
100
AcDbArc
 50
180.00276837420617
 51
269.99723162579323
  0
CIRCLE
  5
85
100
AcDbEntity
  8
LY_1
  6
CONTINUOUS
 62
               2
100
AcDbCircle
 10
82.979873657226562
 20
0.7003021240234375
 30
0.0
 40
3.0
  0
CIRCLE
  5
86
100
AcDbEntity
  8
LY_1
  6
CONTINUOUS
 62
               2
100
AcDbCircle
 10
102.97986602783203
 20
-39.2996826171875
 30
0.0
 40
3.0
  0
ARC
  5
87
100
AcDbEntity
  8
LY_1
  6
CONTINUOUS
 62
               7
100
AcDbCircle
 10
90.179862975977201
 20
-44.999687194727208
 30
0.0
 40
0.3000106814394982
100
AcDbArc
 50
270.00203989573055
 51
359.99796010427008
  0
ARC
  5
88
100
AcDbEntity
  8
LY_1
  6
CONTINUOUS
 62
               7
100
AcDbCircle
 10
90.17987060546875
 20
6.400299072265625
 30
0.0
 40
0.3000030517733344
100
AcDbArc
 50
0.0005828368800953
 51
89.999417163119745
  0
ARC
  5
89
100
AcDbEntity
  8
LY_1
  6
CONTINUOUS
 62
               7
100
AcDbCircle
 10
95.779880523705899
 20
6.4002952575441086
 30
0.0
 40
0.3000068665579104
100
AcDbArc
 50
90.001311370937444
 51
179.99868862906317
  0
CIRCLE
  5
8A
100
AcDbEntity
  8
LY_1
  6
CONTINUOUS
 62
               7
100
AcDbCircle
 10
82.979873657226562
 20
0.7003021240234375
 30
0.0
 40
2.5
  0
LINE
  5
8B
100
AcDbEntity
  8
LY_1
  6
CONTINUOUS
 62
               7
100
AcDbLine
 10
-19.11773681640625
 20
73.86016845703125
 30
0.0
 11
-19.11773681640625
 21
59.160168457031247
 31
0.0
  0
LINE
  5
8C
100
AcDbEntity
  8
LY_1
  6
CONTINUOUS
 62
               7
100
AcDbLine
 10
-77.11773681640625
 20
41.86016845703125
 30
0.0
 11
-19.11773681640625
 21
41.86016845703125
 31
0.0
  0
LINE
  5
8D
100
AcDbEntity
  8
LY_1
  6
CONTINUOUS
 62
               7
100
AcDbLine
 10
-77.11773681640625
 20
73.86016845703125
 30
0.0
 11
-19.11773681640625
 21
73.86016845703125
 31
0.0
  0
LINE
  5
8E
100
AcDbEntity
  8
LY_1
  6
CENTER
 62
               2
100
AcDbLine
 10
-107.44773681640625
 20
57.86016845703125
 30
0.0
 11
-6.11773681640625
 21
57.86016845703125
 31
0.0
  0
LINE
  5
8F
100
AcDbEntity
  8
LY_1
  6
CONTINUOUS
 62
               7
100
AcDbLine
 10
-77.11773681640625
 20
73.86016845703125
 30
0.0
 11
-77.11773681640625
 21
65.060168457031253
 31
0.0
  0
LINE
  5
90
100
AcDbEntity
  8
LY_1
  6
CONTINUOUS
 62
               7
100
AcDbLine
 10
-55.11773681640625
 20
55.460168457031251
 30
0.0
 11
-19.11773681640625
 21
55.460168457031251
 31
0.0
  0
LINE
  5
91
100
AcDbEntity
  8
LY_1
  6
CONTINUOUS
 62
               7
100
AcDbLine
 10
-55.11773681640625
 20
60.260168457031249
 30
0.0
 11
-19.11773681640625
 21
60.260168457031249
 31
0.0
  0
LINE
  5
92
100
AcDbEntity
  8
LY_1
  6
CENTER
 62
               2
100
AcDbLine
 10
-28.11773681640625
 20
72.920168457031252
 30
0.0
 11
-28.11773681640625
 21
60.670168457031252
 31
0.0
  0
LINE
  5
93
100
AcDbEntity
  8
LY_1
  6
CENTER
 62
               2
100
AcDbLine
 10
-35.007736816406251
 20
66.86016845703125
 30
0.0
 11
-21.697736816406248
 21
66.86016845703125
 31
0.0
  0
LINE
  5
94
100
AcDbEntity
  8
LY_1
  6
CENTER
 62
               2
100
AcDbLine
 10
-53.777736816406247
 20
48.86016845703125
 30
0.0
 11
-40.697736816406248
 21
48.86016845703125
 31
0.0
  0
LINE
  5
95
100
AcDbEntity
  8
LY_1
  6
CENTER
 62
               2
100
AcDbLine
 10
-47.11773681640625
 20
54.700168457031253
 30
0.0
 11
-47.11773681640625
 21
42.810168457031253
 31
0.0
  0
LINE
  5
96
100
AcDbEntity
  8
LY_1
  6
CONTINUOUS
 62
               7
100
AcDbLine
 10
-55.11773681640625
 20
50.660168457031247
 30
0.0
 11
-55.11773681640625
 21
65.060168457031253
 31
0.0
  0
LINE
  5
97
100
AcDbEntity
  8
LY_1
  6
CONTINUOUS
 62
               7
100
AcDbLine
 10
-77.11773681640625
 20
65.060168457031253
 30
0.0
 11
-55.11773681640625
 21
65.060168457031253
 31
0.0
  0
LINE
  5
98
100
AcDbEntity
  8
LY_1
  6
CONTINUOUS
 62
               7
100
AcDbLine
 10
-77.11773681640625
 20
50.660168457031247
 30
0.0
 11
-55.11773681640625
 21
50.660168457031247
 31
0.0
  0
LINE
  5
99
100
AcDbEntity
  8
LY_1
  6
CENTER
 62
               2
100
AcDbLine
 10
-47.61773681640625
 20
77.280168457031252
 30
0.0
 11
-47.61773681640625
 21
60.090168457031247
 31
0.0
  0
LINE
  5
9A
100
AcDbEntity
  8
LY_1
  6
CONTINUOUS
 62
               7
100
AcDbLine
 10
-103.11773681640625
 20
64.86016845703125
 30
0.0
 11
-103.11773681640625
 21
50.86016845703125
 31
0.0
  0
LINE
  5
9B
100
AcDbEntity
  8
LY_1
  6
CONTINUOUS
 62
               7
100
AcDbLine
 10
-103.11773681640625
 20
64.86016845703125
 30
0.0
 11
-58.11773681640625
 21
64.86016845703125
 31
0.0
  0
LINE
  5
9C
100
AcDbEntity
  8
LY_1
  6
CONTINUOUS
 62
               7
100
AcDbLine
 10
-103.11773681640625
 20
50.86016845703125
 30
0.0
 11
-58.11773681640625
 21
50.86016845703125
 31
0.0
  0
LINE
  5
9D
100
AcDbEntity
  8
LY_1
  6
CONTINUOUS
 62
               7
100
AcDbLine
 10
-58.11773681640625
 20
64.86016845703125
 30
0.0
 11
-58.11773681640625
 21
50.86016845703125
 31
0.0
  0
LINE
  5
9E
100
AcDbEntity
  8
LY_1
  6
CONTINUOUS
 62
               7
100
AcDbLine
 10
-59.61773681640625
 20
64.86016845703125
 30
0.0
 11
-59.61773681640625
 21
50.86016845703125
 31
0.0
  0
LINE
  5
9F
100
AcDbEntity
  8
LY_1
  6
CENTER
 62
               2
100
AcDbLine
 10
-98.11773681640625
 20
62.810168457031253
 30
0.0
 11
-98.11773681640625
 21
52.79016845703125
 31
0.0
  0
LINE
  5
A0
100
AcDbEntity
  8
LY_1
  6
CENTER
 62
               2
100
AcDbLine
 10
-86.11773681640625
 20
62.810168457031253
 30
0.0
 11
-86.11773681640625
 21
52.630168457031246
 31
0.0
  0
LINE
  5
A1
100
AcDbEntity
  8
LY_1
  6
CONTINUOUS
 62
               7
100
AcDbLine
 10
-58.11773681640625
 20
63.86016845703125
 30
0.0
 11
-55.11773681640625
 21
63.86016845703125
 31
0.0
  0
LINE
  5
A2
100
AcDbEntity
  8
LY_1
  6
CONTINUOUS
 62
               7
100
AcDbLine
 10
-58.11773681640625
 20
51.86016845703125
 30
0.0
 11
-55.11773681640625
 21
51.86016845703125
 31
0.0
  0
LINE
  5
A3
100
AcDbEntity
  8
LY_1
  6
CONTINUOUS
 62
               7
100
AcDbLine
 10
-77.11773681640625
 20
50.660168457031247
 30
0.0
 11
-77.11773681640625
 21
41.86016845703125
 31
0.0
  0
LINE
  5
A4
100
AcDbEntity
  8
LY_1
  6
CONTINUOUS
 62
               4
100
AcDbLine
 10
-54.11773681640625
 20
59.460168457031251
 30
0.0
 11
-54.11773681640625
 21
56.260168457031249
 31
0.0
  0
LINE
  5
A5
100
AcDbEntity
  8
LY_1
  6
CONTINUOUS
 62
               4
100
AcDbLine
 10
-32.11773681640625
 20
59.460168457031251
 30
0.0
 11
-32.11773681640625
 21
56.260168457031249
 31
0.0
  0
LINE
  5
A6
100
AcDbEntity
  8
LY_1
  6
CONTINUOUS
 62
               4
100
AcDbLine
 10
-53.157736816406249
 20
57.160168457031247
 30
0.0
 11
-51.417736816406247
 21
58.890168457031251
 31
0.0
  0
LINE
  5
A7
100
AcDbEntity
  8
LY_1
  6
CONTINUOUS
 62
               4
100
AcDbLine
 10
-52.79773681640625
 20
56.810168457031253
 30
0.0
 11
-51.067736816406253
 21
58.530168457031252
 31
0.0
  0
LINE
  5
A8
100
AcDbEntity
  8
LY_1
  6
CONTINUOUS
 62
               4
100
AcDbLine
 10
-32.11773681640625
 20
59.160168457031247
 30
0.0
 11
-9.8777368164062551
 21
59.160168457031247
 31
0.0
  0
LINE
  5
A9
100
AcDbEntity
  8
LY_1
  6
CONTINUOUS
 62
               4
100
AcDbLine
 10
-32.11773681640625
 20
56.560168457031253
 30
0.0
 11
-8.36773681640625
 21
56.560168457031253
 31
0.0
  0
LINE
  5
AA
100
AcDbEntity
  8
LY_1
  6
CONTINUOUS
 62
             200
100
AcDbLine
 10
-10.36773681640625
 20
60.020168457031247
 30
0.0
 11
-7.86773681640625
 21
55.700168457031253
 31
0.0
  0
LINE
  5
AB
100
AcDbEntity
  8
LY_1
  6
CONTINUOUS
 62
               7
100
AcDbLine
 10
-55.11773681640625
 20
59.460168457031251
 30
0.0
 11
-19.11773681640625
 21
59.460168457031251
 31
0.0
  0
LINE
  5
AC
100
AcDbEntity
  8
LY_1
  6
CONTINUOUS
 62
               7
100
AcDbLine
 10
-55.11773681640625
 20
56.260168457031249
 30
0.0
 11
-19.11773681640625
 21
56.260168457031249
 31
0.0
  0
LINE
  5
AD
100
AcDbEntity
  8
LY_1
  6
CONTINUOUS
 62
               7
100
AcDbLine
 10
-19.11773681640625
 20
56.560168457031253
 30
0.0
 11
-19.11773681640625
 21
41.86016845703125
 31
0.0
  0
CIRCLE
  5
AE
100
AcDbEntity
  8
LY_1
  6
CONTINUOUS
 62
               4
100
AcDbCircle
 10
-52.11773681640625
 20
57.86016845703125
 30
0.0
 40
1.25
  0
CIRCLE
  5
AF
100
AcDbEntity
  8
LY_1
  6
CONTINUOUS
 62
               4
100
AcDbCircle
 10
-52.11773681640625
 20
57.86016845703125
 30
0.0
 40
1.3999996185302734
  0
CIRCLE
  5
B0
100
AcDbEntity
  8
LY_1
  6
CONTINUOUS
 62
               7
100
AcDbCircle
 10
-28.117752075195313
 20
66.86016845703125
 30
0.0
 40
2.0999994277954102
  0
CIRCLE
  5
B1
100
AcDbEntity
  8
LY_1
  6
CONTINUOUS
 62
               7
100
AcDbCircle
 10
-28.117752075195313
 20
66.86016845703125
 30
0.0
 40
4.25
  0
CIRCLE
  5
B2
100
AcDbEntity
  8
LY_1
  6
CONTINUOUS
 62
               2
100
AcDbCircle
 10
-28.117752075195313
 20
66.86016845703125
 30
0.0
 40
2.5
  0
CIRCLE
  5
B3
100
AcDbEntity
  8
LY_1
  6
CONTINUOUS
 62
               2
100
AcDbCircle
 10
-47.117752075195313
 20
48.860160827636719
 30
0.0
 40
2.5
  0
CIRCLE
  5
B4
100
AcDbEntity
  8
LY_1
  6
CONTINUOUS
 62
               7
100
AcDbCircle
 10
-47.117752075195313
 20
48.860160827636719
 30
0.0
 40
4.25
  0
CIRCLE
  5
B5
100
AcDbEntity
  8
LY_1
  6
CONTINUOUS
 62
               2
100
AcDbCircle
 10
-86.11773681640625
 20
57.86016845703125
 30
0.0
 40
2.5
  0
CIRCLE
  5
B6
100
AcDbEntity
  8
LY_1
  6
CONTINUOUS
 62
               2
100
AcDbCircle
 10
-98.11773681640625
 20
57.86016845703125
 30
0.0
 40
2.5
  0
CIRCLE
  5
B7
100
AcDbEntity
  8
LY_1
  6
CONTINUOUS
 62
               7
100
AcDbCircle
 10
-47.117752075195313
 20
48.860160827636719
 30
0.0
 40
2.0999994277954102
  0
CIRCLE
  5
B8
100
AcDbEntity
  8
LY_1
  6
CONTINUOUS
 62
               7
100
AcDbCircle
 10
-98.11773681640625
 20
57.86016845703125
 30
0.0
 40
2.0999994277954102
  0
CIRCLE
  5
B9
100
AcDbEntity
  8
LY_1
  6
CONTINUOUS
 62
               7
100
AcDbCircle
 10
-86.11773681640625
 20
57.86016845703125
 30
0.0
 40
2.0999994277954102
  0
LINE
  5
BA
100
AcDbEntity
  8
LY_1
  6
CENTER
 62
               2
100
AcDbLine
 10
-106.46772155761718
 20
-95.45953369140625
 30
0.0
 11
-6.1177215576171875
 21
-95.45953369140625
 31
0.0
  0
LINE
  5
BB
100
AcDbEntity
  8
LY_1
  6
CONTINUOUS
 62
               7
100
AcDbLine
 10
-77.117721557617188
 20
-111.45953369140625
 30
0.0
 11
-19.117721557617188
 21
-111.45953369140625
 31
0.0
  0
LINE
  5
BC
100
AcDbEntity
  8
LY_1
  6
CONTINUOUS
 62
               7
100
AcDbLine
 10
-77.117721557617188
 20
-79.45953369140625
 30
0.0
 11
-19.117721557617188
 21
-79.45953369140625
 31
0.0
  0
LINE
  5
BD
100
AcDbEntity
  8
LY_1
  6
CONTINUOUS
 62
               7
100
AcDbLine
 10
-19.117721557617188
 20
-79.45953369140625
 30
0.0
 11
-19.117721557617188
 21
-93.859533691406256
 31
0.0
  0
LINE
  5
BE
100
AcDbEntity
  8
LY_1
  6
CONTINUOUS
 62
               7
100
AcDbLine
 10
-77.117721557617188
 20
-79.45953369140625
 30
0.0
 11
-77.117721557617188
 21
-88.259533691406247
 31
0.0
  0
LINE
  5
BF
100
AcDbEntity
  8
LY_1
  6
CONTINUOUS
 62
               7
100
AcDbLine
 10
-55.117721557617187
 20
-97.859533691406256
 30
0.0
 11
-19.117721557617188
 21
-97.859533691406256
 31
0.0
  0
LINE
  5
C0
100
AcDbEntity
  8
LY_1
  6
CONTINUOUS
 62
               7
100
AcDbLine
 10
-55.117721557617187
 20
-93.059533691406244
 30
0.0
 11
-19.117721557617188
 21
-93.059533691406244
 31
0.0
  0
LINE
  5
C1
100
AcDbEntity
  8
LY_1
  6
CENTER
 62
               2
100
AcDbLine
 10
-45.597721557617191
 20
-105.45953369140625
 30
0.0
 11
-35.557721557617185
 21
-105.45953369140625
 31
0.0
  0
LINE
  5
C2
100
AcDbEntity
  8
LY_1
  6
CENTER
 62
               2
100
AcDbLine
 10
-40.617721557617188
 20
-110.28953369140625
 30
0.0
 11
-40.617721557617188
 21
-100.89953369140625
 31
0.0
  0
LINE
  5
C3
100
AcDbEntity
  8
LY_1
  6
CENTER
 62
               2
100
AcDbLine
 10
-40.617721557617188
 20
-90.649533691406248
 30
0.0
 11
-40.617721557617188
 21
-80.619533691406247
 31
0.0
  0
LINE
  5
C4
100
AcDbEntity
  8
LY_1
  6
CENTER
 62
               2
100
AcDbLine
 10
-45.597721557617191
 20
-85.45953369140625
 30
0.0
 11
-35.557721557617185
 21
-85.45953369140625
 31
0.0
  0
LINE
  5
C5
100
AcDbEntity
  8
LY_1
  6
CONTINUOUS
 62
               7
100
AcDbLine
 10
-77.117721557617188
 20
-102.65953369140625
 30
0.0
 11
-55.117721557617187
 21
-102.65953369140625
 31
0.0
  0
LINE
  5
C6
100
AcDbEntity
  8
LY_1
  6
CONTINUOUS
 62
               7
100
AcDbLine
 10
-77.117721557617188
 20
-88.259533691406247
 30
0.0
 11
-55.117721557617187
 21
-88.259533691406247
 31
0.0
  0
LINE
  5
C7
100
AcDbEntity
  8
LY_1
  6
CONTINUOUS
 62
               7
100
AcDbLine
 10
-55.117721557617187
 20
-88.259533691406247
 30
0.0
 11
-55.117721557617187
 21
-102.65953369140625
 31
0.0
  0
LINE
  5
C8
100
AcDbEntity
  8
LY_1
  6
CONTINUOUS
 62
               7
100
AcDbLine
 10
-103.11772155761719
 20
-88.45953369140625
 30
0.0
 11
-103.11772155761719
 21
-102.45953369140625
 31
0.0
  0
LINE
  5
C9
100
AcDbEntity
  8
LY_1
  6
CONTINUOUS
 62
               7
100
AcDbLine
 10
-103.11772155761719
 20
-102.45953369140625
 30
0.0
 11
-58.117721557617188
 21
-102.45953369140625
 31
0.0
  0
LINE
  5
CA
100
AcDbEntity
  8
LY_1
  6
CONTINUOUS
 62
               7
100
AcDbLine
 10
-103.11772155761719
 20
-88.45953369140625
 30
0.0
 11
-58.117721557617188
 21
-88.45953369140625
 31
0.0
  0
LINE
  5
CB
100
AcDbEntity
  8
LY_1
  6
CONTINUOUS
 62
               7
100
AcDbLine
 10
-58.117721557617188
 20
-88.45953369140625
 30
0.0
 11
-58.117721557617188
 21
-102.45953369140625
 31
0.0
  0
LINE
  5
CC
100
AcDbEntity
  8
LY_1
  6
CONTINUOUS
 62
               7
100
AcDbLine
 10
-59.617721557617187
 20
-88.45953369140625
 30
0.0
 11
-59.617721557617187
 21
-102.45953369140625
 31
0.0
  0
LINE
  5
CD
100
AcDbEntity
  8
LY_1
  6
CENTER
 62
               2
100
AcDbLine
 10
-98.117721557617188
 20
-90.439533691406254
 30
0.0
 11
-98.117721557617188
 21
-100.46953369140626
 31
0.0
  0
LINE
  5
CE
100
AcDbEntity
  8
LY_1
  6
CENTER
 62
               2
100
AcDbLine
 10
-86.117721557617188
 20
-90.219533691406255
 30
0.0
 11
-86.117721557617188
 21
-100.46953369140626
 31
0.0
  0
LINE
  5
CF
100
AcDbEntity
  8
LY_1
  6
CONTINUOUS
 62
               7
100
AcDbLine
 10
-58.117721557617188
 20
-89.45953369140625
 30
0.0
 11
-55.117721557617187
 21
-89.45953369140625
 31
0.0
  0
LINE
  5
D0
100
AcDbEntity
  8
LY_1
  6
CONTINUOUS
 62
               7
100
AcDbLine
 10
-58.117721557617188
 20
-101.45953369140625
 30
0.0
 11
-55.117721557617187
 21
-101.45953369140625
 31
0.0
  0
LINE
  5
D1
100
AcDbEntity
  8
LY_1
  6
CENTER
 62
               2
100
AcDbLine
 10
-47.617721557617188
 20
-96.249533691406256
 30
0.0
 11
-47.617721557617188
 21
-113.18953369140625
 31
0.0
  0
LINE
  5
D2
100
AcDbEntity
  8
LY_1
  6
CONTINUOUS
 62
               7
100
AcDbLine
 10
-77.117721557617188
 20
-102.65953369140625
 30
0.0
 11
-77.117721557617188
 21
-111.45953369140625
 31
0.0
  0
LINE
  5
D3
100
AcDbEntity
  8
LY_1
  6
CONTINUOUS
 62
               7
100
AcDbLine
 10
-55.117721557617187
 20
-93.859533691406256
 30
0.0
 11
-19.117721557617188
 21
-93.859533691406256
 31
0.0
  0
LINE
  5
D4
100
AcDbEntity
  8
LY_1
  6
CONTINUOUS
 62
               7
100
AcDbLine
 10
-55.117721557617187
 20
-97.059533691406244
 30
0.0
 11
-19.117721557617188
 21
-97.059533691406244
 31
0.0
  0
LINE
  5
D5
100
AcDbEntity
  8
LY_1
  6
CONTINUOUS
 62
               4
100
AcDbLine
 10
-19.117721557617188
 20
-97.509533691406247
 30
0.0
 11
-18.617721557617188
 21
-97.509533691406247
 31
0.0
  0
LINE
  5
D6
100
AcDbEntity
  8
LY_1
  6
CONTINUOUS
 62
               4
100
AcDbLine
 10
-19.117721557617188
 20
-93.409533691406253
 30
0.0
 11
-18.617721557617188
 21
-93.409533691406253
 31
0.0
  0
LINE
  5
D7
100
AcDbEntity
  8
LY_1
  6
CONTINUOUS
 62
               4
100
AcDbLine
 10
-40.617721557617188
 20
-93.859533691406256
 30
0.0
 11
-40.617721557617188
 21
-97.059533691406244
 31
0.0
  0
LINE
  5
D8
100
AcDbEntity
  8
LY_1
  6
CONTINUOUS
 62
               4
100
AcDbLine
 10
-18.617721557617188
 20
-93.409533691406253
 30
0.0
 11
-18.617721557617188
 21
-97.509533691406247
 31
0.0
  0
LINE
  5
D9
100
AcDbEntity
  8
LY_1
  6
CONTINUOUS
 62
               4
100
AcDbLine
 10
-39.657721557617187
 20
-96.159533691406253
 30
0.0
 11
-37.917721557617185
 21
-94.429533691406249
 31
0.0
  0
LINE
  5
DA
100
AcDbEntity
  8
LY_1
  6
CONTINUOUS
 62
               4
100
AcDbLine
 10
-39.297721557617187
 20
-96.509533691406247
 30
0.0
 11
-37.56772155761719
 21
-94.789533691406248
 31
0.0
  0
LINE
  5
DB
100
AcDbEntity
  8
LY_1
  6
CONTINUOUS
 62
               4
100
AcDbLine
 10
-18.617721557617188
 20
-94.159533691406253
 30
0.0
 11
-9.8777215576171926
 21
-94.159533691406253
 31
0.0
  0
LINE
  5
DC
100
AcDbEntity
  8
LY_1
  6
CONTINUOUS
 62
               4
100
AcDbLine
 10
-18.617721557617188
 20
-96.759533691406247
 30
0.0
 11
-8.3677215576171875
 21
-96.759533691406247
 31
0.0
  0
LINE
  5
DD
100
AcDbEntity
  8
LY_1
  6
CONTINUOUS
 62
             200
100
AcDbLine
 10
-10.367721557617187
 20
-93.299533691406253
 30
0.0
 11
-7.8677215576171875
 21
-97.619533691406247
 31
0.0
  0
LINE
  5
DE
100
AcDbEntity
  8
LY_1
  6
CONTINUOUS
 62
               7
100
AcDbLine
 10
-19.117721557617188
 20
-97.059533691406244
 30
0.0
 11
-19.117721557617188
 21
-111.45953369140625
 31
0.0
  0
LINE
  5
DF
100
AcDbEntity
  8
LY_1
  6
CONTINUOUS
 62
               4
100
AcDbLine
 10
-19.117721557617188
 20
-97.059533691406244
 30
0.0
 11
-18.617721557617188
 21
-97.059533691406244
 31
0.0
  0
LINE
  5
E0
100
AcDbEntity
  8
LY_1
  6
CONTINUOUS
 62
               4
100
AcDbLine
 10
-19.117721557617188
 20
-93.859533691406256
 30
0.0
 11
-18.617721557617188
 21
-93.859533691406256
 31
0.0
  0
CIRCLE
  5
E1
100
AcDbEntity
  8
LY_1
  6
CONTINUOUS
 62
               4
100
AcDbCircle
 10
-38.617721557617187
 20
-95.45953369140625
 30
0.0
 40
1.25
  0
CIRCLE
  5
E2
100
AcDbEntity
  8
LY_1
  6
CONTINUOUS
 62
               4
100
AcDbCircle
 10
-38.617721557617187
 20
-95.45953369140625
 30
0.0
 40
1.3999996185302734
  0
CIRCLE
  5
E3
100
AcDbEntity
  8
LY_1
  6
CONTINUOUS
 62
               7
100
AcDbCircle
 10
-40.61773681640625
 20
-105.45953369140625
 30
0.0
 40
2.5
  0
CIRCLE
  5
E4
100
AcDbEntity
  8
LY_1
  6
CONTINUOUS
 62
               2
100
AcDbCircle
 10
-40.61773681640625
 20
-105.45953369140625
 30
0.0
 40
3.0
  0
CIRCLE
  5
E5
100
AcDbEntity
  8
LY_1
  6
CONTINUOUS
 62
               2
100
AcDbCircle
 10
-40.61773681640625
 20
-85.459556579589844
 30
0.0
 40
3.0
  0
CIRCLE
  5
E6
100
AcDbEntity
  8
LY_1
  6
CONTINUOUS
 62
               2
100
AcDbCircle
 10
-98.117721557617188
 20
-95.45953369140625
 30
0.0
 40
2.5
  0
CIRCLE
  5
E7
100
AcDbEntity
  8
LY_1
  6
CONTINUOUS
 62
               2
100
AcDbCircle
 10
-86.117721557617188
 20
-95.45953369140625
 30
0.0
 40
2.5
  0
CIRCLE
  5
E8
100
AcDbEntity
  8
LY_1
  6
CONTINUOUS
 62
               7
100
AcDbCircle
 10
-98.117721557617188
 20
-95.45953369140625
 30
0.0
 40
2.0999994277954102
  0
CIRCLE
  5
E9
100
AcDbEntity
  8
LY_1
  6
CONTINUOUS
 62
               7
100
AcDbCircle
 10
-86.117721557617188
 20
-95.45953369140625
 30
0.0
 40
2.0999994277954102
  0
CIRCLE
  5
EA
100
AcDbEntity
  8
LY_1
  6
CONTINUOUS
 62
               7
100
AcDbCircle
 10
-40.61773681640625
 20
-85.459556579589844
 30
0.0
 40
2.5
  0
MTEXT
  5
EB
100
AcDbEntity
  8
LY_1
  6
CONTINUOUS
 62
               7
100
AcDbMText
 10
-185.71428571540076
 20
107.60000610351562
 30
0.0
 40
4.5
 41
0.0
 71
               4
 72
               1
  1
\W1.048;\A1;MODEL:NHBDS-25-ZE135A2
  0
MTEXT
  5
EC
100
AcDbEntity
  8
LY_1
  6
CONTINUOUS
 62
               7
100
AcDbMText
 10
-158.73404255416287
 20
100.60000610351562
 30
0.0
 40
4.5
 41
0.0
 71
               4
 72
               1
  1
\W1.021;\A1;NHBRS-25-ZE135A2
  0
MTEXT
  5
ED
100
AcDbEntity
  8
LY_1
  6
CONTINUOUS
 62
               7
100
AcDbMText
 10
-168.92431192886306
 20
125.10000610351562
 30
0.0
 40
4.5
 41
0.0
 71
               4
 72
               1
  1
\W1.101;\A1;AIR HAND
  0
MTEXT
  5
EE
100
AcDbEntity
  8
LY_1
  6
CONTINUOUS
 62
               7
100
AcDbMText
 10
115.5267259825148
 20
-126.0
 30
0.0
 40
6.3000001907348633
 41
0.0
 71
               4
 72
               1
  1
\W1.121;\A1;KOGANEI CORP.
  0
MTEXT
  5
EF
100
AcDbEntity
  8
LY_1
  6
CONTINUOUS
 62
               7
100
AcDbMText
 10
137.53438116266625
 20
125.10000610351562
 30
0.0
 40
4.5
 41
0.0
 71
               4
 72
               1
  1
\W1.312;\A1;Ver.1.1
  0
LINE
  5
F0
100
AcDbEntity
  8
LY_1
  6
CONTINUOUS
 62
               7
100
AcDbLine
 10
-109.25
 20
132.59999999999999
 30
0.0
 11
-109.25
 21
117.59999999999999
 31
0.0
  0
LINE
  5
F1
100
AcDbEntity
  8
LY_1
  6
CONTINUOUS
 62
               7
100
AcDbLine
 10
-194.25
 20
117.59999999999999
 30
0.0
 11
-109.25
 21
117.59999999999999
 31
0.0
  0
LINE
  5
F2
100
AcDbEntity
  8
LY_1
  6
CONTINUOUS
 62
               7
100
AcDbLine
 10
109.8
 20
117.59999999999999
 30
0.0
 11
194.80000000000001
 21
117.59999999999999
 31
0.0
  0
LINE
  5
F3
100
AcDbEntity
  8
LY_1
  6
CONTINUOUS
 62
               7
100
AcDbLine
 10
109.8
 20
132.59999999999999
 30
0.0
 11
109.8
 21
117.59999999999999
 31
0.0
  0
LINE
  5
F4
100
AcDbEntity
  8
LY_1
  6
CONTINUOUS
 62
               7
100
AcDbLine
 10
109.8
 20
-118.5
 30
0.0
 11
194.80000000000001
 21
-118.5
 31
0.0
  0
LINE
  5
F5
100
AcDbEntity
  8
LY_1
  6
CONTINUOUS
 62
               7
100
AcDbLine
 10
109.8
 20
-118.5
 30
0.0
 11
109.8
 21
-133.5
 31
0.0
  0
LINE
  5
F6
100
AcDbEntity
  8
LY_1
  6
CONTINUOUS
 62
               7
100
AcDbLine
 10
-194.25
 20
-133.5
 30
0.0
 11
194.80000000000001
 21
-133.5
 31
0.0
  0
LINE
  5
F7
100
AcDbEntity
  8
LY_1
  6
CONTINUOUS
 62
               7
100
AcDbLine
 10
-194.25
 20
132.59999999999999
 30
0.0
 11
-194.25
 21
-133.5
 31
0.0
  0
LINE
  5
F8
100
AcDbEntity
  8
LY_1
  6
CONTINUOUS
 62
               7
100
AcDbLine
 10
194.80000000000001
 20
132.59999999999999
 30
0.0
 11
194.80000000000001
 21
-133.5
 31
0.0
  0
LINE
  5
F9
100
AcDbEntity
  8
LY_1
  6
CONTINUOUS
 62
               7
100
AcDbLine
 10
-194.25
 20
132.59999999999999
 30
0.0
 11
194.80000000000001
 21
132.59999999999999
 31
0.0
  0
ENDSEC
  0
SECTION
  2
OBJECTS
  0
DICTIONARY
  5
19
100
AcDbDictionary
  3
ACAD_GROUP
350
1A
  3
ACAD_MLINESTYLE
350
1B
  0
DICTIONARY
  5
1A
102
{ACAD_REACTORS
330
19
102
}
100
AcDbDictionary
  0
DICTIONARY
  5
1B
102
{ACAD_REACTORS
330
19
102
}
100
AcDbDictionary
  3
STANDARD
350
1C
  0
MLINESTYLE
  5
1C
102
{ACAD_REACTORS
330
1B
102
}
100
AcDbMlineStyle
  2
Standard
 70
               0
  3

 62
               0
 51
90.0
 52
90.0
 71
               2
 49
0.5
 62
             256
  6
ByLayer
 49
-0.5
 62
             256
  6
ByLayer
  0
ENDSEC
  0
EOF
