  0
SECTION
  2
HEADER
  9
$ACADVER
  1
AC1009
  9
$INSBASE
 10
0.0
 20
0.0
 30
0.0
  9
$EXTMIN
 10
-194.25
 20
-133.5
 30
0.0
  9
$EXTMAX
 10
196.25000429
 20
132.6000061
 30
0.0
  9
$LIMMIN
 10
-194.25
 20
-133.5
  9
$LIMMAX
 10
196.25000429
 20
132.6000061
  9
$ORTHOMODE
 70
       0
  9
$REGENMODE
 70
       1
  9
$FILLMODE
 70
       1
  9
$QTEXTMODE
 70
       0
  9
$MIRRTEXT
 70
       1
  9
$DRAGMODE
 70
       2
  9
$LTSCALE
 40
1.0
  9
$OSMODE
 70
       0
  9
$ATTMODE
 70
       1
  9
$TEXTSIZE
 40
3.20000005
  9
$TRACEWID
 40
0.05
  9
$TEXTSTYLE
  7
MX_NOTE_STANDARD
  9
$CLAYER
  8
0
  9
$CELTYPE
  6
CONTINUOUS
  9
$CECOLOR
 62
     256
  9
$DIMSCALE
 40
1.0
  9
$DIMASZ
 40
2.5
  9
$DIMEXO
 40
1.5
  9
$DIMDLI
 40
3.75
  9
$DIMRND
 40
0.0
  9
$DIMDLE
 40
0.0
  9
$DIMEXE
 40
1.5
  9
$DIMTP
 40
0.0
  9
$DIMTM
 40
0.0
  9
$DIMTXT
 40
3.20000005
  9
$DIMCEN
 40
2.5
  9
$DIMTSZ
 40
0.0
  9
$DIMTOL
 70
       0
  9
$DIMLIM
 70
       0
  9
$DIMTIH
 70
       0
  9
$DIMTOH
 70
       0
  9
$DIMSE1
 70
       0
  9
$DIMSE2
 70
       0
  9
$DIMTAD
 70
       1
  9
$DIMZIN
 70
       8
  9
$DIMBLK
  1

  9
$DIMASO
 70
       1
  9
$DIMSHO
 70
       1
  9
$DIMPOST
  1

  9
$DIMAPOST
  1

  9
$DIMALT
 70
       0
  9
$DIMALTD
 70
       4
  9
$DIMALTF
 40
0.0394
  9
$DIMLFAC
 40
1.0
  9
$DIMTOFL
 70
       1
  9
$DIMTVP
 40
0.0
  9
$DIMTIX
 70
       0
  9
$DIMSOXD
 70
       0
  9
$DIMSAH
 70
       0
  9
$DIMBLK1
  1

  9
$DIMBLK2
  1

  9
$DIMSTYLE
  2
MXDIMSTYLE
  9
$DIMCLRD
 70
       0
  9
$DIMCLRE
 70
       0
  9
$DIMCLRT
 70
       0
  9
$DIMTFAC
 40
1.0
  9
$DIMGAP
 40
1.0
  9
$LUNITS
 70
       2
  9
$LUPREC
 70
       4
  9
$AXISMODE
 70
       0
  9
$AXISUNIT
 10
0.0
 20
0.0
  9
$SKETCHINC
 40
0.1
  9
$FILLETRAD
 40
0.0
  9
$AUNITS
 70
       0
  9
$AUPREC
 70
       0
  9
$MENU
  1
acad
  9
$ELEVATION
 40
0.0
  9
$PELEVATION
 40
0.0
  9
$THICKNESS
 40
0.0
  9
$LIMCHECK
 70
       0
  9
$BLIPMODE
 70
       1
  9
$CHAMFERA
 40
0.0
  9
$CHAMFERB
 40
0.0
  9
$SKPOLY
 70
       0
  9
$TDCREATE
 40
2452489.501712963
  9
$TDUPDATE
 40
2452489.501712963
  9
$TDINDWG
 40
0.0000000000
  9
$TDUSRTIMER
 40
0.0000000000
  9
$USRTIMER
 70
       1
  9
$ANGBASE
 50
0.0
  9
$ANGDIR
 70
       0
  9
$PDMODE
 70
       0
  9
$PDSIZE
 40
0.0
  9
$PLINEWID
 40
0.0
  9
$COORDS
 70
       1
  9
$SPLFRAME
 70
       0
  9
$SPLINETYPE
 70
       6
  9
$SPLINESEGS
 70
       8
  9
$ATTDIA
 70
       0
  9
$ATTREQ
 70
       1
  9
$HANDLING
 70
       1
  9
$HANDSEED
  5
115
  9
$SURFTAB1
 70
       6
  9
$SURFTAB2
 70
       6
  9
$SURFTYPE
 70
       6
  9
$SURFU
 70
       6
  9
$SURFV
 70
       6
  9
$UCSNAME
  2

  9
$UCSORG
 10
0.0
 20
0.0
 30
0.0
  9
$UCSXDIR
 10
1.0
 20
0.0
 30
0.0
  9
$UCSYDIR
 10
0.0
 20
1.0
 30
0.0
  9
$PUCSNAME
  2

  9
$PUCSORG
 10
0.0
 20
0.0
 30
0.0
  9
$PUCSXDIR
 10
1.0
 20
0.0
 30
0.0
  9
$PUCSYDIR
 10
0.0
 20
1.0
 30
0.0
  9
$USERI1
 70
       0
  9
$USERI2
 70
       0
  9
$USERI3
 70
       0
  9
$USERI4
 70
       0
  9
$USERI5
 70
       0
  9
$USERR1
 40
0.0
  9
$USERR2
 40
0.0
  9
$USERR3
 40
0.0
  9
$USERR4
 40
0.0
  9
$USERR5
 40
0.0
  9
$WORLDVIEW
 70
       1
  9
$SHADEDGE
 70
       3
  9
$SHADEDIF
 70
      70
  9
$TILEMODE
 70
       1
  9
$MAXACTVP
 70
      16
  9
$PINSBASE
 10
0.0
 20
0.0
 30
0.0
  9
$PLIMCHECK
 70
       0
  9
$PEXTMIN
 10
1.00000000E+20
 20
1.00000000E+20
 30
1.00000000E+20
  9
$PEXTMAX
 10
-1.00000000E+20
 20
-1.00000000E+20
 30
-1.00000000E+20
  9
$PLIMMIN
 10
0.0
 20
0.0
  9
$PLIMMAX
 10
12.0
 20
9.0
  9
$UNITMODE
 70
       0
  9
$VISRETAIN
 70
       0
  9
$PLINEGEN
 70
       1
  9
$PSLTSCALE
 70
       0
  9
$TREEDEPTH
 70
    3020
  9
$DWGCODEPAGE
  3
dos932
  0
ENDSEC
  0
SECTION
  2
TABLES
  0
TABLE
  2
VPORT
 70
       1
  0
VPORT
  2
*ACTIVE
 70
       0
 10
0.0
 20
0.0
 11
1.0
 21
1.0
 12
1.00000215
 22
-0.44999695
 13
0.0
 23
0.0
 14
1.0
 24
1.0
 15
0.0
 25
0.0
 16
0.0
 26
0.0
 36
1.0
 17
0.0
 27
0.0
 37
0.0
 40
268.76100616
 41
1.73205081
 42
50.0
 43
0.0
 44
0.0
 50
0.0
 51
0.0
 71
       0
 72
     100
 73
       1
 74
       1
 75
       0
 76
       0
 77
       0
 78
       0
  0
ENDTAB
  0
TABLE
  2
LTYPE
 70
       4
  0
LTYPE
  2
CONTINUOUS
 70
      64
  3
Solid line
 72
      65
 73
       0
 40
0.0
  0
LTYPE
  2
CENTER
 70
      64
  3
Center ____ _ ____ _ ____ _ ____ _ ____ _ ____
 72
      65
 73
       4
 40
50.8
 49
31.75
 49
-6.35
 49
6.35
 49
-6.35
  0
LTYPE
  2
PHANTOM
 70
      64
  3
Phantom ______  __  __  ______  __  __  ______
 72
      65
 73
       6
 40
63.5
 49
31.75
 49
-6.35
 49
6.35
 49
-6.35
 49
6.35
 49
-6.35
  0
LTYPE
  2
DASHED
 70
      64
  3
Dashed __ __ __ __ __ __ __ __ __ __ __ __ __ _
 72
      65
 73
       2
 40
19.05
 49
12.7
 49
-6.35
  0
ENDTAB
  0
TABLE
  2
LAYER
 70
       2
  0
LAYER
  2
0
 70
       0
 62
       7
  6
CONTINUOUS
  0
LAYER
  2
DEFPOINTS
 70
       0
 62
       7
  6
CONTINUOUS
  0
ENDTAB
  0
TABLE
  2
STYLE
 70
       1
  0
STYLE
  2
MX_NOTE_STANDARD
 70
       0
 40
3.20000005
 41
1.0
 50
0.0
 71
       0
 42
3.20000005
  3
txt.shx
  4
extfont.shx
  0
ENDTAB
  0
TABLE
  2
VIEW
 70
       0
  0
ENDTAB
  0
TABLE
  2
UCS
 70
       0
  0
ENDTAB
  0
TABLE
  2
APPID
 70
       1
  0
APPID
  2
ACAD
 70
       0
  0
ENDTAB
  0
TABLE
  2
DIMSTYLE
 70
       1
  0
DIMSTYLE
  2
MXDIMSTYLE
 70
       0
  3

  4

  5

  6

  7

 40
1.0
 41
2.5
 42
1.5
 43
3.75
 44
1.5
 45
0.0
 46
0.0
 47
0.0
 48
0.0
 71
       0
 72
       0
 73
       0
 74
       0
 75
       0
 76
       0
 77
       1
 78
       8
140
3.20000005
141
2.5
142
0.0
143
0.0394
144
1.0
145
0.0
146
1.0
147
1.0
170
       0
171
       4
172
       1
173
       0
174
       0
175
       0
176
       0
177
       0
178
       0
  0
ENDTAB
  0
ENDSEC
  0
SECTION
  2
BLOCKS
  0
BLOCK
  8
0
  5
22
  2
MS_1
 70
       0
 10
0.0
 20
0.0
 30
0.0
  3
MS_1
  0
LINE
  8
0
  6
CONTINUOUS
 62
       7
  5
23
 10
-0.00000823
 20
7.2000034
 30
0.0
 11
3.63729872
 21
13.50000454
 31
0.0
  0
LINE
  8
0
  6
CONTINUOUS
 62
       7
  5
24
 10
0.0
 20
-7.20000076
 30
0.0
 11
0.0
 21
7.20000839
 31
0.0
  0
LINE
  8
0
  6
CONTINUOUS
 62
       7
  5
25
 10
-0.00000192
 20
-7.2000015
 30
0.0
 11
3.63730408
 21
-13.50000098
 31
0.0
  0
LINE
  8
0
  6
CONTINUOUS
 62
       7
  5
26
 10
47.00129318
 20
13.50000381
 30
0.0
 11
47.00129318
 21
-13.50000381
 31
0.0
  0
LINE
  8
0
  6
CENTER
 62
       2
  5
28
 10
8.00129318
 20
31.29999924
 30
0.0
 11
8.00129318
 21
2.79999924
 31
0.0
  0
LINE
  8
0
  6
CENTER
 62
       2
  5
29
 10
-4.0
 20
0.0
 30
0.0
 11
49.00129318
 21
0.0
 31
0.0
  0
LINE
  8
0
  6
CONTINUOUS
 62
       7
  5
2A
 10
3.6373024
 20
13.50000381
 30
0.0
 11
47.00129318
 21
13.50000381
 31
0.0
  0
LINE
  8
0
  6
CONTINUOUS
 62
       7
  5
2B
 10
3.63731003
 20
-13.50000381
 30
0.0
 11
47.00129318
 21
-13.50000381
 31
0.0
  0
LINE
  8
0
  6
CENTER
 62
       2
  5
2C
 10
17.00000191
 20
11.58000183
 30
0.0
 11
17.00000191
 21
6.42000198
 31
0.0
  0
LINE
  8
0
  6
CENTER
 62
       2
  5
2D
 10
17.00000191
 20
-11.58000183
 30
0.0
 11
17.00000191
 21
-6.42000198
 31
0.0
  0
LINE
  8
0
  6
CENTER
 62
       2
  5
2E
 10
14.42000198
 20
-9.0
 30
0.0
 11
19.58000183
 21
-9.0
 31
0.0
  0
LINE
  8
0
  6
CENTER
 62
       2
  5
2F
 10
14.42000198
 20
9.0
 30
0.0
 11
19.58000183
 21
9.0
 31
0.0
  0
LINE
  8
0
  6
PHANTOM
 62
       2
  5
31
 10
6.00129318
 20
30.00000381
 30
0.0
 11
6.00129318
 21
13.50000381
 31
0.0
  0
LINE
  8
0
  6
CONTINUOUS
 62
       7
  5
32
 10
-11.998703
 20
-12.50000381
 30
0.0
 11
3.05995941
 21
-12.50000381
 31
0.0
  0
LINE
  8
0
  6
CONTINUOUS
 62
       7
  5
33
 10
-11.998703
 20
-8.0
 30
0.0
 11
0.46187973
 21
-8.0
 31
0.0
  0
LINE
  8
0
  6
PHANTOM
 62
       2
  5
34
 10
10.50129318
 20
30.00000381
 30
0.0
 11
10.50129318
 21
13.50000381
 31
0.0
  0
LINE
  8
0
  6
DASHED
 62
       2
  5
36
 10
-11.66689448
 20
-6.96649061
 30
0.0
 11
0.22500381
 21
-7.5897186
 31
0.0
  0
LINE
  8
0
  6
DASHED
 62
       2
  5
37
 10
-11.90240638
 20
-11.46032531
 30
0.0
 11
2.90782727
 21
-12.23649677
 31
0.0
  0
LINE
  8
0
  6
PHANTOM
 62
       2
  5
38
 10
-13.26950742
 20
8.88524125
 30
0.0
 11
15.19142982
 21
10.37681577
 31
0.0
  0
LINE
  8
0
  6
CENTER
 62
       2
  5
39
 10
-13.26951076
 20
-8.8852476
 30
0.0
 11
15.19143029
 21
-10.37682233
 31
0.0
  0
LINE
  8
0
  6
PHANTOM
 62
       2
  5
3A
 10
-11.66689085
 20
6.96647854
 30
0.0
 11
0.22500364
 21
7.58970633
 31
0.0
  0
LINE
  8
0
  6
CENTER
 62
       2
  5
3B
 10
-13.498703
 20
-10.00000381
 30
0.0
 11
15.00129509
 21
-10.00000381
 31
0.0
  0
LINE
  8
0
  6
CONTINUOUS
 62
       7
  5
3C
 10
-11.998703
 20
12.50000381
 30
0.0
 11
3.0599556
 21
12.50000381
 31
0.0
  0
LINE
  8
0
  6
CONTINUOUS
 62
       7
  5
3D
 10
-11.998703
 20
8.0
 30
0.0
 11
0.46187973
 21
8.0
 31
0.0
  0
LINE
  8
0
  6
CENTER
 62
       2
  5
3E
 10
-13.498703
 20
10.00000381
 30
0.0
 11
15.00129509
 21
10.00000381
 31
0.0
  0
LINE
  8
0
  6
PHANTOM
 62
       2
  5
3F
 10
-11.90240284
 20
11.46031515
 30
0.0
 11
2.90782319
 21
12.23648621
 31
0.0
  0
LINE
  8
0
  6
DASHED
 62
       2
  5
40
 10
-11.90240257
 20
-11.46032551
 30
0.0
 11
-11.66689068
 21
-6.96649081
 31
0.0
  0
LINE
  8
0
  6
PHANTOM
 62
       2
  5
41
 10
-11.90239943
 20
11.46032297
 30
0.0
 11
-11.66688744
 21
6.96648636
 31
0.0
  0
CIRCLE
  8
0
  6
CONTINUOUS
 62
       7
  5
42
 10
8.00129318
 20
10.00000381
 30
0.0
 40
1.25
  0
CIRCLE
  8
0
  6
CONTINUOUS
 62
       7
  5
43
 10
8.00129318
 20
-10.00000381
 30
0.0
 40
1.25
  0
CIRCLE
  8
0
  6
CONTINUOUS
 62
       7
  5
44
 10
17.00000191
 20
-9.0
 30
0.0
 40
1.60000002
  0
CIRCLE
  8
0
  6
CONTINUOUS
 62
       7
  5
45
 10
17.00000191
 20
9.0
 30
0.0
 40
1.60000002
  0
LINE
  8
0
  6
CONTINUOUS
 62
       7
  5
46
 10
-11.99870682
 20
12.50000381
 30
0.0
 11
-11.99870682
 21
8.0
 31
0.0
  0
LINE
  8
0
  6
CONTINUOUS
 62
       7
  5
47
 10
-11.99870682
 20
-12.50000381
 30
0.0
 11
-11.99870682
 21
-8.0
 31
0.0
  0
LINE
  8
0
  6
PHANTOM
 62
       2
  5
48
 10
10.50129318
 20
30.00000381
 30
0.0
 11
6.00129318
 21
30.00000381
 31
0.0
  0
ARC
  8
0
  6
PHANTOM
 62
       2
  5
49
 10
8.00129318
 20
10.00000381
 30
0.0
 40
20.0
 50
98.86389164
 51
169.54342832
  0
LINE
  8
0
  6
CENTER
 62
       2
  5
4A
 10
8.00129318
 20
-31.29999924
 30
0.0
 11
8.00129318
 21
-2.79999924
 31
0.0
  0
LINE
  8
0
  6
PHANTOM
 62
       2
  5
4B
 10
6.00129318
 20
-30.00000381
 30
0.0
 11
6.00129318
 21
-13.50000381
 31
0.0
  0
LINE
  8
0
  6
PHANTOM
 62
       2
  5
4C
 10
10.50129318
 20
-30.00000381
 30
0.0
 11
10.50129318
 21
-13.50000381
 31
0.0
  0
ARC
  8
0
  6
PHANTOM
 62
       2
  5
4D
 10
8.00129318
 20
-10.00000381
 30
0.0
 40
20.0
 50
190.45657168
 51
261.13610836
  0
LINE
  8
0
  6
PHANTOM
 62
       2
  5
4E
 10
10.50129318
 20
-30.00000381
 30
0.0
 11
6.00129318
 21
-30.00000381
 31
0.0
  0
LINE
  8
0
  6
PHANTOM
 62
       2
  5
4F
 10
-13.26950742
 20
-8.88524125
 30
0.0
 11
15.19142982
 21
-10.37681577
 31
0.0
  0
ENDBLK
  8
0
  5
50
  0
BLOCK
  8
0
  5
51
  2
MS_2
 70
       0
 10
0.0
 20
0.0
 30
0.0
  3
MS_2
  0
LINE
  8
0
  6
CONTINUOUS
 62
       7
  5
52
 10
-2.25
 20
13.50000763
 30
0.0
 11
-2.25
 21
13.19999695
 31
0.0
  0
LINE
  8
0
  6
CENTER
 62
       2
  5
53
 10
0.0
 20
13.50000763
 30
0.0
 11
0.0
 21
-13.5
 31
0.0
  0
LINE
  8
0
  6
CONTINUOUS
 62
       7
  5
54
 10
-8.0
 20
13.50000763
 30
0.0
 11
-8.0
 21
-13.5
 31
0.0
  0
LINE
  8
0
  6
CONTINUOUS
 62
       7
  5
55
 10
8.0
 20
13.50000763
 30
0.0
 11
8.0
 21
-13.5
 31
0.0
  0
LINE
  8
0
  6
CENTER
 62
       2
  5
56
 10
-8.0
 20
10.0
 30
0.0
 11
4.5
 21
10.0
 31
0.0
  0
LINE
  8
0
  6
CONTINUOUS
 62
       7
  5
57
 10
1.60001364
 20
-11.70001383
 30
0.0
 11
2.10001422
 21
-11.2000133
 31
0.0
  0
LINE
  8
0
  6
CONTINUOUS
 62
       7
  5
58
 10
-1.59998817
 20
-11.69996044
 30
0.0
 11
-2.09998874
 21
-11.19995991
 31
0.0
  0
LINE
  8
0
  6
CONTINUOUS
 62
       7
  5
59
 10
-1.59998831
 20
-12.55000439
 30
0.0
 11
-2.24999121
 21
-13.20000724
 31
0.0
  0
LINE
  8
0
  6
CONTINUOUS
 62
       7
  5
5A
 10
-2.09999847
 20
-11.19999313
 30
0.0
 11
-2.09999847
 21
-9.59999466
 31
0.0
  0
LINE
  8
0
  6
CONTINUOUS
 62
       7
  5
5B
 10
1.60001648
 20
-12.54995909
 30
0.0
 11
2.25001938
 21
-13.19996194
 31
0.0
  0
LINE
  8
0
  6
CONTINUOUS
 62
       7
  5
5C
 10
1.59999847
 20
12.54999542
 30
0.0
 11
1.59999847
 21
11.70000458
 31
0.0
  0
LINE
  8
0
  6
CONTINUOUS
 62
       7
  5
5D
 10
2.25
 20
-13.49999619
 30
0.0
 11
2.25
 21
-13.19998932
 31
0.0
  0
LINE
  8
0
  6
CONTINUOUS
 62
       7
  5
5E
 10
-1.59998998
 20
11.6999981
 30
0.0
 11
-2.09999055
 21
11.19999757
 31
0.0
  0
LINE
  8
0
  6
CENTER
 62
       2
  5
5F
 10
-4.5
 20
-9.99999619
 30
0.0
 11
8.0
 21
-9.99999619
 31
0.0
  0
LINE
  8
0
  6
CENTER
 62
       2
  5
60
 10
-5.0
 20
13.50000763
 30
0.0
 11
-5.0
 21
6.50000763
 31
0.0
  0
LINE
  8
0
  6
CENTER
 62
       2
  5
61
 10
5.0
 20
-13.49999619
 30
0.0
 11
5.0
 21
-6.49999619
 31
0.0
  0
LINE
  8
0
  6
CENTER
 62
       2
  5
62
 10
-13.88864136
 20
0.0
 30
0.0
 11
17.07901001
 21
0.0
 31
0.0
  0
LINE
  8
0
  6
CONTINUOUS
 62
       7
  5
63
 10
1.60002894
 20
11.70002721
 30
0.0
 11
2.10002952
 21
11.20002668
 31
0.0
  0
LINE
  8
0
  6
CONTINUOUS
 62
       7
  5
64
 10
-2.25
 20
-13.49999619
 30
0.0
 11
-2.25
 21
-13.19998932
 31
0.0
  0
LINE
  8
0
  6
CONTINUOUS
 62
       7
  5
65
 10
2.09999847
 20
11.20000458
 30
0.0
 11
2.09999847
 21
9.59999847
 31
0.0
  0
LINE
  8
0
  6
CONTINUOUS
 62
       7
  5
66
 10
-2.25
 20
13.5
 30
0.0
 11
-8.0
 21
13.5
 31
0.0
  0
LINE
  8
0
  6
CONTINUOUS
 62
       7
  5
67
 10
2.09999847
 20
-11.19999313
 30
0.0
 11
2.09999847
 21
-9.59999466
 31
0.0
  0
LINE
  8
0
  6
CONTINUOUS
 62
       7
  5
68
 10
2.25
 20
13.50000763
 30
0.0
 11
2.25
 21
13.19999695
 31
0.0
  0
LINE
  8
0
  6
CONTINUOUS
 62
       7
  5
69
 10
-2.09999847
 20
11.20000458
 30
0.0
 11
-2.09999847
 21
9.59999847
 31
0.0
  0
LINE
  8
0
  6
CONTINUOUS
 62
       7
  5
6A
 10
-1.5999757
 20
12.55002586
 30
0.0
 11
-2.24997591
 21
13.20002601
 31
0.0
  0
LINE
  8
0
  6
CONTINUOUS
 62
       7
  5
6B
 10
1.60000927
 20
12.55000214
 30
0.0
 11
2.25000678
 21
13.1999996
 31
0.0
  0
LINE
  8
0
  6
CONTINUOUS
 62
       7
  5
6C
 10
-2.25
 20
-13.49999619
 30
0.0
 11
-8.0
 21
-13.49999619
 31
0.0
  0
LINE
  8
0
  6
CONTINUOUS
 62
       7
  5
6D
 10
8.0
 20
-13.49999619
 30
0.0
 11
2.25
 21
-13.49999619
 31
0.0
  0
LINE
  8
0
  6
CONTINUOUS
 62
       7
  5
6E
 10
-1.6000061
 20
-12.54999542
 30
0.0
 11
-1.6000061
 21
-11.69999313
 31
0.0
  0
LINE
  8
0
  6
CONTINUOUS
 62
       7
  5
6F
 10
1.59999847
 20
-12.54999542
 30
0.0
 11
1.59999847
 21
-11.69999313
 31
0.0
  0
LINE
  8
0
  6
CONTINUOUS
 62
       7
  5
70
 10
8.0
 20
13.5
 30
0.0
 11
2.25
 21
13.5
 31
0.0
  0
LINE
  8
0
  6
CONTINUOUS
 62
       7
  5
71
 10
-1.6000061
 20
12.54999542
 30
0.0
 11
-1.6000061
 21
11.70000458
 31
0.0
  0
ARC
  8
0
  6
CONTINUOUS
 62
       7
  5
72
 10
0.0
 20
-9.59999466
 30
0.0
 40
2.0999999
 50
0.0
 51
180.00000501
  0
CIRCLE
  8
0
  6
CONTINUOUS
 62
       2
  5
73
 10
-5.0
 20
10.0
 30
0.0
 40
1.5
  0
CIRCLE
  8
0
  6
CONTINUOUS
 62
       2
  5
74
 10
5.0
 20
-9.99999619
 30
0.0
 40
1.5
  0
CIRCLE
  8
0
  6
CONTINUOUS
 62
       7
  5
75
 10
-5.0
 20
10.0
 30
0.0
 40
1.20000005
  0
CIRCLE
  8
0
  6
CONTINUOUS
 62
       7
  5
76
 10
5.0
 20
-9.99999619
 30
0.0
 40
1.20000005
  0
ARC
  8
0
  6
CONTINUOUS
 62
       7
  5
77
 10
0.0
 20
9.59999847
 30
0.0
 40
2.0999999
 50
180.00000865
 51
0.0
  0
LINE
  8
0
  6
CONTINUOUS
 62
       4
  5
78
 10
1.5
 20
12.24999857
 30
0.0
 11
-1.5
 21
12.24999857
 31
0.0
  0
LINE
  8
0
  6
CONTINUOUS
 62
       4
  5
79
 10
1.25
 20
12.74999857
 30
0.0
 11
-1.25
 21
12.74999857
 31
0.0
  0
LINE
  8
0
  6
CONTINUOUS
 62
       4
  5
7A
 10
-1.6
 20
11.69999857
 30
0.0
 11
-1.5
 21
11.79999857
 31
0.0
  0
LINE
  8
0
  6
CONTINUOUS
 62
       4
  5
7B
 10
-1.25
 20
12.74999857
 30
0.0
 11
-1.25
 21
12.24999857
 31
0.0
  0
LINE
  8
0
  6
CONTINUOUS
 62
       4
  5
7C
 10
-1.5
 20
12.24999857
 30
0.0
 11
-1.5
 21
11.79999857
 31
0.0
  0
LINE
  8
0
  6
CONTINUOUS
 62
       4
  5
7D
 10
1.6
 20
11.69999857
 30
0.0
 11
1.5
 21
11.79999857
 31
0.0
  0
LINE
  8
0
  6
CONTINUOUS
 62
       4
  5
7E
 10
1.25
 20
12.74999857
 30
0.0
 11
1.25
 21
12.24999857
 31
0.0
  0
LINE
  8
0
  6
CONTINUOUS
 62
       4
  5
7F
 10
1.5
 20
12.24999857
 30
0.0
 11
1.5
 21
11.79999857
 31
0.0
  0
CIRCLE
  8
0
  6
CONTINUOUS
 62
       4
  5
80
 10
0.0
 20
9.94998789
 30
0.0
 40
1.29999924
  0
LINE
  8
0
  6
CONTINUOUS
 62
       4
  5
81
 10
1.5
 20
-12.24999857
 30
0.0
 11
-1.5
 21
-12.24999857
 31
0.0
  0
LINE
  8
0
  6
CONTINUOUS
 62
       4
  5
82
 10
1.25
 20
-12.74999857
 30
0.0
 11
-1.25
 21
-12.74999857
 31
0.0
  0
LINE
  8
0
  6
CONTINUOUS
 62
       4
  5
83
 10
-1.6
 20
-11.69999857
 30
0.0
 11
-1.5
 21
-11.79999857
 31
0.0
  0
LINE
  8
0
  6
CONTINUOUS
 62
       4
  5
84
 10
-1.25
 20
-12.74999857
 30
0.0
 11
-1.25
 21
-12.24999857
 31
0.0
  0
LINE
  8
0
  6
CONTINUOUS
 62
       4
  5
85
 10
-1.5
 20
-12.24999857
 30
0.0
 11
-1.5
 21
-11.79999857
 31
0.0
  0
LINE
  8
0
  6
CONTINUOUS
 62
       4
  5
86
 10
1.6
 20
-11.69999857
 30
0.0
 11
1.5
 21
-11.79999857
 31
0.0
  0
LINE
  8
0
  6
CONTINUOUS
 62
       4
  5
87
 10
1.25
 20
-12.74999857
 30
0.0
 11
1.25
 21
-12.24999857
 31
0.0
  0
LINE
  8
0
  6
CONTINUOUS
 62
       4
  5
88
 10
1.5
 20
-12.24999857
 30
0.0
 11
1.5
 21
-11.79999857
 31
0.0
  0
CIRCLE
  8
0
  6
CONTINUOUS
 62
       4
  5
89
 10
0.0
 20
-9.94998789
 30
0.0
 40
1.29999924
  0
ENDBLK
  8
0
  5
8A
  0
BLOCK
  8
0
  5
8B
  2
MS_3
 70
       0
 10
0.0
 20
0.0
 30
0.0
  3
MS_3
  0
LINE
  8
0
  6
CONTINUOUS
 62
       4
  5
8C
 10
18.00000191
 20
1.6
 30
0.0
 11
18.00000191
 21
-1.6
 31
0.0
  0
LINE
  8
0
  6
CONTINUOUS
 62
       4
  5
8D
 10
18.96000191
 20
-0.7
 30
0.0
 11
20.70000191
 21
1.03
 31
0.0
  0
LINE
  8
0
  6
CONTINUOUS
 62
       4
  5
8E
 10
19.32000191
 20
-1.05
 30
0.0
 11
21.05000191
 21
0.67
 31
0.0
  0
LINE
  8
0
  6
CONTINUOUS
 62
       4
  5
8F
 10
29.50000191
 20
1.3
 30
0.0
 11
50.24000191
 21
1.3
 31
0.0
  0
LINE
  8
0
  6
CONTINUOUS
 62
       4
  5
90
 10
29.50000191
 20
-1.3
 30
0.0
 11
51.75000191
 21
-1.3
 31
0.0
  0
LINE
  8
0
  6
CONTINUOUS
 62
     200
  5
91
 10
49.75000191
 20
2.16
 30
0.0
 11
52.25000191
 21
-2.16
 31
0.0
  0
CIRCLE
  8
0
  6
CONTINUOUS
 62
       4
  5
92
 10
20.00001717
 20
0.0
 30
0.0
 40
1.25
  0
CIRCLE
  8
0
  6
CONTINUOUS
 62
       4
  5
93
 10
20.00001717
 20
0.0
 30
0.0
 40
1.39999962
  0
CIRCLE
  8
0
  6
CONTINUOUS
 62
       7
  5
94
 10
8.00129318
 20
6.0
 30
0.0
 40
0.69999999
  0
CIRCLE
  8
0
  6
CONTINUOUS
 62
       7
  5
95
 10
8.00129318
 20
6.0
 30
0.0
 40
1.0
  0
LINE
  8
0
  6
CONTINUOUS
 62
       7
  5
96
 10
0.0
 20
8.0
 30
0.0
 11
47.00129318
 21
8.0
 31
0.0
  0
LINE
  8
0
  6
CENTER
 62
       2
  5
97
 10
8.00129318
 20
8.5
 30
0.0
 11
8.00129318
 21
3.5
 31
0.0
  0
LINE
  8
0
  6
CENTER
 62
       2
  5
98
 10
5.50129318
 20
6.0
 30
0.0
 11
10.50129318
 21
6.0
 31
0.0
  0
LINE
  8
0
  6
CENTER
 62
       2
  5
99
 10
40.50129318
 20
9.5
 30
0.0
 11
40.50129318
 21
0.5
 31
0.0
  0
LINE
  8
0
  6
CENTER
 62
       2
  5
9A
 10
24.00129318
 20
-0.5
 30
0.0
 11
24.00129318
 21
-9.5
 31
0.0
  0
LINE
  8
0
  6
CONTINUOUS
 62
       7
  5
9B
 10
0.0
 20
-8.0
 30
0.0
 11
47.00129318
 21
-8.0
 31
0.0
  0
LINE
  8
0
  6
CONTINUOUS
 62
       7
  5
9C
 10
0.0
 20
-3.20001221
 30
0.0
 11
15.00000191
 21
-3.20001221
 31
0.0
  0
LINE
  8
0
  6
CENTER
 62
       2
  5
9D
 10
-14.19870377
 20
0.0
 30
0.0
 11
49.00129318
 21
0.0
 31
0.0
  0
LINE
  8
0
  6
CONTINUOUS
 62
       7
  5
9E
 10
47.00129318
 20
8.0
 30
0.0
 11
47.00129318
 21
1.3
 31
0.0
  0
LINE
  8
0
  6
CONTINUOUS
 62
       7
  5
9F
 10
0.0
 20
8.0
 30
0.0
 11
0.0
 21
3.19999695
 31
0.0
  0
LINE
  8
0
  6
CONTINUOUS
 62
       7
  5
A0
 10
0.0
 20
3.19999695
 30
0.0
 11
15.00000191
 21
3.19999695
 31
0.0
  0
LINE
  8
0
  6
CONTINUOUS
 62
       7
  5
A1
 10
15.00000191
 20
1.59999084
 30
0.0
 11
47.00129318
 21
1.59999084
 31
0.0
  0
LINE
  8
0
  6
CONTINUOUS
 62
       7
  5
A2
 10
15.00000191
 20
-1.6000061
 30
0.0
 11
47.00129318
 21
-1.6000061
 31
0.0
  0
LINE
  8
0
  6
CONTINUOUS
 62
       7
  5
A3
 10
0.0
 20
-3.20001221
 30
0.0
 11
0.0
 21
-8.0
 31
0.0
  0
LINE
  8
0
  6
CENTER
 62
       2
  5
A4
 10
8.00129318
 20
-8.5
 30
0.0
 11
8.00129318
 21
-3.5
 31
0.0
  0
LINE
  8
0
  6
CENTER
 62
       2
  5
A5
 10
5.50129318
 20
-6.0
 30
0.0
 11
10.50129318
 21
-6.0
 31
0.0
  0
LINE
  8
0
  6
CONTINUOUS
 62
       7
  5
A6
 10
15.00000191
 20
-2.25
 30
0.0
 11
47.00129318
 21
-2.25
 31
0.0
  0
LINE
  8
0
  6
CONTINUOUS
 62
       7
  5
A7
 10
15.00000191
 20
2.25
 30
0.0
 11
47.00129318
 21
2.25
 31
0.0
  0
LINE
  8
0
  6
CENTER
 62
       2
  5
A8
 10
-2.99870682
 20
3.0
 30
0.0
 11
-2.99870682
 21
-3.0
 31
0.0
  0
LINE
  8
0
  6
CONTINUOUS
 62
       7
  5
A9
 10
-11.998703
 20
3.0
 30
0.0
 11
14.30129242
 21
3.0
 31
0.0
  0
LINE
  8
0
  6
CENTER
 62
       2
  5
AA
 10
-8.998703
 20
3.0
 30
0.0
 11
-8.998703
 21
-3.0
 31
0.0
  0
LINE
  8
0
  6
CONTINUOUS
 62
       7
  5
AB
 10
-11.998703
 20
-3.0
 30
0.0
 11
14.30129242
 21
-3.0
 31
0.0
  0
LINE
  8
0
  6
CONTINUOUS
 62
       7
  5
AC
 10
-11.998703
 20
3.0
 30
0.0
 11
-11.998703
 21
-3.0
 31
0.0
  0
LINE
  8
0
  6
CENTER
 62
       2
  5
AD
 10
45.00129318
 20
5.0
 30
0.0
 11
36.00129318
 21
5.0
 31
0.0
  0
LINE
  8
0
  6
CENTER
 62
       2
  5
AE
 10
28.50129509
 20
-5.0
 30
0.0
 11
19.50129318
 21
-5.0
 31
0.0
  0
LINE
  8
0
  6
CONTINUOUS
 62
       7
  5
AF
 10
15.00000191
 20
3.19999695
 30
0.0
 11
15.00000191
 21
-3.20001221
 31
0.0
  0
LINE
  8
0
  6
CONTINUOUS
 62
       7
  5
B0
 10
14.30129242
 20
3.0
 30
0.0
 11
14.30129242
 21
-3.0
 31
0.0
  0
LINE
  8
0
  6
CONTINUOUS
 62
       7
  5
B1
 10
13.30129242
 20
-1.1000061
 30
0.0
 11
13.30129242
 21
-3.0
 31
0.0
  0
LINE
  8
0
  6
CONTINUOUS
 62
       7
  5
B2
 10
13.30129242
 20
3.0
 30
0.0
 11
13.30129242
 21
1.09999084
 31
0.0
  0
LINE
  8
0
  6
CONTINUOUS
 62
       7
  5
B3
 10
6.00129318
 20
1.09999084
 30
0.0
 11
14.30129242
 21
1.09999084
 31
0.0
  0
LINE
  8
0
  6
CONTINUOUS
 62
       7
  5
B4
 10
6.00129318
 20
-1.1000061
 30
0.0
 11
14.30129242
 21
-1.1000061
 31
0.0
  0
LINE
  8
0
  6
CONTINUOUS
 62
       7
  5
B5
 10
9.25129318
 20
-1.1000061
 30
0.0
 11
9.25129318
 21
1.09999084
 31
0.0
  0
LINE
  8
0
  6
CONTINUOUS
 62
       7
  5
B6
 10
6.75129318
 20
-1.1000061
 30
0.0
 11
6.75129318
 21
1.09999084
 31
0.0
  0
LINE
  8
0
  6
CONTINUOUS
 62
       7
  5
B7
 10
6.00129318
 20
1.09999084
 30
0.0
 11
6.00129318
 21
-1.1000061
 31
0.0
  0
ARC
  8
0
  6
CONTINUOUS
 62
       7
  5
B8
 10
24.00129318
 20
-5.0
 30
0.0
 40
3.0
 50
113.55647801
 51
66.44354385
  0
ARC
  8
0
  6
CONTINUOUS
 62
       7
  5
B9
 10
40.50129318
 20
5.0
 30
0.0
 40
3.0
 50
293.55645934
 51
246.44352518
  0
CIRCLE
  8
0
  6
CONTINUOUS
 62
       7
  5
BA
 10
8.00129318
 20
-6.0
 30
0.0
 40
1.0
  0
CIRCLE
  8
0
  6
CONTINUOUS
 62
       7
  5
BB
 10
8.00129318
 20
-6.0
 30
0.0
 40
0.69999999
  0
CIRCLE
  8
0
  6
CONTINUOUS
 62
       7
  5
BC
 10
-8.998703
 20
0.0
 30
0.0
 40
1.22949982
  0
CIRCLE
  8
0
  6
CONTINUOUS
 62
       2
  5
BD
 10
-8.998703
 20
0.0
 30
0.0
 40
1.5
  0
CIRCLE
  8
0
  6
CONTINUOUS
 62
       7
  5
BE
 10
-2.99870682
 20
0.0
 30
0.0
 40
1.22949982
  0
CIRCLE
  8
0
  6
CONTINUOUS
 62
       2
  5
BF
 10
-2.99870682
 20
0.0
 30
0.0
 40
1.5
  0
CIRCLE
  8
0
  6
CONTINUOUS
 62
       7
  5
C0
 10
40.50129318
 20
5.0
 30
0.0
 40
1.22949982
  0
CIRCLE
  8
0
  6
CONTINUOUS
 62
       2
  5
C1
 10
40.50129318
 20
5.0
 30
0.0
 40
1.5
  0
CIRCLE
  8
0
  6
CONTINUOUS
 62
       7
  5
C2
 10
24.00129318
 20
-5.0
 30
0.0
 40
1.22949982
  0
CIRCLE
  8
0
  6
CONTINUOUS
 62
       2
  5
C3
 10
24.00129318
 20
-5.0
 30
0.0
 40
1.5
  0
LINE
  8
0
  6
CONTINUOUS
 62
       7
  5
C4
 10
47.00129318
 20
-1.3
 30
0.0
 11
47.00129318
 21
-8.0
 31
0.0
  0
LINE
  8
0
  6
CONTINUOUS
 62
       4
  5
C5
 10
29.50000191
 20
1.6
 30
0.0
 11
29.50000191
 21
-1.6
 31
0.0
  0
ENDBLK
  8
0
  5
C6
  0
BLOCK
  8
0
  5
C7
  2
MS_4
 70
       0
 10
0.0
 20
0.0
 30
0.0
  3
MS_4
  0
CIRCLE
  8
0
  6
CONTINUOUS
 62
       7
  5
C8
 10
8.00129318
 20
6.0
 30
0.0
 40
0.69999999
  0
CIRCLE
  8
0
  6
CONTINUOUS
 62
       2
  5
C9
 10
8.00129318
 20
6.0
 30
0.0
 40
1.0
  0
LINE
  8
0
  6
CENTER
 62
       2
  5
CA
 10
8.00129318
 20
8.5
 30
0.0
 11
8.00129318
 21
3.5
 31
0.0
  0
LINE
  8
0
  6
CENTER
 62
       2
  5
CB
 10
5.50129318
 20
6.0
 30
0.0
 11
10.50129318
 21
6.0
 31
0.0
  0
CIRCLE
  8
0
  6
CONTINUOUS
 62
       7
  5
CC
 10
25.00129128
 20
5.0
 30
0.0
 40
1.22949982
  0
CIRCLE
  8
0
  6
CONTINUOUS
 62
       2
  5
CD
 10
25.00129128
 20
5.0
 30
0.0
 40
1.5
  0
LINE
  8
0
  6
CENTER
 62
       2
  5
CE
 10
25.00129128
 20
2.5
 30
0.0
 11
25.00129128
 21
7.5
 31
0.0
  0
LINE
  8
0
  6
CENTER
 62
       2
  5
CF
 10
22.50129318
 20
5.0
 30
0.0
 11
27.50129509
 21
5.0
 31
0.0
  0
LINE
  8
0
  6
CONTINUOUS
 62
       7
  5
D0
 10
0.0
 20
8.0
 30
0.0
 11
47.00129318
 21
8.0
 31
0.0
  0
LINE
  8
0
  6
CONTINUOUS
 62
       7
  5
D1
 10
15.00000191
 20
1.6000061
 30
0.0
 11
47.00129318
 21
1.6000061
 31
0.0
  0
LINE
  8
0
  6
CONTINUOUS
 62
       7
  5
D2
 10
15.00000191
 20
2.25
 30
0.0
 11
47.00129318
 21
2.25
 31
0.0
  0
LINE
  8
0
  6
CONTINUOUS
 62
       7
  5
D3
 10
0.0
 20
-8.0
 30
0.0
 11
47.00129318
 21
-8.0
 31
0.0
  0
LINE
  8
0
  6
CONTINUOUS
 62
       7
  5
D4
 10
0.0
 20
-3.20000458
 30
0.0
 11
15.00000191
 21
-3.20000458
 31
0.0
  0
LINE
  8
0
  6
CENTER
 62
       2
  5
D5
 10
-14.19870377
 20
0.0
 30
0.0
 11
49.00129318
 21
0.0
 31
0.0
  0
LINE
  8
0
  6
CONTINUOUS
 62
       7
  5
D6
 10
47.00129318
 20
7.99999237
 30
0.0
 11
47.00129318
 21
1.3
 31
0.0
  0
LINE
  8
0
  6
CONTINUOUS
 62
       7
  5
D7
 10
0.0
 20
7.99999237
 30
0.0
 11
0.0
 21
3.19999695
 31
0.0
  0
LINE
  8
0
  6
CONTINUOUS
 62
       7
  5
D8
 10
0.0
 20
3.19999695
 30
0.0
 11
15.00000191
 21
3.19999695
 31
0.0
  0
LINE
  8
0
  6
CONTINUOUS
 62
       7
  5
D9
 10
15.00000191
 20
-1.6000061
 30
0.0
 11
47.00129318
 21
-1.6000061
 31
0.0
  0
LINE
  8
0
  6
CONTINUOUS
 62
       7
  5
DA
 10
0.0
 20
-3.20000458
 30
0.0
 11
0.0
 21
-8.0
 31
0.0
  0
LINE
  8
0
  6
CENTER
 62
       2
  5
DB
 10
8.00129318
 20
-8.5
 30
0.0
 11
8.00129318
 21
-3.5
 31
0.0
  0
LINE
  8
0
  6
CENTER
 62
       2
  5
DC
 10
5.50129318
 20
-6.0
 30
0.0
 11
10.50129318
 21
-6.0
 31
0.0
  0
LINE
  8
0
  6
CONTINUOUS
 62
       7
  5
DD
 10
15.00000191
 20
-2.25
 30
0.0
 11
47.00129318
 21
-2.25
 31
0.0
  0
LINE
  8
0
  6
CENTER
 62
       2
  5
DE
 10
-2.99870682
 20
3.0
 30
0.0
 11
-2.99870682
 21
-3.0
 31
0.0
  0
LINE
  8
0
  6
CONTINUOUS
 62
       7
  5
DF
 10
-11.998703
 20
3.0
 30
0.0
 11
14.30129242
 21
3.0
 31
0.0
  0
LINE
  8
0
  6
CENTER
 62
       2
  5
E0
 10
-8.998703
 20
3.0
 30
0.0
 11
-8.998703
 21
-3.0
 31
0.0
  0
LINE
  8
0
  6
CONTINUOUS
 62
       7
  5
E1
 10
-11.998703
 20
-3.0
 30
0.0
 11
14.30129242
 21
-3.0
 31
0.0
  0
LINE
  8
0
  6
CONTINUOUS
 62
       7
  5
E2
 10
-11.998703
 20
3.0
 30
0.0
 11
-11.998703
 21
-3.0
 31
0.0
  0
LINE
  8
0
  6
CONTINUOUS
 62
       7
  5
E3
 10
15.00000191
 20
3.19999695
 30
0.0
 11
15.00000191
 21
-3.20000458
 31
0.0
  0
LINE
  8
0
  6
CONTINUOUS
 62
       7
  5
E4
 10
14.30129242
 20
3.0
 30
0.0
 11
14.30129242
 21
-3.0
 31
0.0
  0
LINE
  8
0
  6
CONTINUOUS
 62
       7
  5
E5
 10
13.30129242
 20
3.0
 30
0.0
 11
13.30129242
 21
1.09999847
 31
0.0
  0
LINE
  8
0
  6
CONTINUOUS
 62
       7
  5
E6
 10
6.00129318
 20
1.09999847
 30
0.0
 11
6.00129318
 21
-1.09999847
 31
0.0
  0
LINE
  8
0
  6
CONTINUOUS
 62
       7
  5
E7
 10
6.75129318
 20
-1.09999847
 30
0.0
 11
6.75129318
 21
1.09999847
 31
0.0
  0
LINE
  8
0
  6
CONTINUOUS
 62
       7
  5
E8
 10
9.25129318
 20
-1.09999847
 30
0.0
 11
9.25129318
 21
1.09999847
 31
0.0
  0
LINE
  8
0
  6
CONTINUOUS
 62
       7
  5
E9
 10
6.00129318
 20
-1.09999847
 30
0.0
 11
14.30129242
 21
-1.09999847
 31
0.0
  0
LINE
  8
0
  6
CONTINUOUS
 62
       7
  5
EA
 10
6.00129318
 20
1.09999847
 30
0.0
 11
14.30129242
 21
1.09999847
 31
0.0
  0
LINE
  8
0
  6
CONTINUOUS
 62
       7
  5
EB
 10
13.30129242
 20
-1.09999847
 30
0.0
 11
13.30129242
 21
-3.0
 31
0.0
  0
CIRCLE
  8
0
  6
CONTINUOUS
 62
       2
  5
EC
 10
8.00129318
 20
-6.0
 30
0.0
 40
1.0
  0
CIRCLE
  8
0
  6
CONTINUOUS
 62
       7
  5
ED
 10
8.00129318
 20
-6.0
 30
0.0
 40
0.69999999
  0
CIRCLE
  8
0
  6
CONTINUOUS
 62
       7
  5
EE
 10
25.00129128
 20
-5.0
 30
0.0
 40
1.22949982
  0
CIRCLE
  8
0
  6
CONTINUOUS
 62
       2
  5
EF
 10
25.00129128
 20
-5.0
 30
0.0
 40
1.5
  0
LINE
  8
0
  6
CENTER
 62
       2
  5
F0
 10
25.00129128
 20
-2.5
 30
0.0
 11
25.00129128
 21
-7.5
 31
0.0
  0
LINE
  8
0
  6
CENTER
 62
       2
  5
F1
 10
22.50129318
 20
-5.0
 30
0.0
 11
27.50129509
 21
-5.0
 31
0.0
  0
CIRCLE
  8
0
  6
CONTINUOUS
 62
       7
  5
F2
 10
-2.99870682
 20
0.0
 30
0.0
 40
1.22949982
  0
CIRCLE
  8
0
  6
CONTINUOUS
 62
       2
  5
F3
 10
-2.99870682
 20
0.0
 30
0.0
 40
1.5
  0
CIRCLE
  8
0
  6
CONTINUOUS
 62
       7
  5
F4
 10
-8.998703
 20
0.0
 30
0.0
 40
1.22949982
  0
CIRCLE
  8
0
  6
CONTINUOUS
 62
       2
  5
F5
 10
-8.998703
 20
0.0
 30
0.0
 40
1.5
  0
LINE
  8
0
  6
CONTINUOUS
 62
       4
  5
F6
 10
39.50129318
 20
1.3
 30
0.0
 11
56.24129318
 21
1.3
 31
0.0
  0
LINE
  8
0
  6
CONTINUOUS
 62
       4
  5
F7
 10
39.50129318
 20
-1.3
 30
0.0
 11
57.75129318
 21
-1.3
 31
0.0
  0
LINE
  8
0
  6
CONTINUOUS
 62
     200
  5
F8
 10
55.75129318
 20
2.16
 30
0.0
 11
58.25129318
 21
-2.16
 31
0.0
  0
LINE
  8
0
  6
CONTINUOUS
 62
       4
  5
F9
 10
24.00129318
 20
1.6
 30
0.0
 11
24.00129318
 21
-1.6
 31
0.0
  0
LINE
  8
0
  6
CONTINUOUS
 62
       4
  5
FA
 10
24.96129318
 20
-0.7
 30
0.0
 11
26.70129318
 21
1.03
 31
0.0
  0
CIRCLE
  8
0
  6
CONTINUOUS
 62
       4
  5
FB
 10
26.00130844
 20
0.0
 30
0.0
 40
1.25
  0
CIRCLE
  8
0
  6
CONTINUOUS
 62
       4
  5
FC
 10
26.00130844
 20
0.0
 30
0.0
 40
1.39999962
  0
LINE
  8
0
  6
CONTINUOUS
 62
       4
  5
FD
 10
25.32129318
 20
-1.05
 30
0.0
 11
27.05129318
 21
0.67
 31
0.0
  0
LINE
  8
0
  6
CONTINUOUS
 62
       7
  5
FE
 10
47.00129318
 20
-1.3
 30
0.0
 11
47.00129318
 21
-8.0
 31
0.0
  0
LINE
  8
0
  6
CONTINUOUS
 62
       4
  5
FF
 10
39.50129318
 20
1.6
 30
0.0
 11
39.50129318
 21
-1.6
 31
0.0
  0
ENDBLK
  8
0
  5
100
  0
ENDSEC
  0
SECTION
  2
ENTITIES
  0
INSERT
  8
0
  5
101
  2
MS_4
 10
-58.47068156
 20
-81.84322605
 30
0.0
  0
INSERT
  8
0
  5
102
  2
MS_3
 10
-58.47068156
 20
76.15677395
 30
0.0
  0
INSERT
  8
0
  5
103
  2
MS_2
 10
68.53061162
 20
-5.34323368
 30
0.0
  0
INSERT
  8
0
  5
104
  2
MS_1
 10
-58.47068156
 20
-5.34322987
 30
0.0
  0
TEXT
  8
0
  6
CONTINUOUS
 62
     255
  5
105
 10
-168.92430811
 20
122.8500061
 30
0.0
 40
4.5
  1
AIR HAND
 41
1.10091743
  7
MX_NOTE_STANDARD
 11
-168.92430811
 21
125.1000061
 31
0.0
 73
       2
  0
TEXT
  8
0
  6
CONTINUOUS
 62
       7
  5
106
 10
-185.70384616
 20
105.3500061
 30
0.0
 40
4.5
  1
MODEL:NHBDSL-12-ZE135A2
 41
1.06153846
  7
MX_NOTE_STANDARD
 11
-185.70384616
 21
107.6000061
 31
0.0
 73
       2
  0
LINE
  8
0
  6
CONTINUOUS
 62
       7
  5
107
 10
-194.25
 20
132.6000061
 30
0.0
 11
194.80000305
 21
132.6000061
 31
0.0
  0
LINE
  8
0
  6
CONTINUOUS
 62
       7
  5
108
 10
194.80000305
 20
132.6000061
 30
0.0
 11
194.80000305
 21
-133.5
 31
0.0
  0
LINE
  8
0
  6
CONTINUOUS
 62
       7
  5
109
 10
-194.25
 20
132.6000061
 30
0.0
 11
-194.25
 21
-133.5
 31
0.0
  0
LINE
  8
0
  6
CONTINUOUS
 62
       7
  5
10A
 10
-194.25
 20
-133.5
 30
0.0
 11
194.80000305
 21
-133.5
 31
0.0
  0
LINE
  8
0
  6
CONTINUOUS
 62
       7
  5
10B
 10
109.80000305
 20
-118.5
 30
0.0
 11
109.80000305
 21
-133.5
 31
0.0
  0
LINE
  8
0
  6
CONTINUOUS
 62
       7
  5
10C
 10
109.80000305
 20
-118.5
 30
0.0
 11
194.80000305
 21
-118.5
 31
0.0
  0
LINE
  8
0
  6
CONTINUOUS
 62
       7
  5
10D
 10
109.80000305
 20
132.6000061
 30
0.0
 11
109.80000305
 21
117.6000061
 31
0.0
  0
LINE
  8
0
  6
CONTINUOUS
 62
       7
  5
10E
 10
109.80000305
 20
117.6000061
 30
0.0
 11
194.80000305
 21
117.6000061
 31
0.0
  0
LINE
  8
0
  6
CONTINUOUS
 62
       7
  5
10F
 10
-194.25
 20
117.6000061
 30
0.0
 11
-109.25
 21
117.6000061
 31
0.0
  0
LINE
  8
0
  6
CONTINUOUS
 62
       7
  5
110
 10
-109.25
 20
132.6000061
 30
0.0
 11
-109.25
 21
117.6000061
 31
0.0
  0
TEXT
  8
0
  6
CONTINUOUS
 62
       7
  5
111
 10
135.28361341
 20
122.8500061
 30
0.0
 40
4.5
  1
Ver. 1.0
 41
1.3114754
  7
MX_NOTE_STANDARD
 11
135.28361341
 21
125.1000061
 31
0.0
 73
       2
  0
TEXT
  8
0
  6
CONTINUOUS
 62
       7
  5
112
 10
115.52672598
 20
-129.1500001
 30
0.0
 40
6.30000019
  1
KOGANEI CORP.
 41
1.12068965
  7
MX_NOTE_STANDARD
 11
115.52672598
 21
-126.0
 31
0.0
 73
       2
  0
ENDSEC
  0
EOF
