  0
SECTION
  2
HEADER
  0
ENDSEC
  0
SECTION
  2
TABLES
  0
TABLE
  2
LTYPE
 70
     4
  0
LTYPE
  2
CONTINUOUS
 70
    64
  3
Solid line
 72
    65
 73
     0
 40
0.000000
  0
LTYPE
  2
DASHED
 70
    64
  3
__ __ __ __ __ __ __ __ __ __ __ __ __ __ __
 72
    65
 73
     2
 40
3.500000
 49
2.000000
 49
-1.500000
  0
LTYPE
  2
CENTER
 70
    64
  3
____ _ ____ _ ____ _ ____ _ ____ _ ____ _ ____
 72
    65
 73
     4
 40
17.500000
 49
13.000000
 49
-1.500000
 49
1.500000
 49
-1.500000
  0
LTYPE
  2
PHANTOM
 70
    64
  3
_____ _ _ _____ _ _ _____ _ _ _____ _ _ ____  
 72
    65
 73
     6
 40
15.500000
 49
8.000000
 49
-1.500000
 49
1.500000
 49
-1.500000
 49
1.500000
 49
-1.500000
  0
LTYPE
  2
DASHED1
 70
    64
  3
__ __ __ __ __ __ __ __ __ __ __ __ __ __ __
 72
    65
 73
     2
 40
1.500000
 49
1.000000
 49
-0.500000
  0
LTYPE
  2
DASHED2
 70
    64
  3
__ __ __ __ __ __ __ __ __ __ __ __ __ __ __
 72
    65
 73
     2
 40
3.500000
 49
2.500000
 49
-1.000000
  0
LTYPE
  2
DASHED3
 70
    64
  3
__ __ __ __ __ __ __ __ __ __ __ __ __ __ __
 72
    65
 73
     2
 40
6.000000
 49
4.000000
 49
-2.000000
  0
LTYPE
  2
DASHED4
 70
    64
  3
__ __ __ __ __ __ __ __ __ __ __ __ __ __ __
 72
    65
 73
     2
 40
12.000000
 49
10.000000
 49
-2.000000
  0
LTYPE
  2
DASHED5
 70
    64
  3
__ __ __ __ __ __ __ __ __ __ __ __ __ __ __
 72
    65
 73
     2
 40
17.000000
 49
15.000000
 49
-2.000000
  0
LTYPE
  2
DASHED6
 70
    64
  3
__ __ __ __ __ __ __ __ __ __ __ __ __ __ __
 72
    65
 73
     2
 40
29.000000
 49
27.000000
 49
-2.000000
  0
LTYPE
  2
PHANTOM1
 70
    64
  3
_____ _ _ _____ _ _ _____ _ _ _____ _ _ ____  
 72
    65
 73
     6
 40
31.000000
 49
25.000000
 49
-1.500000
 49
1.000000
 49
-1.000000
 49
1.000000
 49
-1.500000
  0
LTYPE
  2
PHANTOM2
 70
    64
  3
_____ _ _ _____ _ _ _____ _ _ _____ _ _ ____  
 72
    65
 73
     6
 40
36.000000
 49
27.000000
 49
-1.500000
 49
2.500000
 49
-1.000000
 49
2.500000
 49
-1.500000
  0
LTYPE
  2
PHANTOM3
 70
    64
  3
_____ _ _ _____ _ _ _____ _ _ _____ _ _ ____  
 72
    65
 73
     6
 40
78.000000
 49
64.000000
 49
-2.000000
 49
4.000000
 49
-2.000000
 49
4.000000
 49
-2.000000
  0
LTYPE
  2
CENTER1
 70
    64
  3
____ _ ____ _ ____ _ ____ _ ____ _ ____ _ ____
 72
    65
 73
     4
 40
19.000000
 49
14.000000
 49
-1.000000
 49
3.000000
 49
-1.000000
  0
LTYPE
  2
CENTER2
 70
    64
  3
____ _ ____ _ ____ _ ____ _ ____ _ ____ _ ____
 72
    65
 73
     4
 40
28.500000
 49
25.000000
 49
-1.000000
 49
1.500000
 49
-1.000000
  0
LTYPE
  2
CENTER3
 70
    64
  3
____ _ ____ _ ____ _ ____ _ ____ _ ____ _ ____
 72
    65
 73
     4
 40
31.500000
 49
27.000000
 49
-1.000000
 49
2.500000
 49
-1.000000
  0
LTYPE
  2
CENTER4
 70
    64
  3
____ _ ____ _ ____ _ ____ _ ____ _ ____ _ ____
 72
    65
 73
     4
 40
50.000000
 49
45.000000
 49
-1.000000
 49
3.000000
 49
-1.000000
  0
LTYPE
  2
CENTER5
 70
    64
  3
____ _ ____ _ ____ _ ____ _ ____ _ ____ _ ____
 72
    65
 73
     4
 40
100.000000
 49
92.000000
 49
-2.000000
 49
4.000000
 49
-2.000000
  0
LTYPE
  2
SBK1
 70
    64
  3
______ _ _ _ ______ _ _ _ ______ _ _ _ _____  
 72
    65
 73
     8
 40
60.500000
 49
45.000000
 49
-2.000000
 49
2.500000
 49
-2.000000
 49
2.500000
 49
-2.000000
 49
2.500000
 49
-2.000000
  0
LTYPE
  2
SBK2
 70
    64
  3
______ _ _ _ ______ _ _ _ ______ _ _ _ _____  
 72
    65
 73
     8
 40
84.000000
 49
64.000000
 49
-2.000000
 49
4.000000
 49
-2.000000
 49
4.000000
 49
-2.000000
 49
4.000000
 49
-2.000000
  0
LTYPE
  2
STCH
 70
    64
  3
__ __ __ __ __ __ __ __ __ __ __ __ __ __ __
 72
    65
 73
     2
 40
3.000000
 49
1.000000
 49
-2.000000
  0
LTYPE
  2
MTCH
 70
    64
  3
_____ _ _ _____ _ _ _____ _ _ _____ _ _ ____  
 72
    65
 73
     6
 40
80.000000
 49
66.000000
 49
-2.000000
 49
4.000000
 49
-2.000000
 49
4.000000
 49
-2.000000
  0
ENDTAB
  0
TABLE
  2
LAYER
 70
     1
  0
LAYER
  2
0
 70
     0
 62
     7
  6
CONTINUOUS
  0
ENDTAB
  0
TABLE
  2
STYLE
 70
     1
  0
STYLE
  2
STANDARD
 70
     0
 40
0.000000
 41
1.000000
 50
0.000000
 71
     0
 42
0.200000
  3
txt
  4
BIGFONT
  0
ENDTAB
  0
TABLE
  2
VIEW
 70
     0
  0
ENDTAB
  0
ENDSEC
  0
SECTION
  2
BLOCKS
  0
ENDSEC
  0
SECTION
  2
ENTITIES
  0
LINE
  8
0
  6
CENTER
 62
     2
 10
-46.562878
 20
-77.188766
 11
-46.562878
 21
-70.937912
  0
LINE
  8
0
  6
CENTER
 62
     2
 10
-43.279701
 20
-74.039185
 11
-49.804012
 21
-74.039185
  0
LINE
  8
0
  6
CENTER
 62
     2
 10
-46.562878
 20
-62.515518
 11
-46.562878
 21
-56.937912
  0
LINE
  8
0
  6
CENTER
 62
     2
 10
-43.279701
 20
-60.039185
 11
-49.804012
 21
-60.039185
  0
LINE
  8
0
  6
CENTER
 62
     2
 10
-51.562878
 20
-79.852554
 11
-51.562878
 21
-67.877594
  0
LINE
  8
0
 10
-86.062874
 20
-56.039185
 11
-86.062874
 21
-62.539185
  0
LINE
  8
0
 10
-86.062874
 20
-71.539185
 11
-86.062874
 21
-78.039185
  0
LINE
  8
0
  6
CENTER
 62
     2
 10
-32.062878
 20
-79.471191
 11
-32.062878
 21
-67.600891
  0
LINE
  8
0
  6
CENTER
 62
     2
 10
-24.680946
 20
-73.039185
 11
-38.791805
 21
-73.039185
  0
LINE
  8
0
  6
CENTER
 62
     2
 10
-52.180935
 20
-61.039185
 11
-66.291801
 21
-61.039185
  0
LINE
  8
0
  6
CENTER
 62
     2
 10
-59.562878
 20
-65.166443
 11
-59.562878
 21
-55.600891
  0
LINE
  8
0
 10
-109.062881
 20
-71.039185
 11
-72.562874
 21
-71.039185
  0
LINE
  8
0
 10
-109.062881
 20
-63.039185
 11
-109.062881
 21
-71.039185
  0
LINE
  8
0
 10
-72.562874
 20
-63.039185
 11
-109.062881
 21
-63.039185
  0
LINE
  8
0
 10
-73.562874
 20
-71.039185
 11
-73.562874
 21
-63.039185
  0
LINE
  8
0
 10
-72.562874
 20
-71.039185
 11
-72.562874
 21
-63.039185
  0
LINE
  8
0
 62
     2
 10
-105.062881
 20
-70.198502
 11
-105.062881
 21
-63.937912
  0
LINE
  8
0
 62
     2
 10
-97.062874
 20
-70.198502
 11
-97.062874
 21
-63.937912
  0
LINE
  8
0
 10
-90.562874
 20
-56.039185
 11
-21.562874
 21
-56.039185
  0
LINE
  8
0
 10
-90.562874
 20
-78.039185
 11
-21.562874
 21
-78.039185
  0
LINE
  8
0
 10
-90.562874
 20
-71.539185
 11
-90.562874
 21
-78.039185
  0
LINE
  8
0
 10
-21.562874
 20
-56.039185
 11
-21.562874
 21
-65.739182
  0
LINE
  8
0
 10
-90.562874
 20
-56.039185
 11
-90.562874
 21
-62.539185
  0
LINE
  8
0
 10
-71.562874
 20
-62.539185
 11
-71.562874
 21
-71.539185
  0
LINE
  8
0
 10
-90.562874
 20
-71.539185
 11
-71.562874
 21
-71.539185
  0
LINE
  8
0
 10
-90.562874
 20
-62.539185
 11
-71.562874
 21
-62.539185
  0
LINE
  8
0
  6
CENTER
 62
     2
 10
-8.562874
 20
-67.039185
 11
-111.665070
 21
-67.039185
  0
LINE
  8
0
 10
-71.562874
 20
-69.289185
 11
-21.562874
 21
-69.289185
  0
LINE
  8
0
 10
-71.562874
 20
-68.639191
 11
-21.562874
 21
-68.639191
  0
LINE
  8
0
 10
-71.562874
 20
-64.789185
 11
-21.562874
 21
-64.789185
  0
LINE
  8
0
 10
-71.562874
 20
-65.439194
 11
-21.562874
 21
-65.439194
  0
LINE
  8
0
 62
     4
 10
-44.562874
 20
-65.439194
 11
-44.562874
 21
-68.639191
  0
LINE
  8
0
 62
     4
 10
-22.562874
 20
-65.439194
 11
-22.562874
 21
-68.639191
  0
LINE
  8
0
 62
     4
 10
-43.597099
 20
-67.741219
 11
-41.860828
 21
-66.004951
  0
LINE
  8
0
 62
     4
 10
-43.239166
 20
-68.090416
 11
-41.511612
 21
-66.362862
  0
LINE
  8
0
 62
     4
 10
-22.562874
 20
-65.739182
 11
-12.313431
 21
-65.739182
  0
LINE
  8
0
 62
     4
 10
-22.562874
 20
-68.339188
 11
-10.812317
 21
-68.339188
  0
LINE
  8
0
 62
     1
 10
-12.812892
 20
-64.874084
 11
-10.312892
 21
-69.204208
  0
LINE
  8
0
 10
-21.562874
 20
-68.339188
 11
-21.562874
 21
-78.039185
  0
LINE
  8
0
  6
CENTER
 62
     2
 10
85.602539
 20
-74.039185
 11
79.602539
 21
-74.039185
  0
LINE
  8
0
  6
CENTER
 62
     2
 10
82.602539
 20
-77.039185
 11
82.602539
 21
-71.039185
  0
LINE
  8
0
 10
78.902534
 20
-64.639191
 11
79.602539
 21
-64.639191
  0
LINE
  8
0
 10
79.602547
 20
-64.639168
 11
80.402557
 21
-65.439171
  0
LINE
  8
0
 10
80.402534
 20
-65.439194
 11
81.402534
 21
-65.439194
  0
LINE
  8
0
 10
81.402573
 20
-65.439217
 11
81.902573
 21
-64.939217
  0
LINE
  8
0
 10
81.902534
 20
-64.939194
 11
83.502533
 21
-64.939194
  0
LINE
  8
0
 10
81.902534
 20
-69.139191
 11
83.502533
 21
-69.139191
  0
LINE
  8
0
 10
81.402550
 20
-68.639198
 11
81.902557
 21
-69.139198
  0
LINE
  8
0
 10
80.402534
 20
-68.639191
 11
81.402534
 21
-68.639191
  0
LINE
  8
0
 10
79.602600
 20
-69.439247
 11
80.402596
 21
-68.639252
  0
LINE
  8
0
 10
78.902534
 20
-69.439194
 11
79.602539
 21
-69.439194
  0
LINE
  8
0
 10
78.602539
 20
-56.039185
 11
112.602531
 21
-56.039185
  0
LINE
  8
0
 10
112.602531
 20
-56.039185
 11
112.602531
 21
-64.339188
  0
LINE
  8
0
 10
78.602539
 20
-56.039185
 11
78.602539
 21
-64.339188
  0
LINE
  8
0
 10
112.302536
 20
-64.639191
 11
111.602531
 21
-64.639191
  0
LINE
  8
0
 10
111.602577
 20
-64.639236
 11
110.802582
 21
-65.439224
  0
LINE
  8
0
 10
110.802536
 20
-65.439194
 11
109.802536
 21
-65.439194
  0
LINE
  8
0
 10
109.802567
 20
-65.439186
 11
109.302567
 21
-64.939186
  0
LINE
  8
0
 10
109.302536
 20
-64.939194
 11
107.702538
 21
-64.939194
  0
LINE
  8
0
 10
109.302536
 20
-69.139191
 11
107.702538
 21
-69.139191
  0
LINE
  8
0
 10
109.802589
 20
-68.639259
 11
109.302589
 21
-69.139259
  0
LINE
  8
0
 10
110.802536
 20
-68.639191
 11
109.802536
 21
-68.639191
  0
LINE
  8
0
 10
111.602547
 20
-69.439163
 11
110.802559
 21
-68.639175
  0
LINE
  8
0
 10
112.302536
 20
-69.439194
 11
111.602531
 21
-69.439194
  0
LINE
  8
0
 10
112.602531
 20
-69.739197
 11
112.602531
 21
-78.039185
  0
LINE
  8
0
 10
78.602539
 20
-78.039185
 11
112.602531
 21
-78.039185
  0
LINE
  8
0
 10
78.602539
 20
-69.739197
 11
78.602539
 21
-78.039185
  0
LINE
  8
0
 62
     4
 10
110.352516
 20
-68.539185
 11
110.352516
 21
-65.539185
  0
LINE
  8
0
 62
     4
 10
110.352516
 20
-65.539185
 11
109.902519
 21
-65.539185
  0
LINE
  8
0
 62
     4
 10
109.802551
 20
-65.439186
 11
109.902557
 21
-65.539192
  0
LINE
  8
0
 62
     4
 10
110.852516
 20
-68.289185
 11
110.352516
 21
-68.289185
  0
LINE
  8
0
 62
     4
 10
110.852516
 20
-65.789185
 11
110.352516
 21
-65.789185
  0
LINE
  8
0
 62
     4
 10
110.852516
 20
-68.289185
 11
110.852516
 21
-65.789185
  0
LINE
  8
0
 62
     4
 10
109.802559
 20
-68.639175
 11
109.902557
 21
-68.539169
  0
LINE
  8
0
 62
     4
 10
110.352516
 20
-68.539185
 11
109.902519
 21
-68.539185
  0
LINE
  8
0
 62
     4
 10
80.852547
 20
-68.539185
 11
80.852547
 21
-65.539185
  0
LINE
  8
0
 62
     4
 10
80.852547
 20
-65.539185
 11
81.302544
 21
-65.539185
  0
LINE
  8
0
 62
     4
 10
81.402496
 20
-65.439194
 11
81.302498
 21
-65.539192
  0
LINE
  8
0
 62
     4
 10
80.352547
 20
-68.289185
 11
80.852547
 21
-68.289185
  0
LINE
  8
0
 62
     4
 10
80.352547
 20
-65.789185
 11
80.852547
 21
-65.789185
  0
LINE
  8
0
 62
     4
 10
80.352547
 20
-68.289185
 11
80.352547
 21
-65.789185
  0
LINE
  8
0
 62
     4
 10
81.402512
 20
-68.639175
 11
81.302505
 21
-68.539169
  0
LINE
  8
0
 62
     4
 10
80.852547
 20
-68.539185
 11
81.302544
 21
-68.539185
  0
LINE
  8
0
  6
CENTER
 62
     2
 10
95.602531
 20
-80.782928
 11
95.602531
 21
-52.599918
  0
LINE
  8
0
  6
CENTER
 62
     2
 10
117.848518
 20
-67.039185
 11
74.098518
 21
-67.039185
  0
LINE
  8
0
  6
CENTER
 62
     2
 10
108.602531
 20
-63.039185
 11
108.602531
 21
-57.039185
  0
LINE
  8
0
  6
CENTER
 62
     2
 10
111.602531
 20
-60.039185
 11
105.602531
 21
-60.039185
  0
LINE
  8
0
  6
CENTER
 62
     2
 10
-94.758133
 20
42.760815
 11
-17.923813
 21
42.760815
  0
LINE
  8
0
 10
-21.562866
 20
59.760815
 11
-21.562866
 21
42.760815
  0
LINE
  8
0
  6
PHANTOM
 62
     2
 10
-77.562866
 20
83.260803
 11
-83.062866
 21
83.260803
  0
LINE
  8
0
 10
-90.562866
 20
52.260815
 11
-90.562866
 21
42.760815
  0
LINE
  8
0
 10
-86.232742
 20
59.760815
 11
-21.562866
 21
59.760815
  0
LINE
  8
0
 10
-90.562958
 20
52.260830
 11
-86.232826
 21
59.760830
  0
LINE
  8
0
  6
CENTER
 62
     2
 10
-51.562870
 20
58.157200
 11
-51.562870
 21
50.775940
  0
LINE
  8
0
  6
CENTER
 62
     2
 10
-55.488895
 20
54.760815
 11
-47.660286
 21
54.760815
  0
LINE
  8
0
  6
CENTER
 62
     2
 10
-80.562866
 20
86.792603
 11
-80.562866
 21
59.969143
  0
LINE
  8
0
  6
PHANTOM
 62
     2
 10
-77.562866
 20
83.260803
 11
-77.562866
 21
59.760815
  0
LINE
  8
0
  6
PHANTOM
 62
     2
 10
-83.062866
 20
83.260803
 11
-83.062866
 21
59.760815
  0
LINE
  8
0
  6
PHANTOM
 62
     2
 10
-109.180733
 20
56.265141
 11
-108.892883
 21
50.772678
  0
LINE
  8
0
  6
CENTER
 62
     2
 10
-112.550774
 20
53.084339
 11
-85.764061
 21
54.488171
  0
LINE
  8
0
  6
PHANTOM
 62
     2
 10
-109.180817
 20
56.265007
 11
-87.535088
 21
57.399410
  0
LINE
  8
0
  6
PHANTOM
 62
     2
 10
-108.893005
 20
50.772617
 11
-90.418343
 21
51.740833
  0
LINE
  8
0
 10
-109.062866
 20
57.760822
 11
-109.062866
 21
52.260822
  0
LINE
  8
0
  6
CENTER
 62
     2
 10
-112.594681
 20
54.760815
 11
-85.771194
 21
54.760815
  0
LINE
  8
0
 10
-109.062881
 20
57.760807
 11
-87.387451
 21
57.760807
  0
LINE
  8
0
 10
-109.062881
 20
52.260815
 11
-90.562874
 21
52.260815
  0
LINE
  8
0
  6
CENTER
 62
     2
 10
-59.562870
 20
62.423153
 11
-59.562870
 21
54.906925
  0
LINE
  8
0
  6
CENTER
 62
     2
 10
-32.062870
 20
62.423153
 11
-32.062870
 21
54.906925
  0
LINE
  8
0
 10
-21.562866
 20
25.760807
 11
-21.562866
 21
42.760815
  0
LINE
  8
0
  6
PHANTOM
 62
     2
 10
-77.562866
 20
2.260803
 11
-83.062866
 21
2.260803
  0
LINE
  8
0
 10
-90.562866
 20
33.260807
 11
-90.562866
 21
42.760815
  0
LINE
  8
0
 10
-86.232742
 20
25.760807
 11
-21.562866
 21
25.760807
  0
LINE
  8
0
 10
-90.562897
 20
33.260803
 11
-86.232773
 21
25.760807
  0
LINE
  8
0
  6
CENTER
 62
     2
 10
-80.562866
 20
52.174980
 11
-80.562866
 21
57.502312
  0
LINE
  8
0
  6
CENTER
 62
     2
 10
-83.167633
 20
54.760815
 11
-78.030563
 21
54.760815
  0
LINE
  8
0
  6
CENTER
 62
     2
 10
-80.562866
 20
-1.116554
 11
-80.562866
 21
25.552479
  0
LINE
  8
0
  6
PHANTOM
 62
     2
 10
-77.562866
 20
2.260803
 11
-77.562866
 21
25.760807
  0
LINE
  8
0
  6
PHANTOM
 62
     2
 10
-83.062866
 20
2.260803
 11
-83.062866
 21
25.760807
  0
LINE
  8
0
  6
PHANTOM
 62
     2
 10
-109.180687
 20
29.256483
 11
-108.892838
 21
34.748947
  0
LINE
  8
0
  6
CENTER
 62
     2
 10
-112.550789
 20
32.437164
 11
-85.764069
 21
31.033331
  0
LINE
  8
0
  6
PHANTOM
 62
     2
 10
-109.180840
 20
29.256483
 11
-87.535095
 21
28.122078
  0
LINE
  8
0
  6
PHANTOM
 62
     2
 10
-108.892990
 20
34.748917
 11
-90.418327
 21
33.780701
  0
LINE
  8
0
 10
-109.062866
 20
27.760792
 11
-109.062866
 21
33.260792
  0
LINE
  8
0
  6
CENTER
 62
     2
 10
-112.594681
 20
30.760807
 11
-85.771194
 21
30.760807
  0
LINE
  8
0
 10
-109.062881
 20
27.760807
 11
-87.387451
 21
27.760807
  0
LINE
  8
0
 10
-109.062881
 20
33.260807
 11
-90.562874
 21
33.260807
  0
LINE
  8
0
  6
CENTER
 62
     2
 10
-46.562870
 20
22.297077
 11
-46.562870
 21
28.571339
  0
LINE
  8
0
 62
     4
 10
-21.562866
 20
31.610817
 11
-12.313416
 21
31.610817
  0
LINE
  8
0
 62
     4
 10
-21.562866
 20
29.010811
 11
-10.812302
 21
29.010811
  0
LINE
  8
0
 62
     1
 10
-12.812881
 20
32.475918
 11
-10.312880
 21
28.145792
  0
LINE
  8
0
 62
     4
 10
-21.562866
 20
56.510818
 11
-12.313416
 21
56.510818
  0
LINE
  8
0
 62
     1
 10
-12.812860
 20
57.375916
 11
-10.312860
 21
53.045792
  0
LINE
  8
0
 62
     4
 10
-21.562866
 20
53.910812
 11
-10.812302
 21
53.910812
  0
LINE
  8
0
  6
CENTER
 62
     2
 10
-51.562870
 20
27.169369
 11
-51.562870
 21
34.568443
  0
LINE
  8
0
  6
CENTER
 62
     2
 10
-55.180603
 20
30.760807
 11
-48.045776
 21
30.760807
  0
LINE
  8
0
  6
CENTER
 62
     2
 10
-80.562866
 20
28.174973
 11
-80.562866
 21
33.502304
  0
LINE
  8
0
  6
CENTER
 62
     2
 10
-83.167633
 20
30.760807
 11
-78.030563
 21
30.760807
  0
LINE
  8
0
 10
-194.250000
 20
132.600006
 11
194.800003
 21
132.600006
  0
LINE
  8
0
 10
194.800003
 20
132.600006
 11
194.800003
 21
-133.500000
  0
LINE
  8
0
 10
-194.250000
 20
132.600006
 11
-194.250000
 21
-133.500000
  0
LINE
  8
0
 10
-194.250000
 20
-133.500000
 11
194.800003
 21
-133.500000
  0
LINE
  8
0
 10
109.800003
 20
-118.500000
 11
109.800003
 21
-133.500000
  0
LINE
  8
0
 10
109.800003
 20
-118.500000
 11
194.800003
 21
-118.500000
  0
LINE
  8
0
 10
109.800003
 20
132.600006
 11
109.800003
 21
117.600006
  0
LINE
  8
0
 10
109.800003
 20
117.600006
 11
194.800003
 21
117.600006
  0
LINE
  8
0
 10
-194.250000
 20
117.600006
 11
-109.250000
 21
117.600006
  0
LINE
  8
0
 10
-109.250000
 20
132.600006
 11
-109.250000
 21
117.600006
  0
CIRCLE
  8
0
 62
     4
 10
-42.562859
 20
-67.039185
 40
1.250000
  0
CIRCLE
  8
0
  6
DASHED
 62
     2
 10
-59.562878
 20
-61.039185
 40
2.100000
  0
CIRCLE
  8
0
 62
     4
 10
-42.562859
 20
-67.039185
 40
1.400000
  0
CIRCLE
  8
0
 62
     2
 10
-97.062874
 20
-67.039185
 40
1.500000
  0
CIRCLE
  8
0
 62
     2
 10
-105.062881
 20
-67.039185
 40
1.500000
  0
CIRCLE
  8
0
 62
     2
 10
-46.562878
 20
-74.039185
 40
2.000000
  0
CIRCLE
  8
0
 62
     2
 10
-46.562878
 20
-60.039185
 40
2.000000
  0
CIRCLE
  8
0
  6
DASHED
 62
     2
 10
-32.062878
 20
-73.039185
 40
2.500000
  0
CIRCLE
  8
0
  6
DASHED
 62
     2
 10
-59.562878
 20
-61.039185
 40
2.500000
  0
ARC
  8
0
  6
DASHED
 62
     2
 10
-59.562878
 20
-61.039185
 40
4.249998
 50
304.699829
 51
228.998840
  0
ARC
  8
0
  6
DASHED
 62
     2
 10
-32.062878
 20
-73.039185
 40
4.249996
 50
118.072395
 51
61.927582
  0
CIRCLE
  8
0
 10
-105.062881
 20
-67.039185
 40
1.250000
  0
CIRCLE
  8
0
 10
-97.062874
 20
-67.039185
 40
1.250000
  0
CIRCLE
  8
0
 10
-46.562878
 20
-60.039185
 40
1.650000
  0
CIRCLE
  8
0
 10
-46.562878
 20
-74.039185
 40
1.650000
  0
CIRCLE
  8
0
  6
DASHED
 62
     2
 10
-32.062878
 20
-73.039185
 40
2.100000
  0
CIRCLE
  8
0
 62
     4
 10
108.052528
 20
-67.039185
 40
1.300000
  0
CIRCLE
  8
0
 62
     4
 10
83.152534
 20
-67.039185
 40
1.300000
  0
CIRCLE
  8
0
 10
108.602531
 20
-60.039185
 40
1.650000
  0
ARC
  8
0
 10
107.702538
 20
-67.039185
 40
2.099998
 50
90.000000
 51
270.000000
  0
ARC
  8
0
 10
112.302536
 20
-69.739197
 40
0.300003
 50
0.000000
 51
90.000000
  0
CIRCLE
  8
0
 62
     2
 10
82.602539
 20
-74.039185
 40
2.000000
  0
CIRCLE
  8
0
 62
     2
 10
108.602531
 20
-60.039185
 40
2.000000
  0
CIRCLE
  8
0
 10
95.602531
 20
-67.039185
 40
8.500000
  0
ARC
  8
0
 10
78.902534
 20
-64.339188
 40
0.300003
 50
180.000000
 51
270.000000
  0
ARC
  8
0
 10
83.502533
 20
-67.039185
 40
2.099998
 50
270.000000
 51
90.000000
  0
ARC
  8
0
 10
78.902534
 20
-69.739197
 40
0.300003
 50
90.000000
 51
180.000000
  0
ARC
  8
0
 10
112.302536
 20
-64.339188
 40
0.300003
 50
270.000000
 51
0.000000
  0
CIRCLE
  8
0
 10
82.602539
 20
-74.039185
 40
1.650000
  0
CIRCLE
  8
0
 10
-80.562866
 20
54.760815
 40
1.500000
  0
CIRCLE
  8
0
  6
DASHED
 62
     2
 10
-51.562870
 20
54.760815
 40
2.000000
  0
CIRCLE
  8
0
  6
DASHED
 62
     2
 10
-51.562870
 20
30.760807
 40
2.000000
  0
CIRCLE
  8
0
  6
DASHED
 62
     2
 10
-51.562870
 20
54.760815
 40
1.650000
  0
CIRCLE
  8
0
  6
DASHED
 62
     2
 10
-51.562870
 20
30.760807
 40
1.650000
  0
CIRCLE
  8
0
 10
-80.562866
 20
30.760807
 40
1.500000
  0
ARC
  8
0
  6
PHANTOM
 62
     2
 10
-80.562866
 20
54.760815
 40
28.499996
 50
98.129333
 51
170.669983
  0
ARC
  8
0
  6
PHANTOM
 62
     2
 10
-80.562866
 20
30.760815
 40
28.500002
 50
189.329956
 51
261.870605
  0
TEXT
  8
0
 10
133.907150
 20
122.050003
 40
4.500000
  1
Ver. 1.0
 50
0.000000
 41
1.052631
 51
0.000000
  7
STANDARD
  0
TEXT
  8
0
 10
113.700279
 20
-130.669998
 40
6.300000
  1
KOGANEI CORP.
 50
0.000000
 41
1.052632
 51
0.000000
  7
STANDARD
  0
TEXT
  8
0
 10
-170.142654
 20
122.050003
 40
4.500000
  1
AIR HAND
 50
0.000000
 41
1.052632
 51
0.000000
  7
STANDARD
  0
TEXT
  8
0
 10
-186.892654
 20
104.550003
 40
4.500000
  1
MODEL:NHBDSL-16-ZE135A2
 50
0.000000
 41
1.052632
 51
0.000000
  7
STANDARD
  0
ENDSEC
  0
EOF
