  0
SECTION
  2
HEADER
  0
ENDSEC
  0
SECTION
  2
TABLES
  0
TABLE
  2
LTYPE
 70
     4
  0
LTYPE
  2
CONTINUOUS
 70
    64
  3
Solid line
 72
    65
 73
     0
 40
0.000000
  0
LTYPE
  2
DASHED
 70
    64
  3
__ __ __ __ __ __ __ __ __ __ __ __ __ __ __
 72
    65
 73
     2
 40
3.500000
 49
2.000000
 49
-1.500000
  0
LTYPE
  2
CENTER
 70
    64
  3
____ _ ____ _ ____ _ ____ _ ____ _ ____ _ ____
 72
    65
 73
     4
 40
17.500000
 49
13.000000
 49
-1.500000
 49
1.500000
 49
-1.500000
  0
LTYPE
  2
PHANTOM
 70
    64
  3
_____ _ _ _____ _ _ _____ _ _ _____ _ _ ____  
 72
    65
 73
     6
 40
15.500000
 49
8.000000
 49
-1.500000
 49
1.500000
 49
-1.500000
 49
1.500000
 49
-1.500000
  0
LTYPE
  2
DASHED1
 70
    64
  3
__ __ __ __ __ __ __ __ __ __ __ __ __ __ __
 72
    65
 73
     2
 40
1.500000
 49
1.000000
 49
-0.500000
  0
LTYPE
  2
DASHED2
 70
    64
  3
__ __ __ __ __ __ __ __ __ __ __ __ __ __ __
 72
    65
 73
     2
 40
3.500000
 49
2.500000
 49
-1.000000
  0
LTYPE
  2
DASHED3
 70
    64
  3
__ __ __ __ __ __ __ __ __ __ __ __ __ __ __
 72
    65
 73
     2
 40
6.000000
 49
4.000000
 49
-2.000000
  0
LTYPE
  2
DASHED4
 70
    64
  3
__ __ __ __ __ __ __ __ __ __ __ __ __ __ __
 72
    65
 73
     2
 40
12.000000
 49
10.000000
 49
-2.000000
  0
LTYPE
  2
DASHED5
 70
    64
  3
__ __ __ __ __ __ __ __ __ __ __ __ __ __ __
 72
    65
 73
     2
 40
17.000000
 49
15.000000
 49
-2.000000
  0
LTYPE
  2
DASHED6
 70
    64
  3
__ __ __ __ __ __ __ __ __ __ __ __ __ __ __
 72
    65
 73
     2
 40
29.000000
 49
27.000000
 49
-2.000000
  0
LTYPE
  2
PHANTOM1
 70
    64
  3
_____ _ _ _____ _ _ _____ _ _ _____ _ _ ____  
 72
    65
 73
     6
 40
31.000000
 49
25.000000
 49
-1.500000
 49
1.000000
 49
-1.000000
 49
1.000000
 49
-1.500000
  0
LTYPE
  2
PHANTOM2
 70
    64
  3
_____ _ _ _____ _ _ _____ _ _ _____ _ _ ____  
 72
    65
 73
     6
 40
36.000000
 49
27.000000
 49
-1.500000
 49
2.500000
 49
-1.000000
 49
2.500000
 49
-1.500000
  0
LTYPE
  2
PHANTOM3
 70
    64
  3
_____ _ _ _____ _ _ _____ _ _ _____ _ _ ____  
 72
    65
 73
     6
 40
78.000000
 49
64.000000
 49
-2.000000
 49
4.000000
 49
-2.000000
 49
4.000000
 49
-2.000000
  0
LTYPE
  2
CENTER1
 70
    64
  3
____ _ ____ _ ____ _ ____ _ ____ _ ____ _ ____
 72
    65
 73
     4
 40
19.000000
 49
14.000000
 49
-1.000000
 49
3.000000
 49
-1.000000
  0
LTYPE
  2
CENTER2
 70
    64
  3
____ _ ____ _ ____ _ ____ _ ____ _ ____ _ ____
 72
    65
 73
     4
 40
28.500000
 49
25.000000
 49
-1.000000
 49
1.500000
 49
-1.000000
  0
LTYPE
  2
CENTER3
 70
    64
  3
____ _ ____ _ ____ _ ____ _ ____ _ ____ _ ____
 72
    65
 73
     4
 40
31.500000
 49
27.000000
 49
-1.000000
 49
2.500000
 49
-1.000000
  0
LTYPE
  2
CENTER4
 70
    64
  3
____ _ ____ _ ____ _ ____ _ ____ _ ____ _ ____
 72
    65
 73
     4
 40
50.000000
 49
45.000000
 49
-1.000000
 49
3.000000
 49
-1.000000
  0
LTYPE
  2
CENTER5
 70
    64
  3
____ _ ____ _ ____ _ ____ _ ____ _ ____ _ ____
 72
    65
 73
     4
 40
100.000000
 49
92.000000
 49
-2.000000
 49
4.000000
 49
-2.000000
  0
LTYPE
  2
SBK1
 70
    64
  3
______ _ _ _ ______ _ _ _ ______ _ _ _ _____  
 72
    65
 73
     8
 40
60.500000
 49
45.000000
 49
-2.000000
 49
2.500000
 49
-2.000000
 49
2.500000
 49
-2.000000
 49
2.500000
 49
-2.000000
  0
LTYPE
  2
SBK2
 70
    64
  3
______ _ _ _ ______ _ _ _ ______ _ _ _ _____  
 72
    65
 73
     8
 40
84.000000
 49
64.000000
 49
-2.000000
 49
4.000000
 49
-2.000000
 49
4.000000
 49
-2.000000
 49
4.000000
 49
-2.000000
  0
LTYPE
  2
STCH
 70
    64
  3
__ __ __ __ __ __ __ __ __ __ __ __ __ __ __
 72
    65
 73
     2
 40
3.000000
 49
1.000000
 49
-2.000000
  0
LTYPE
  2
MTCH
 70
    64
  3
_____ _ _ _____ _ _ _____ _ _ _____ _ _ ____  
 72
    65
 73
     6
 40
80.000000
 49
66.000000
 49
-2.000000
 49
4.000000
 49
-2.000000
 49
4.000000
 49
-2.000000
  0
ENDTAB
  0
TABLE
  2
LAYER
 70
     1
  0
LAYER
  2
0
 70
     0
 62
     7
  6
CONTINUOUS
  0
ENDTAB
  0
TABLE
  2
STYLE
 70
     1
  0
STYLE
  2
STANDARD
 70
     0
 40
0.000000
 41
1.000000
 50
0.000000
 71
     0
 42
0.200000
  3
txt
  4
BIGFONT
  0
ENDTAB
  0
TABLE
  2
VIEW
 70
     0
  0
ENDTAB
  0
ENDSEC
  0
SECTION
  2
BLOCKS
  0
ENDSEC
  0
SECTION
  2
ENTITIES
  0
LINE
  8
0
  6
CENTER
 62
     2
 10
-113.162865
 20
-64.239197
 11
7.737122
 21
-64.239197
  0
LINE
  8
0
 10
-86.262878
 20
-51.239201
 11
-5.262878
 21
-51.239201
  0
LINE
  8
0
 10
-86.262878
 20
-77.239197
 11
-5.262878
 21
-77.239197
  0
LINE
  8
0
 10
-86.262878
 20
-51.239201
 11
-86.262878
 21
-59.039200
  0
LINE
  8
0
 10
-5.262878
 20
-51.239201
 11
-5.262878
 21
-62.939194
  0
LINE
  8
0
 10
-108.262878
 20
-59.239197
 11
-108.262878
 21
-69.239197
  0
LINE
  8
0
 10
-63.762878
 20
-59.039200
 11
-63.762878
 21
-69.439201
  0
LINE
  8
0
 10
-86.262878
 20
-69.439201
 11
-63.762878
 21
-69.439201
  0
LINE
  8
0
 10
-86.262878
 20
-59.039200
 11
-63.762878
 21
-59.039200
  0
LINE
  8
0
 10
-80.200706
 20
-51.239201
 11
-80.200706
 21
-59.039200
  0
LINE
  8
0
 10
-80.200706
 20
-69.439201
 11
-80.200706
 21
-77.239197
  0
LINE
  8
0
 10
-86.262878
 20
-69.439201
 11
-86.262878
 21
-77.239197
  0
LINE
  8
0
 10
-64.762878
 20
-59.239197
 11
-64.762878
 21
-69.239197
  0
LINE
  8
0
 10
-65.762878
 20
-59.239197
 11
-65.762878
 21
-69.239197
  0
LINE
  8
0
  6
CENTER
 62
     2
 10
-104.262878
 20
-61.239197
 11
-104.262878
 21
-67.239197
  0
LINE
  8
0
  6
CENTER
 62
     2
 10
-94.262878
 20
-61.239197
 11
-94.262878
 21
-67.239197
  0
LINE
  8
0
  6
CENTER
 62
     2
 10
-42.020622
 20
-57.739197
 11
-55.980579
 21
-57.739197
  0
LINE
  8
0
  6
CENTER
 62
     2
 10
-48.762878
 20
-51.989201
 11
-48.762878
 21
-63.489197
  0
LINE
  8
0
  6
CENTER
 62
     2
 10
-29.262878
 20
-56.239197
 11
-37.234348
 21
-56.239197
  0
LINE
  8
0
  6
CENTER
 62
     2
 10
-33.262878
 20
-52.239201
 11
-33.262878
 21
-60.239197
  0
LINE
  8
0
  6
CENTER
 62
     2
 10
-29.762878
 20
-72.239197
 11
-36.762878
 21
-72.239197
  0
LINE
  8
0
  6
CENTER
 62
     2
 10
-33.262878
 20
-68.739197
 11
-33.262878
 21
-75.739197
  0
LINE
  8
0
  6
CENTER
 62
     2
 10
-10.511002
 20
-70.739197
 11
-22.512878
 21
-70.739197
  0
LINE
  8
0
  6
CENTER
 62
     2
 10
-16.762878
 20
-64.989197
 11
-16.762878
 21
-76.489197
  0
LINE
  8
0
 10
-63.762878
 20
-61.989204
 11
-5.262878
 21
-61.989204
  0
LINE
  8
0
 10
-63.762878
 20
-62.639206
 11
-5.262878
 21
-62.639206
  0
LINE
  8
0
 10
-63.762878
 20
-66.489204
 11
-5.262878
 21
-66.489204
  0
LINE
  8
0
 10
-63.762878
 20
-65.839203
 11
-5.262878
 21
-65.839203
  0
LINE
  8
0
 10
-108.262878
 20
-59.239197
 11
-64.762878
 21
-59.239197
  0
LINE
  8
0
 10
-108.262878
 20
-69.239197
 11
-64.762878
 21
-69.239197
  0
LINE
  8
0
  6
CENTER
 62
     2
 10
-40.262878
 20
-64.985497
 11
-40.262878
 21
-79.226357
  0
LINE
  8
0
 62
     4
 10
-28.262878
 20
-62.639206
 11
-28.262878
 21
-65.839203
  0
LINE
  8
0
 62
     4
 10
-6.262878
 20
-62.639206
 11
-6.262878
 21
-65.839203
  0
LINE
  8
0
 62
     4
 10
-27.297092
 20
-64.941231
 11
-25.560822
 21
-63.204956
  0
LINE
  8
0
 62
     4
 10
-26.939171
 20
-65.290436
 11
-25.211624
 21
-63.562889
  0
LINE
  8
0
 62
     4
 10
-6.262878
 20
-62.939194
 11
3.986565
 21
-62.939194
  0
LINE
  8
0
 62
     4
 10
-6.262878
 20
-65.539200
 11
5.487679
 21
-65.539200
  0
LINE
  8
0
 62
     1
 10
3.487104
 20
-62.074097
 11
5.987103
 21
-66.404221
  0
LINE
  8
0
 10
-5.262878
 20
-65.539200
 11
-5.262878
 21
-77.239197
  0
LINE
  8
0
 10
114.070450
 20
-51.239201
 11
114.070450
 21
-61.989197
  0
LINE
  8
0
 10
69.070450
 20
-51.239201
 11
69.070450
 21
-61.989197
  0
LINE
  8
0
 10
69.070450
 20
-51.239201
 11
114.070450
 21
-51.239201
  0
LINE
  8
0
 10
69.070450
 20
-77.239197
 11
114.070450
 21
-77.239197
  0
LINE
  8
0
 10
75.370453
 20
-66.339203
 11
76.970451
 21
-66.339203
  0
LINE
  8
0
 10
75.370453
 20
-62.139206
 11
76.970451
 21
-62.139206
  0
LINE
  8
0
 10
74.020454
 20
-62.639206
 11
74.870453
 21
-62.639206
  0
LINE
  8
0
 10
74.020447
 20
-65.839203
 11
74.870453
 21
-65.839203
  0
LINE
  8
0
 10
69.070450
 20
-61.989197
 11
73.370453
 21
-61.989197
  0
LINE
  8
0
 10
69.070450
 20
-66.489197
 11
73.370453
 21
-66.489197
  0
LINE
  8
0
 10
74.870499
 20
-62.639229
 11
75.370499
 21
-62.139229
  0
LINE
  8
0
 10
74.870468
 20
-65.839180
 11
75.370468
 21
-66.339180
  0
LINE
  8
0
 10
73.370453
 20
-61.989178
 11
74.020462
 21
-62.639183
  0
LINE
  8
0
 10
73.370491
 20
-66.489243
 11
74.020493
 21
-65.839241
  0
LINE
  8
0
 10
69.070450
 20
-66.489197
 11
69.070450
 21
-77.239197
  0
LINE
  8
0
 10
107.770447
 20
-66.339203
 11
106.170441
 21
-66.339203
  0
LINE
  8
0
 10
107.770447
 20
-62.139206
 11
106.170441
 21
-62.139206
  0
LINE
  8
0
 10
109.120453
 20
-62.639206
 11
108.270447
 21
-62.639206
  0
LINE
  8
0
 10
109.120453
 20
-65.839203
 11
108.270447
 21
-65.839203
  0
LINE
  8
0
 10
114.070450
 20
-61.989197
 11
109.770447
 21
-61.989197
  0
LINE
  8
0
 10
114.070450
 20
-66.489197
 11
109.770447
 21
-66.489197
  0
LINE
  8
0
 10
109.770477
 20
-61.989246
 11
109.120476
 21
-62.639252
  0
LINE
  8
0
 10
109.770439
 20
-66.489151
 11
109.120453
 21
-65.839165
  0
LINE
  8
0
 10
114.070450
 20
-66.489197
 11
114.070450
 21
-77.239197
  0
LINE
  8
0
  6
CENTER
 62
     2
 10
105.320450
 20
-56.239197
 11
112.820450
 21
-56.239197
  0
LINE
  8
0
  6
CENTER
 62
     2
 10
109.070450
 20
-52.489197
 11
109.070450
 21
-59.989197
  0
LINE
  8
0
 62
     4
 10
108.820427
 20
-65.739197
 11
108.370430
 21
-65.739197
  0
LINE
  8
0
 62
     4
 10
108.820427
 20
-65.739197
 11
108.820427
 21
-62.739197
  0
LINE
  8
0
 62
     4
 10
108.820427
 20
-62.739197
 11
108.370430
 21
-62.739197
  0
LINE
  8
0
 62
     4
 10
109.320427
 20
-65.489197
 11
108.820427
 21
-65.489197
  0
LINE
  8
0
 62
     4
 10
109.320427
 20
-62.989197
 11
108.820427
 21
-62.989197
  0
LINE
  8
0
 62
     4
 10
109.320427
 20
-65.489197
 11
109.320427
 21
-62.989197
  0
LINE
  8
0
 62
     4
 10
108.270500
 20
-65.839188
 11
108.370453
 21
-65.739243
  0
LINE
  8
0
 10
108.270500
 20
-65.839195
 11
107.770432
 21
-66.339195
  0
LINE
  8
0
 10
108.270523
 20
-62.639194
 11
107.770447
 21
-62.139191
  0
LINE
  8
0
 62
     4
 10
108.270508
 20
-62.639191
 11
108.370468
 21
-62.739143
  0
LINE
  8
0
 62
     4
 10
74.870384
 20
-62.639191
 11
74.770432
 21
-62.739140
  0
LINE
  8
0
 62
     4
 10
74.320473
 20
-62.739197
 11
74.770470
 21
-62.739197
  0
LINE
  8
0
 62
     4
 10
74.320473
 20
-65.739197
 11
74.320473
 21
-62.739197
  0
LINE
  8
0
 62
     4
 10
73.820473
 20
-62.989197
 11
74.320473
 21
-62.989197
  0
LINE
  8
0
 62
     4
 10
73.820473
 20
-65.489197
 11
73.820473
 21
-62.989197
  0
LINE
  8
0
 62
     4
 10
73.820473
 20
-65.489197
 11
74.320473
 21
-65.489197
  0
LINE
  8
0
 62
     4
 10
74.320473
 20
-65.739197
 11
74.770470
 21
-65.739197
  0
LINE
  8
0
 62
     4
 10
74.870392
 20
-65.839203
 11
74.770439
 21
-65.739250
  0
LINE
  8
0
  6
CENTER
 62
     2
 10
66.570450
 20
-64.239197
 11
116.570450
 21
-64.239197
  0
LINE
  8
0
  6
CENTER
 62
     2
 10
91.570450
 20
-49.239201
 11
91.570450
 21
-79.239197
  0
LINE
  8
0
  6
CENTER
 62
     2
 10
74.070450
 20
-68.489197
 11
74.070450
 21
-75.989197
  0
LINE
  8
0
  6
CENTER
 62
     2
 10
70.320450
 20
-72.239197
 11
77.820450
 21
-72.239197
  0
LINE
  8
0
  6
CENTER
 62
     2
 10
-89.535553
 20
40.194134
 11
1.237137
 21
40.194134
  0
LINE
  8
0
 10
-5.262863
 20
62.694141
 11
-5.262863
 21
40.194134
  0
LINE
  8
0
  6
PHANTOM
 62
     2
 10
-70.762863
 20
88.694153
 11
-77.762871
 21
88.694153
  0
LINE
  8
0
 10
-86.262863
 20
52.194141
 11
-86.262863
 21
40.194134
  0
LINE
  8
0
 10
-80.200691
 20
62.694141
 11
-5.262863
 21
62.694141
  0
LINE
  8
0
 10
-86.262901
 20
52.194145
 11
-80.200722
 21
62.694145
  0
LINE
  8
0
  6
CENTER
 62
     2
 10
-74.762871
 20
90.497437
 11
-74.762871
 21
61.366077
  0
LINE
  8
0
  6
PHANTOM
 62
     2
 10
-70.762863
 20
88.694153
 11
-70.762863
 21
62.694141
  0
LINE
  8
0
  6
PHANTOM
 62
     2
 10
-77.762871
 20
88.694153
 11
-77.762871
 21
62.694141
  0
LINE
  8
0
  6
PHANTOM
 62
     2
 10
-108.426254
 20
57.435413
 11
-108.059898
 21
50.445004
  0
LINE
  8
0
  6
CENTER
 62
     2
 10
-113.210480
 20
53.179127
 11
-80.926338
 21
54.871067
  0
LINE
  8
0
  6
PHANTOM
 62
     2
 10
-108.426292
 20
57.435375
 11
-82.450859
 21
58.796688
  0
LINE
  8
0
  6
PHANTOM
 62
     2
 10
-108.059952
 20
50.444942
 11
-86.262856
 21
51.587280
  0
LINE
  8
0
 10
-108.262863
 20
59.194141
 11
-108.262863
 21
52.194141
  0
LINE
  8
0
  6
CENTER
 62
     2
 10
-113.263237
 20
55.194134
 11
-80.934799
 21
55.194134
  0
LINE
  8
0
 10
-108.262863
 20
59.194134
 11
-82.221413
 21
59.194134
  0
LINE
  8
0
 10
-108.262863
 20
52.194134
 11
-86.262863
 21
52.194134
  0
LINE
  8
0
  6
CENTER
 62
     2
 10
-35.140343
 20
55.194141
 11
-45.510597
 21
55.194141
  0
LINE
  8
0
  6
CENTER
 62
     2
 10
-40.262863
 20
60.170872
 11
-40.262863
 21
49.800617
  0
LINE
  8
0
 10
-5.262863
 20
17.694130
 11
-5.262863
 21
40.194134
  0
LINE
  8
0
  6
PHANTOM
 62
     2
 10
-70.762863
 20
-8.305870
 11
-77.762871
 21
-8.305870
  0
LINE
  8
0
 10
-86.262863
 20
28.194134
 11
-86.262863
 21
40.194134
  0
LINE
  8
0
 10
-80.200691
 20
17.694130
 11
-5.262863
 21
17.694130
  0
LINE
  8
0
 10
-86.262886
 20
28.194143
 11
-80.200699
 21
17.694138
  0
LINE
  8
0
  6
CENTER
 62
     2
 10
-74.762871
 20
-13.306244
 11
-74.762871
 21
19.022194
  0
LINE
  8
0
  6
PHANTOM
 62
     2
 10
-70.762863
 20
-8.305870
 11
-70.762863
 21
17.694130
  0
LINE
  8
0
  6
PHANTOM
 62
     2
 10
-77.762871
 20
-8.305870
 11
-77.762871
 21
17.694130
  0
LINE
  8
0
  6
PHANTOM
 62
     2
 10
-108.426239
 20
22.952871
 11
-108.059891
 21
29.943277
  0
LINE
  8
0
  6
CENTER
 62
     2
 10
-113.210457
 20
27.209078
 11
-80.926331
 21
25.517139
  0
LINE
  8
0
  6
PHANTOM
 62
     2
 10
-108.426300
 20
22.952852
 11
-82.450859
 21
21.591537
  0
LINE
  8
0
  6
PHANTOM
 62
     2
 10
-108.059921
 20
29.943256
 11
-86.262856
 21
28.800920
  0
LINE
  8
0
 10
-108.262863
 20
21.194130
 11
-108.262863
 21
28.194134
  0
LINE
  8
0
  6
CENTER
 62
     2
 10
-113.263237
 20
25.194134
 11
-80.934799
 21
25.194134
  0
LINE
  8
0
 10
-108.262863
 20
21.194138
 11
-82.221413
 21
21.194138
  0
LINE
  8
0
 10
-108.262863
 20
28.194134
 11
-86.262863
 21
28.194134
  0
LINE
  8
0
  6
CENTER
 62
     2
 10
-70.664848
 20
55.194141
 11
-78.641968
 21
55.194141
  0
LINE
  8
0
  6
CENTER
 62
     2
 10
-74.762863
 20
51.267052
 11
-74.762863
 21
59.403713
  0
LINE
  8
0
  6
CENTER
 62
     2
 10
-16.762863
 20
66.322266
 11
-16.762863
 21
58.409252
  0
LINE
  8
0
  6
CENTER
 62
     2
 10
-48.762863
 20
65.817184
 11
-48.762863
 21
58.409252
  0
LINE
  8
0
  6
CENTER
 62
     2
 10
-33.262863
 20
12.951504
 11
-33.262863
 21
25.410290
  0
LINE
  8
0
 62
     4
 10
-5.262863
 20
26.544136
 11
3.986580
 21
26.544136
  0
LINE
  8
0
 62
     4
 10
-5.262863
 20
23.944130
 11
5.487701
 21
23.944130
  0
LINE
  8
0
 62
     1
 10
3.487119
 20
27.409237
 11
5.987120
 21
23.079111
  0
LINE
  8
0
 62
     4
 10
-5.262863
 20
56.444138
 11
3.986580
 21
56.444138
  0
LINE
  8
0
 62
     1
 10
3.487120
 20
57.309238
 11
5.987120
 21
52.979115
  0
LINE
  8
0
 62
     4
 10
-5.262863
 20
53.844131
 11
5.487701
 21
53.844131
  0
LINE
  8
0
  6
CENTER
 62
     2
 10
-35.140343
 20
25.194134
 11
-45.111740
 21
25.194134
  0
LINE
  8
0
  6
CENTER
 62
     2
 10
-40.262863
 20
20.285275
 11
-40.262863
 21
30.456100
  0
LINE
  8
0
  6
CENTER
 62
     2
 10
-70.664848
 20
25.194134
 11
-78.641968
 21
25.194134
  0
LINE
  8
0
  6
CENTER
 62
     2
 10
-74.762863
 20
21.267046
 11
-74.762863
 21
29.403706
  0
LINE
  8
0
 10
-194.250000
 20
132.600006
 11
194.800003
 21
132.600006
  0
LINE
  8
0
 10
194.800003
 20
132.600006
 11
194.800003
 21
-133.500000
  0
LINE
  8
0
 10
-194.250000
 20
132.600006
 11
-194.250000
 21
-133.500000
  0
LINE
  8
0
 10
-194.250000
 20
-133.500000
 11
194.800003
 21
-133.500000
  0
LINE
  8
0
 10
109.800003
 20
-118.500000
 11
109.800003
 21
-133.500000
  0
LINE
  8
0
 10
109.800003
 20
-118.500000
 11
194.800003
 21
-118.500000
  0
LINE
  8
0
 10
109.800003
 20
132.600006
 11
109.800003
 21
117.600006
  0
LINE
  8
0
 10
109.800003
 20
117.600006
 11
194.800003
 21
117.600006
  0
LINE
  8
0
 10
-194.250000
 20
117.600006
 11
-109.250000
 21
117.600006
  0
LINE
  8
0
 10
-109.250000
 20
132.600006
 11
-109.250000
 21
117.600006
  0
CIRCLE
  8
0
 62
     4
 10
-26.262863
 20
-64.239197
 40
1.250000
  0
CIRCLE
  8
0
 62
     4
 10
-26.262863
 20
-64.239197
 40
1.400000
  0
CIRCLE
  8
0
  6
DASHED
 62
     2
 10
-48.762878
 20
-57.739197
 40
2.100000
  0
CIRCLE
  8
0
  6
DASHED
 62
     2
 10
-16.762878
 20
-70.739197
 40
4.250000
  0
CIRCLE
  8
0
  6
DASHED
 62
     2
 10
-48.762878
 20
-57.739197
 40
4.250000
  0
CIRCLE
  8
0
 62
     2
 10
-104.262878
 20
-64.239197
 40
2.000000
  0
CIRCLE
  8
0
 62
     2
 10
-94.262878
 20
-64.239197
 40
2.000000
  0
CIRCLE
  8
0
 62
     2
 10
-33.262878
 20
-56.239197
 40
2.500000
  0
CIRCLE
  8
0
 62
     2
 10
-33.262878
 20
-72.239197
 40
2.500000
  0
CIRCLE
  8
0
  6
DASHED
 62
     2
 10
-48.762878
 20
-57.739197
 40
2.500000
  0
CIRCLE
  8
0
  6
DASHED
 62
     2
 10
-16.762878
 20
-70.739197
 40
2.500000
  0
CIRCLE
  8
0
 10
-104.262878
 20
-64.239197
 40
1.650000
  0
CIRCLE
  8
0
 10
-94.262878
 20
-64.239197
 40
1.650000
  0
CIRCLE
  8
0
 10
-33.262878
 20
-56.239197
 40
2.100000
  0
CIRCLE
  8
0
 10
-33.262878
 20
-72.239197
 40
2.100000
  0
CIRCLE
  8
0
  6
DASHED
 62
     2
 10
-16.762878
 20
-70.739197
 40
2.100000
  0
CIRCLE
  8
0
 62
     4
 10
106.520439
 20
-64.239197
 40
1.300000
  0
CIRCLE
  8
0
 62
     4
 10
76.620461
 20
-64.239197
 40
1.300000
  0
CIRCLE
  8
0
 10
109.070450
 20
-56.239197
 40
2.100000
  0
ARC
  8
0
 10
106.170441
 20
-64.239197
 40
2.099998
 50
90.000000
 51
270.000000
  0
ARC
  8
0
 10
76.970451
 20
-64.239197
 40
2.099998
 50
270.000000
 51
90.000000
  0
CIRCLE
  8
0
 10
91.570450
 20
-64.239197
 40
10.500000
  0
CIRCLE
  8
0
 62
     2
 10
74.070450
 20
-72.239197
 40
2.500000
  0
CIRCLE
  8
0
 62
     2
 10
109.070450
 20
-56.239197
 40
2.500000
  0
CIRCLE
  8
0
 10
74.070450
 20
-72.239197
 40
2.100000
  0
CIRCLE
  8
0
  6
DASHED
 62
     2
 10
-40.262863
 20
25.194134
 40
2.100000
  0
CIRCLE
  8
0
  6
DASHED
 62
     2
 10
-40.262863
 20
55.194141
 40
2.100000
  0
CIRCLE
  8
0
  6
DASHED
 62
     2
 10
-40.262863
 20
25.194134
 40
2.500000
  0
ARC
  8
0
  6
PHANTOM
 62
     2
 10
-74.762863
 20
55.194141
 40
33.500000
 50
98.670883
 51
169.542587
  0
ARC
  8
0
  6
PHANTOM
 62
     2
 10
-74.762863
 20
25.194126
 40
33.500000
 50
190.457352
 51
261.329071
  0
CIRCLE
  8
0
 10
-74.762863
 20
55.194141
 40
2.000000
  0
CIRCLE
  8
0
  6
DASHED
 62
     2
 10
-40.262863
 20
55.194141
 40
2.500000
  0
CIRCLE
  8
0
 10
-74.762863
 20
25.194134
 40
2.000000
  0
TEXT
  8
0
 10
133.907150
 20
122.050003
 40
4.500000
  1
Ver. 1.0
 50
0.000000
 41
1.052631
 51
0.000000
  7
STANDARD
  0
TEXT
  8
0
 10
113.700279
 20
-130.669998
 40
6.300000
  1
KOGANEI CORP.
 50
0.000000
 41
1.052632
 51
0.000000
  7
STANDARD
  0
TEXT
  8
0
 10
-170.142654
 20
122.050003
 40
4.500000
  1
AIR HAND
 50
0.000000
 41
1.052632
 51
0.000000
  7
STANDARD
  0
TEXT
  8
0
 10
-186.892654
 20
104.550003
 40
4.500000
  1
MODEL:NHBDSL-20-ZE135A2
 50
0.000000
 41
1.052632
 51
0.000000
  7
STANDARD
  0
ENDSEC
  0
EOF
