  0
SECTION
  2
HEADER
  9
$ACADVER
  1
AC1009
  9
$INSBASE
 10
0.0
 20
0.0
 30
0.0
  9
$EXTMIN
 10
-194.25
 20
-133.5
 30
0.0
  9
$EXTMAX
 10
196.25000429
 20
132.6000061
 30
0.0
  9
$LIMMIN
 10
-194.25
 20
-133.5
  9
$LIMMAX
 10
196.25000429
 20
132.6000061
  9
$ORTHOMODE
 70
       0
  9
$REGENMODE
 70
       1
  9
$FILLMODE
 70
       1
  9
$QTEXTMODE
 70
       0
  9
$MIRRTEXT
 70
       1
  9
$DRAGMODE
 70
       2
  9
$LTSCALE
 40
1.0
  9
$OSMODE
 70
       0
  9
$ATTMODE
 70
       1
  9
$TEXTSIZE
 40
3.20000005
  9
$TRACEWID
 40
0.05
  9
$TEXTSTYLE
  7
MX_NOTE_STANDARD
  9
$CLAYER
  8
0
  9
$CELTYPE
  6
CONTINUOUS
  9
$CECOLOR
 62
     256
  9
$DIMSCALE
 40
1.0
  9
$DIMASZ
 40
2.5
  9
$DIMEXO
 40
1.5
  9
$DIMDLI
 40
3.75
  9
$DIMRND
 40
0.0
  9
$DIMDLE
 40
0.0
  9
$DIMEXE
 40
1.5
  9
$DIMTP
 40
0.0
  9
$DIMTM
 40
0.0
  9
$DIMTXT
 40
3.20000005
  9
$DIMCEN
 40
2.5
  9
$DIMTSZ
 40
0.0
  9
$DIMTOL
 70
       0
  9
$DIMLIM
 70
       0
  9
$DIMTIH
 70
       0
  9
$DIMTOH
 70
       0
  9
$DIMSE1
 70
       0
  9
$DIMSE2
 70
       0
  9
$DIMTAD
 70
       1
  9
$DIMZIN
 70
       8
  9
$DIMBLK
  1

  9
$DIMASO
 70
       1
  9
$DIMSHO
 70
       1
  9
$DIMPOST
  1

  9
$DIMAPOST
  1

  9
$DIMALT
 70
       0
  9
$DIMALTD
 70
       4
  9
$DIMALTF
 40
0.0394
  9
$DIMLFAC
 40
1.0
  9
$DIMTOFL
 70
       1
  9
$DIMTVP
 40
0.0
  9
$DIMTIX
 70
       0
  9
$DIMSOXD
 70
       0
  9
$DIMSAH
 70
       0
  9
$DIMBLK1
  1

  9
$DIMBLK2
  1

  9
$DIMSTYLE
  2
MXDIMSTYLE
  9
$DIMCLRD
 70
       0
  9
$DIMCLRE
 70
       0
  9
$DIMCLRT
 70
       0
  9
$DIMTFAC
 40
1.0
  9
$DIMGAP
 40
1.0
  9
$LUNITS
 70
       2
  9
$LUPREC
 70
       4
  9
$AXISMODE
 70
       0
  9
$AXISUNIT
 10
0.0
 20
0.0
  9
$SKETCHINC
 40
0.1
  9
$FILLETRAD
 40
0.0
  9
$AUNITS
 70
       0
  9
$AUPREC
 70
       0
  9
$MENU
  1
acad
  9
$ELEVATION
 40
0.0
  9
$PELEVATION
 40
0.0
  9
$THICKNESS
 40
0.0
  9
$LIMCHECK
 70
       0
  9
$BLIPMODE
 70
       1
  9
$CHAMFERA
 40
0.0
  9
$CHAMFERB
 40
0.0
  9
$SKPOLY
 70
       0
  9
$TDCREATE
 40
2452489.501712963
  9
$TDUPDATE
 40
2452489.501712963
  9
$TDINDWG
 40
0.0000000000
  9
$TDUSRTIMER
 40
0.0000000000
  9
$USRTIMER
 70
       1
  9
$ANGBASE
 50
0.0
  9
$ANGDIR
 70
       0
  9
$PDMODE
 70
       0
  9
$PDSIZE
 40
0.0
  9
$PLINEWID
 40
0.0
  9
$COORDS
 70
       1
  9
$SPLFRAME
 70
       0
  9
$SPLINETYPE
 70
       6
  9
$SPLINESEGS
 70
       8
  9
$ATTDIA
 70
       0
  9
$ATTREQ
 70
       1
  9
$HANDLING
 70
       1
  9
$HANDSEED
  5
124
  9
$SURFTAB1
 70
       6
  9
$SURFTAB2
 70
       6
  9
$SURFTYPE
 70
       6
  9
$SURFU
 70
       6
  9
$SURFV
 70
       6
  9
$UCSNAME
  2

  9
$UCSORG
 10
0.0
 20
0.0
 30
0.0
  9
$UCSXDIR
 10
1.0
 20
0.0
 30
0.0
  9
$UCSYDIR
 10
0.0
 20
1.0
 30
0.0
  9
$PUCSNAME
  2

  9
$PUCSORG
 10
0.0
 20
0.0
 30
0.0
  9
$PUCSXDIR
 10
1.0
 20
0.0
 30
0.0
  9
$PUCSYDIR
 10
0.0
 20
1.0
 30
0.0
  9
$USERI1
 70
       0
  9
$USERI2
 70
       0
  9
$USERI3
 70
       0
  9
$USERI4
 70
       0
  9
$USERI5
 70
       0
  9
$USERR1
 40
0.0
  9
$USERR2
 40
0.0
  9
$USERR3
 40
0.0
  9
$USERR4
 40
0.0
  9
$USERR5
 40
0.0
  9
$WORLDVIEW
 70
       1
  9
$SHADEDGE
 70
       3
  9
$SHADEDIF
 70
      70
  9
$TILEMODE
 70
       1
  9
$MAXACTVP
 70
      16
  9
$PINSBASE
 10
0.0
 20
0.0
 30
0.0
  9
$PLIMCHECK
 70
       0
  9
$PEXTMIN
 10
1.00000000E+20
 20
1.00000000E+20
 30
1.00000000E+20
  9
$PEXTMAX
 10
-1.00000000E+20
 20
-1.00000000E+20
 30
-1.00000000E+20
  9
$PLIMMIN
 10
0.0
 20
0.0
  9
$PLIMMAX
 10
12.0
 20
9.0
  9
$UNITMODE
 70
       0
  9
$VISRETAIN
 70
       0
  9
$PLINEGEN
 70
       1
  9
$PSLTSCALE
 70
       0
  9
$TREEDEPTH
 70
    3020
  9
$DWGCODEPAGE
  3
dos932
  0
ENDSEC
  0
SECTION
  2
TABLES
  0
TABLE
  2
VPORT
 70
       1
  0
VPORT
  2
*ACTIVE
 70
       0
 10
0.0
 20
0.0
 11
1.0
 21
1.0
 12
1.00000215
 22
-0.44999695
 13
0.0
 23
0.0
 14
1.0
 24
1.0
 15
0.0
 25
0.0
 16
0.0
 26
0.0
 36
1.0
 17
0.0
 27
0.0
 37
0.0
 40
268.76100616
 41
1.73205081
 42
50.0
 43
0.0
 44
0.0
 50
0.0
 51
0.0
 71
       0
 72
     100
 73
       1
 74
       1
 75
       0
 76
       0
 77
       0
 78
       0
  0
ENDTAB
  0
TABLE
  2
LTYPE
 70
       3
  0
LTYPE
  2
CONTINUOUS
 70
      64
  3
Solid line
 72
      65
 73
       0
 40
0.0
  0
LTYPE
  2
CENTER
 70
      64
  3
Center ____ _ ____ _ ____ _ ____ _ ____ _ ____
 72
      65
 73
       4
 40
50.8
 49
31.75
 49
-6.35
 49
6.35
 49
-6.35
  0
LTYPE
  2
PHANTOM
 70
      64
  3
Phantom ______  __  __  ______  __  __  ______
 72
      65
 73
       6
 40
63.5
 49
31.75
 49
-6.35
 49
6.35
 49
-6.35
 49
6.35
 49
-6.35
  0
ENDTAB
  0
TABLE
  2
LAYER
 70
       2
  0
LAYER
  2
0
 70
       0
 62
       7
  6
CONTINUOUS
  0
LAYER
  2
DEFPOINTS
 70
       0
 62
       7
  6
CONTINUOUS
  0
ENDTAB
  0
TABLE
  2
STYLE
 70
       1
  0
STYLE
  2
MX_NOTE_STANDARD
 70
       0
 40
3.20000005
 41
1.0
 50
0.0
 71
       0
 42
3.20000005
  3
txt.shx
  4
extfont.shx
  0
ENDTAB
  0
TABLE
  2
VIEW
 70
       0
  0
ENDTAB
  0
TABLE
  2
UCS
 70
       0
  0
ENDTAB
  0
TABLE
  2
APPID
 70
       1
  0
APPID
  2
ACAD
 70
       0
  0
ENDTAB
  0
TABLE
  2
DIMSTYLE
 70
       1
  0
DIMSTYLE
  2
MXDIMSTYLE
 70
       0
  3

  4

  5

  6

  7

 40
1.0
 41
2.5
 42
1.5
 43
3.75
 44
1.5
 45
0.0
 46
0.0
 47
0.0
 48
0.0
 71
       0
 72
       0
 73
       0
 74
       0
 75
       0
 76
       0
 77
       1
 78
       8
140
3.20000005
141
2.5
142
0.0
143
0.0394
144
1.0
145
0.0
146
1.0
147
1.0
170
       0
171
       4
172
       1
173
       0
174
       0
175
       0
176
       0
177
       0
178
       0
  0
ENDTAB
  0
ENDSEC
  0
SECTION
  2
BLOCKS
  0
BLOCK
  8
0
  5
22
  2
MS_1
 70
       0
 10
0.0
 20
0.0
 30
0.0
  3
MS_1
  0
LINE
  8
0
  6
CENTER
 62
       2
  5
24
 10
28.40000153
 20
18.0
 30
0.0
 11
37.60000038
 21
18.0
 31
0.0
  0
LINE
  8
0
  6
CENTER
 62
       2
  5
25
 10
33.0
 20
22.60000038
 30
0.0
 11
33.0
 21
13.40000153
 31
0.0
  0
CIRCLE
  8
0
  6
CONTINUOUS
 62
       2
  5
26
 10
33.0
 20
18.0
 30
0.0
 40
3.0
  0
CIRCLE
  8
0
  6
CONTINUOUS
 62
       7
  5
27
 10
33.0
 20
18.0
 30
0.0
 40
2.5
  0
LINE
  8
0
  6
CENTER
 62
       2
  5
28
 10
-28.55832672
 20
18.5
 30
0.0
 11
18.99832535
 21
18.5
 31
0.0
  0
CIRCLE
  8
0
  6
CONTINUOUS
 62
       2
  5
29
 10
14.49832535
 20
18.5
 30
0.0
 40
2.5
  0
LINE
  8
0
  6
CONTINUOUS
 62
       7
  5
2A
 10
-26.5
 20
24.5
 30
0.0
 11
5.77350235
 21
24.5
 31
0.0
  0
LINE
  8
0
  6
CONTINUOUS
 62
       7
  5
2B
 10
-26.5
 20
14.49999809
 30
0.0
 11
0.0
 21
14.49999809
 31
0.0
  0
LINE
  8
0
  6
CONTINUOUS
 62
       7
  5
2C
 10
-26.5
 20
24.5
 30
0.0
 11
-26.5
 21
14.49999809
 31
0.0
  0
LINE
  8
0
  6
CENTER
 62
       2
  5
2D
 10
-28.55832672
 20
-18.5
 30
0.0
 11
18.99832535
 21
-18.5
 31
0.0
  0
LINE
  8
0
  6
CENTER
 62
       2
  5
2E
 10
-28.0
 20
0.0
 30
0.0
 11
92.0
 21
0.0
 31
0.0
  0
LINE
  8
0
  6
CONTINUOUS
 62
       7
  5
2F
 10
88.0
 20
-26.0
 30
0.0
 11
88.0
 21
26.00000572
 31
0.0
  0
LINE
  8
0
  6
CONTINUOUS
 62
       7
  5
30
 10
0.0
 20
-14.49999809
 30
0.0
 11
0.0
 21
14.50000191
 31
0.0
  0
LINE
  8
0
  6
CONTINUOUS
 62
       7
  5
31
 10
-26.5
 20
-14.49999809
 30
0.0
 11
0.0
 21
-14.49999809
 31
0.0
  0
LINE
  8
0
  6
CONTINUOUS
 62
       7
  5
32
 10
0.00000505
 20
-14.50000038
 30
0.0
 11
6.63953332
 21
-26.00000048
 31
0.0
  0
LINE
  8
0
  6
CENTER
 62
       2
  5
33
 10
28.40000153
 20
-18.0
 30
0.0
 11
37.60000038
 21
-18.0
 31
0.0
  0
LINE
  8
0
  6
CENTER
 62
       2
  5
34
 10
33.0
 20
-22.60000038
 30
0.0
 11
33.0
 21
-13.40000153
 31
0.0
  0
LINE
  8
0
  6
CENTER
 62
       2
  5
35
 10
14.49832535
 20
31.00000572
 30
0.0
 11
14.49832535
 21
-31.0
 31
0.0
  0
LINE
  8
0
  6
CONTINUOUS
 62
       7
  5
36
 10
6.63952637
 20
-26.0
 30
0.0
 11
88.0
 21
-26.0
 31
0.0
  0
LINE
  8
0
  6
CONTINUOUS
 62
       7
  5
37
 10
0.00000956
 20
14.49999631
 30
0.0
 11
6.63953974
 21
25.99999971
 31
0.0
  0
LINE
  8
0
  6
CENTER
 62
       2
  5
38
 10
45.0
 20
31.0
 30
0.0
 11
45.0
 21
12.49999619
 31
0.0
  0
LINE
  8
0
  6
CENTER
 62
       2
  5
39
 10
74.0
 20
31.0
 30
0.0
 11
74.0
 21
12.49999619
 31
0.0
  0
LINE
  8
0
  6
CENTER
 62
       2
  5
3A
 10
43.0
 20
-28.0
 30
0.0
 11
43.0
 21
-13.99999809
 31
0.0
  0
LINE
  8
0
  6
CONTINUOUS
 62
       7
  5
3B
 10
6.63953018
 20
26.0
 30
0.0
 11
88.0
 21
26.0
 31
0.0
  0
LINE
  8
0
  6
CONTINUOUS
 62
       7
  5
3C
 10
-26.5
 20
-24.5
 30
0.0
 11
-26.5
 21
-14.49999809
 31
0.0
  0
LINE
  8
0
  6
CONTINUOUS
 62
       7
  5
3D
 10
-26.5
 20
-24.5
 30
0.0
 11
5.77350235
 21
-24.5
 31
0.0
  0
CIRCLE
  8
0
  6
CONTINUOUS
 62
       2
  5
3E
 10
14.49832535
 20
-18.5
 30
0.0
 40
2.5
  0
CIRCLE
  8
0
  6
CONTINUOUS
 62
       2
  5
3F
 10
33.0
 20
-18.0
 30
0.0
 40
3.0
  0
CIRCLE
  8
0
  6
CONTINUOUS
 62
       7
  5
40
 10
33.0
 20
-18.0
 30
0.0
 40
2.5
  0
LINE
  8
0
  6
PHANTOM
 62
       2
  5
42
 10
14.49832535
 20
61.55665207
 30
0.0
 11
14.49832535
 21
14.0
 31
0.0
  0
LINE
  8
0
  6
PHANTOM
 62
       2
  5
43
 10
20.49832535
 20
59.49832535
 30
0.0
 11
20.49832535
 21
26.0
 31
0.0
  0
LINE
  8
0
  6
PHANTOM
 62
       2
  5
44
 10
10.49832344
 20
59.49832535
 30
0.0
 11
10.49832344
 21
26.0
 31
0.0
  0
LINE
  8
0
  6
PHANTOM
 62
       2
  5
45
 10
20.49832535
 20
59.49832535
 30
0.0
 11
10.49832344
 21
59.49832535
 31
0.0
  0
LINE
  8
0
  6
PHANTOM
 62
       2
  5
46
 10
-28.49931908
 20
16.24658894
 30
0.0
 11
18.99215825
 21
18.7355118
 31
0.0
  0
LINE
  8
0
  6
PHANTOM
 62
       2
  5
47
 10
-26.75782896
 20
22.34609065
 30
0.0
 11
6.6945881
 21
24.09925754
 31
0.0
  0
LINE
  8
0
  6
PHANTOM
 62
       2
  5
48
 10
-26.2344693
 20
12.35979339
 30
0.0
 11
7.21794776
 21
14.11296028
 31
0.0
  0
LINE
  8
0
  6
PHANTOM
 62
       2
  5
49
 10
-26.75782896
 20
22.34609065
 30
0.0
 11
-26.2344693
 21
12.35979339
 31
0.0
  0
LINE
  8
0
  6
PHANTOM
 62
       2
  5
4A
 10
-26.75782896
 20
-22.34609065
 30
0.0
 11
-26.2344693
 21
-12.35979339
 31
0.0
  0
LINE
  8
0
  6
PHANTOM
 62
       2
  5
4B
 10
-26.2344693
 20
-12.35979339
 30
0.0
 11
7.21794776
 21
-14.11296028
 31
0.0
  0
LINE
  8
0
  6
PHANTOM
 62
       2
  5
4C
 10
-26.75782896
 20
-22.34609065
 30
0.0
 11
6.6945881
 21
-24.09925754
 31
0.0
  0
LINE
  8
0
  6
PHANTOM
 62
       2
  5
4D
 10
-28.49931908
 20
-16.24658894
 30
0.0
 11
18.99215825
 21
-18.7355118
 31
0.0
  0
LINE
  8
0
  6
PHANTOM
 62
       2
  5
4E
 10
20.49832535
 20
-59.49832535
 30
0.0
 11
10.49832344
 21
-59.49832535
 31
0.0
  0
LINE
  8
0
  6
PHANTOM
 62
       2
  5
4F
 10
10.49832344
 20
-59.49832535
 30
0.0
 11
10.49832344
 21
-26.0
 31
0.0
  0
LINE
  8
0
  6
PHANTOM
 62
       2
  5
50
 10
20.49832535
 20
-59.49832535
 30
0.0
 11
20.49832535
 21
-26.0
 31
0.0
  0
LINE
  8
0
  6
PHANTOM
 62
       2
  5
51
 10
14.49832535
 20
-61.55665207
 30
0.0
 11
14.49832535
 21
-14.0
 31
0.0
  0
ARC
  8
0
  6
PHANTOM
 62
       2
  5
52
 10
14.49832535
 20
18.5
 30
0.0
 40
41.19299329
 50
96.9440805
 51
168.82336145
  0
ARC
  8
0
  6
PHANTOM
 62
       2
  5
53
 10
14.49832535
 20
-18.5
 30
0.0
 40
41.19299329
 50
191.17663855
 51
263.0559195
  0
LINE
  8
0
  6
CONTINUOUS
 62
       4
  5
54
 10
88.0
 20
18.74998741
 30
0.0
 11
97.24
 21
18.74998741
 31
0.0
  0
LINE
  8
0
  6
CONTINUOUS
 62
     200
  5
55
 10
96.75
 20
19.60998741
 30
0.0
 11
99.25
 21
15.27998741
 31
0.0
  0
LINE
  8
0
  6
CONTINUOUS
 62
       4
  5
56
 10
88.0
 20
16.14998741
 30
0.0
 11
98.75
 21
16.14998741
 31
0.0
  0
LINE
  8
0
  6
CONTINUOUS
 62
       4
  5
57
 10
88.0
 20
-16.14998741
 30
0.0
 11
97.24
 21
-16.14998741
 31
0.0
  0
LINE
  8
0
  6
CONTINUOUS
 62
     200
  5
58
 10
96.75
 20
-15.28998741
 30
0.0
 11
99.25
 21
-19.61998741
 31
0.0
  0
LINE
  8
0
  6
CONTINUOUS
 62
       4
  5
59
 10
88.0
 20
-18.74998741
 30
0.0
 11
98.75
 21
-18.74998741
 31
0.0
  0
ENDBLK
  8
0
  5
5A
  0
BLOCK
  8
0
  5
5B
  2
MS_2
 70
       0
 10
0.0
 20
0.0
 30
0.0
  3
MS_2
  0
LINE
  8
0
  6
CONTINUOUS
 62
       7
  5
5C
 10
2.09999084
 20
18.70000458
 30
0.0
 11
2.09999084
 21
17.09999847
 31
0.0
  0
LINE
  8
0
  6
CONTINUOUS
 62
       7
  5
5D
 10
-16.0
 20
26.0
 30
0.0
 11
-2.25
 21
26.0
 31
0.0
  0
LINE
  8
0
  6
CENTER
 62
       2
  5
5E
 10
-5.5
 20
20.0
 30
0.0
 11
-14.5
 21
20.0
 31
0.0
  0
LINE
  8
0
  6
CENTER
 62
       2
  5
5F
 10
0.0
 20
30.0
 30
0.0
 11
0.0
 21
-29.72562599
 31
0.0
  0
LINE
  8
0
  6
CENTER
 62
       2
  5
60
 10
-10.0
 20
24.50000954
 30
0.0
 11
-10.0
 21
15.50000572
 31
0.0
  0
LINE
  8
0
  6
CENTER
 62
       2
  5
61
 10
-20.0
 20
0.0
 30
0.0
 11
20.0
 21
0.0
 31
0.0
  0
LINE
  8
0
  6
CONTINUOUS
 62
       7
  5
62
 10
-2.1000061
 20
18.70000458
 30
0.0
 11
-2.1000061
 21
17.09999847
 31
0.0
  0
LINE
  8
0
  6
CONTINUOUS
 62
       7
  5
63
 10
-1.6000061
 20
20.05001068
 30
0.0
 11
-1.6000061
 21
19.20000458
 31
0.0
  0
LINE
  8
0
  6
CONTINUOUS
 62
       7
  5
64
 10
1.59999084
 20
20.05001068
 30
0.0
 11
1.59999084
 21
19.20000458
 31
0.0
  0
LINE
  8
0
  6
CONTINUOUS
 62
       7
  5
65
 10
-2.25
 20
26.0
 30
0.0
 11
-2.25
 21
20.70000458
 31
0.0
  0
LINE
  8
0
  6
CONTINUOUS
 62
       7
  5
66
 10
2.25
 20
26.0
 30
0.0
 11
2.25
 21
20.70000458
 31
0.0
  0
LINE
  8
0
  6
CONTINUOUS
 62
       7
  5
67
 10
-1.59995701
 20
19.19996931
 30
0.0
 11
-2.09994675
 21
18.69997953
 31
0.0
  0
LINE
  8
0
  6
CONTINUOUS
 62
       7
  5
68
 10
1.60003373
 20
19.20002671
 30
0.0
 11
2.10003426
 21
18.70002614
 31
0.0
  0
LINE
  8
0
  6
CONTINUOUS
 62
       7
  5
69
 10
-2.24998448
 20
20.70000695
 30
0.0
 11
-1.59998703
 21
20.05000944
 31
0.0
  0
LINE
  8
0
  6
CONTINUOUS
 62
       7
  5
6A
 10
2.25002883
 20
20.69998192
 30
0.0
 11
1.60003138
 21
20.04998441
 31
0.0
  0
LINE
  8
0
  6
CENTER
 62
       2
  5
6B
 10
10.0
 20
-24.5
 30
0.0
 11
10.0
 21
-15.49999809
 31
0.0
  0
LINE
  8
0
  6
CENTER
 62
       2
  5
6C
 10
5.5
 20
-20.0
 30
0.0
 11
14.5
 21
-20.0
 31
0.0
  0
LINE
  8
0
  6
CONTINUOUS
 62
       7
  5
6D
 10
-2.1000061
 20
-18.70000458
 30
0.0
 11
-2.1000061
 21
-17.09999847
 31
0.0
  0
LINE
  8
0
  6
CONTINUOUS
 62
       7
  5
6E
 10
16.0
 20
-26.0
 30
0.0
 11
2.25
 21
-26.0
 31
0.0
  0
LINE
  8
0
  6
CONTINUOUS
 62
       7
  5
6F
 10
2.25
 20
26.0
 30
0.0
 11
16.0
 21
26.0
 31
0.0
  0
LINE
  8
0
  6
CONTINUOUS
 62
       7
  5
70
 10
2.09999084
 20
-18.70000458
 30
0.0
 11
2.09999084
 21
-17.09999847
 31
0.0
  0
LINE
  8
0
  6
CONTINUOUS
 62
       7
  5
71
 10
1.59999084
 20
-20.05001068
 30
0.0
 11
1.59999084
 21
-19.20000458
 31
0.0
  0
LINE
  8
0
  6
CONTINUOUS
 62
       7
  5
72
 10
-1.6000061
 20
-20.05001068
 30
0.0
 11
-1.6000061
 21
-19.20000458
 31
0.0
  0
LINE
  8
0
  6
CONTINUOUS
 62
       7
  5
73
 10
2.25
 20
-26.0
 30
0.0
 11
2.25
 21
-20.70000458
 31
0.0
  0
LINE
  8
0
  6
CONTINUOUS
 62
       7
  5
74
 10
-2.25
 20
-26.0
 30
0.0
 11
-2.25
 21
-20.70000458
 31
0.0
  0
LINE
  8
0
  6
CONTINUOUS
 62
       7
  5
75
 10
1.60003303
 20
-19.20002622
 30
0.0
 11
2.10002277
 21
-18.70003643
 31
0.0
  0
LINE
  8
0
  6
CONTINUOUS
 62
       7
  5
76
 10
-1.59997789
 20
-19.19999039
 30
0.0
 11
-2.09997842
 21
-18.69998982
 31
0.0
  0
LINE
  8
0
  6
CONTINUOUS
 62
       7
  5
77
 10
2.25004032
 20
-20.69997063
 30
0.0
 11
1.60004287
 21
-20.04997312
 31
0.0
  0
LINE
  8
0
  6
CONTINUOUS
 62
       7
  5
78
 10
-2.2499636
 20
-20.70004961
 30
0.0
 11
-1.59997694
 21
-20.0500629
 31
0.0
  0
LINE
  8
0
  6
CONTINUOUS
 62
       7
  5
79
 10
-2.25
 20
-26.0
 30
0.0
 11
-16.0
 21
-26.0
 31
0.0
  0
LINE
  8
0
  6
CONTINUOUS
 62
       7
  5
7A
 10
16.0
 20
26.00000572
 30
0.0
 11
16.0
 21
-26.0
 31
0.0
  0
LINE
  8
0
  6
CONTINUOUS
 62
       7
  5
7B
 10
-16.0
 20
26.00000572
 30
0.0
 11
-16.0
 21
-26.0
 31
0.0
  0
CIRCLE
  8
0
  6
CONTINUOUS
 62
       2
  5
7C
 10
-10.0
 20
20.0
 30
0.0
 40
2.5
  0
CIRCLE
  8
0
  6
CONTINUOUS
 62
       7
  5
7D
 10
0.0
 20
0.0
 30
0.0
 40
13.0
  0
CIRCLE
  8
0
  6
CONTINUOUS
 62
       7
  5
7E
 10
-10.0
 20
20.0
 30
0.0
 40
2.0
  0
ARC
  8
0
  6
CONTINUOUS
 62
       7
  5
7F
 10
0.0
 20
17.09999657
 30
0.0
 40
2.09999847
 50
179.99997769
 51
0.00001002
  0
CIRCLE
  8
0
  6
CONTINUOUS
 62
       2
  5
80
 10
10.0
 20
-20.0
 30
0.0
 40
2.5
  0
CIRCLE
  8
0
  6
CONTINUOUS
 62
       7
  5
81
 10
10.0
 20
-20.0
 30
0.0
 40
2.0
  0
ARC
  8
0
  6
CONTINUOUS
 62
       7
  5
82
 10
0.0
 20
-17.09999847
 30
0.0
 40
2.09999847
 50
359.99998201
 51
179.99995037
  0
LINE
  8
0
  6
CONTINUOUS
 62
       4
  5
83
 10
1.6
 20
19.19999809
 30
0.0
 11
1.5
 21
19.29999809
 31
0.0
  0
LINE
  8
0
  6
CONTINUOUS
 62
       4
  5
84
 10
1.5
 20
19.74999809
 30
0.0
 11
1.5
 21
19.29999809
 31
0.0
  0
LINE
  8
0
  6
CONTINUOUS
 62
       4
  5
85
 10
-1.5
 20
19.74999809
 30
0.0
 11
1.5
 21
19.74999809
 31
0.0
  0
LINE
  8
0
  6
CONTINUOUS
 62
       4
  5
86
 10
1.25
 20
20.24999809
 30
0.0
 11
1.25
 21
19.74999809
 31
0.0
  0
LINE
  8
0
  6
CONTINUOUS
 62
       4
  5
87
 10
-1.25
 20
20.24999809
 30
0.0
 11
1.25
 21
20.24999809
 31
0.0
  0
LINE
  8
0
  6
CONTINUOUS
 62
       4
  5
88
 10
-1.25
 20
20.24999809
 30
0.0
 11
-1.25
 21
19.74999809
 31
0.0
  0
LINE
  8
0
  6
CONTINUOUS
 62
       4
  5
89
 10
-1.5
 20
19.74999809
 30
0.0
 11
-1.5
 21
19.29999809
 31
0.0
  0
LINE
  8
0
  6
CONTINUOUS
 62
       4
  5
8A
 10
-1.6
 20
19.19999809
 30
0.0
 11
-1.5
 21
19.29999809
 31
0.0
  0
CIRCLE
  8
0
  6
CONTINUOUS
 62
       4
  5
8B
 10
0.0
 20
17.44998741
 30
0.0
 40
1.29999924
  0
LINE
  8
0
  6
CONTINUOUS
 62
       4
  5
8C
 10
1.6
 20
-19.19999809
 30
0.0
 11
1.5
 21
-19.29999809
 31
0.0
  0
LINE
  8
0
  6
CONTINUOUS
 62
       4
  5
8D
 10
-1.5
 20
-19.74999809
 30
0.0
 11
1.5
 21
-19.74999809
 31
0.0
  0
LINE
  8
0
  6
CONTINUOUS
 62
       4
  5
8E
 10
-1.25
 20
-20.24999809
 30
0.0
 11
1.25
 21
-20.24999809
 31
0.0
  0
CIRCLE
  8
0
  6
CONTINUOUS
 62
       4
  5
8F
 10
0.0
 20
-17.44998741
 30
0.0
 40
1.29999924
  0
LINE
  8
0
  6
CONTINUOUS
 62
       4
  5
90
 10
1.25
 20
-20.24999809
 30
0.0
 11
1.25
 21
-19.74999809
 31
0.0
  0
LINE
  8
0
  6
CONTINUOUS
 62
       4
  5
91
 10
1.5
 20
-19.74999809
 30
0.0
 11
1.5
 21
-19.29999809
 31
0.0
  0
LINE
  8
0
  6
CONTINUOUS
 62
       4
  5
92
 10
-1.6
 20
-19.19999809
 30
0.0
 11
-1.5
 21
-19.29999809
 31
0.0
  0
LINE
  8
0
  6
CONTINUOUS
 62
       4
  5
93
 10
-1.5
 20
-19.74999809
 30
0.0
 11
-1.5
 21
-19.29999809
 31
0.0
  0
LINE
  8
0
  6
CONTINUOUS
 62
       4
  5
94
 10
-1.25
 20
-20.24999809
 30
0.0
 11
-1.25
 21
-19.74999809
 31
0.0
  0
ENDBLK
  8
0
  5
95
  0
BLOCK
  8
0
  5
96
  2
MS_3
 70
       0
 10
0.0
 20
0.0
 30
0.0
  3
MS_3
  0
LINE
  8
0
  6
CONTINUOUS
 62
       7
  5
97
 10
88.0
 20
1.3
 30
0.0
 11
88.0
 21
15.99998474
 31
0.0
  0
LINE
  8
0
  6
CONTINUOUS
 62
       7
  5
98
 10
0.0
 20
-16.00003052
 30
0.0
 11
88.0
 21
-16.00003052
 31
0.0
  0
LINE
  8
0
  6
CONTINUOUS
 62
       7
  5
99
 10
0.0
 20
16.0
 30
0.0
 11
88.0
 21
16.0
 31
0.0
  0
LINE
  8
0
  6
CONTINUOUS
 62
       7
  5
9A
 10
29.65832901
 20
-6.20001221
 30
0.0
 11
29.65832901
 21
6.19998169
 31
0.0
  0
LINE
  8
0
  6
CONTINUOUS
 62
       7
  5
9B
 10
0.0
 20
-16.00003052
 30
0.0
 11
0.0
 21
-6.20001221
 31
0.0
  0
LINE
  8
0
  6
CONTINUOUS
 62
       7
  5
9C
 10
0.0
 20
6.19998169
 30
0.0
 11
0.0
 21
15.99998474
 31
0.0
  0
LINE
  8
0
  6
CENTER
 62
       2
  5
9D
 10
-28.0
 20
0.0
 30
0.0
 11
92.0
 21
0.0
 31
0.0
  0
LINE
  8
0
  6
CONTINUOUS
 62
       7
  5
9E
 10
0.0
 20
-6.20001221
 30
0.0
 11
29.65832901
 21
-6.20001221
 31
0.0
  0
LINE
  8
0
  6
CONTINUOUS
 62
       7
  5
9F
 10
0.0
 20
6.19998169
 30
0.0
 11
29.65832901
 21
6.19998169
 31
0.0
  0
LINE
  8
0
  6
CONTINUOUS
 62
       7
  5
A0
 10
-26.5
 20
-6.00001526
 30
0.0
 11
-26.5
 21
5.99998474
 31
0.0
  0
LINE
  8
0
  6
CONTINUOUS
 62
       7
  5
A1
 10
29.65832901
 20
1.6000061
 30
0.0
 11
88.0
 21
1.6000061
 31
0.0
  0
LINE
  8
0
  6
CONTINUOUS
 62
       7
  5
A2
 10
29.65832901
 20
-1.6000061
 30
0.0
 11
88.0
 21
-1.6000061
 31
0.0
  0
LINE
  8
0
  6
CONTINUOUS
 62
       7
  5
A3
 10
88.0
 20
-16.00003052
 30
0.0
 11
88.0
 21
-1.3
 31
0.0
  0
LINE
  8
0
  6
CENTER
 62
       2
  5
A4
 10
38.75
 20
-9.00001526
 30
0.0
 11
51.25
 21
-9.00001526
 31
0.0
  0
LINE
  8
0
  6
CENTER
 62
       2
  5
A5
 10
67.75
 20
9.0
 30
0.0
 11
80.25
 21
9.0
 31
0.0
  0
LINE
  8
0
  6
CENTER
 62
       2
  5
A6
 10
74.0
 20
15.24998474
 30
0.0
 11
74.0
 21
2.74998474
 31
0.0
  0
LINE
  8
0
  6
CENTER
 62
       2
  5
A7
 10
45.0
 20
-2.75001526
 30
0.0
 11
45.0
 21
-15.25001526
 31
0.0
  0
LINE
  8
0
  6
CONTINUOUS
 62
       7
  5
A8
 10
-26.5
 20
6.0
 30
0.0
 11
29.65832901
 21
6.0
 31
0.0
  0
LINE
  8
0
  6
CONTINUOUS
 62
       7
  5
A9
 10
-26.5
 20
-6.00001526
 30
0.0
 11
29.65832901
 21
-6.00001526
 31
0.0
  0
LINE
  8
0
  6
CENTER
 62
       2
  5
AA
 10
-21.5
 20
-5.00001526
 30
0.0
 11
-21.5
 21
4.99998474
 31
0.0
  0
LINE
  8
0
  6
CENTER
 62
       2
  5
AB
 10
-9.5
 20
-5.00001526
 30
0.0
 11
-9.5
 21
4.99998474
 31
0.0
  0
LINE
  8
0
  6
CENTER
 62
       2
  5
AC
 10
10.49832535
 20
-12.00001526
 30
0.0
 11
18.49832535
 21
-12.00001526
 31
0.0
  0
LINE
  8
0
  6
CENTER
 62
       2
  5
AD
 10
10.49832535
 20
12.0
 30
0.0
 11
18.49832535
 21
12.0
 31
0.0
  0
LINE
  8
0
  6
CENTER
 62
       2
  5
AE
 10
14.49832535
 20
16.0
 30
0.0
 11
14.49832535
 21
7.99998474
 31
0.0
  0
LINE
  8
0
  6
CENTER
 62
       2
  5
AF
 10
14.49832535
 20
-16.00003052
 30
0.0
 11
14.49832535
 21
-8.00001526
 31
0.0
  0
LINE
  8
0
  6
CONTINUOUS
 62
       7
  5
B0
 10
26.5
 20
-6.00001526
 30
0.0
 11
26.5
 21
5.99998474
 31
0.0
  0
LINE
  8
0
  6
CONTINUOUS
 62
       7
  5
B1
 10
11.99832535
 20
1.84999084
 30
0.0
 11
11.99832535
 21
-1.8500061
 31
0.0
  0
LINE
  8
0
  6
CONTINUOUS
 62
       7
  5
B2
 10
16.99832535
 20
1.84999084
 30
0.0
 11
16.99832535
 21
-1.8500061
 31
0.0
  0
LINE
  8
0
  6
CONTINUOUS
 62
       7
  5
B3
 10
11.5
 20
-1.8500061
 30
0.0
 11
11.5
 21
1.84999084
 31
0.0
  0
LINE
  8
0
  6
CONTINUOUS
 62
       7
  5
B4
 10
11.5
 20
-1.8500061
 30
0.0
 11
26.5
 21
-1.8500061
 31
0.0
  0
LINE
  8
0
  6
CONTINUOUS
 62
       7
  5
B5
 10
11.5
 20
1.8500061
 30
0.0
 11
26.5
 21
1.8500061
 31
0.0
  0
LINE
  8
0
  6
CONTINUOUS
 62
       7
  5
B6
 10
16.99832535
 20
-1.75001526
 30
0.0
 11
26.5
 21
-1.75001526
 31
0.0
  0
LINE
  8
0
  6
CONTINUOUS
 62
       7
  5
B7
 10
16.99832535
 20
1.75
 30
0.0
 11
26.5
 21
1.75
 31
0.0
  0
LINE
  8
0
  6
CONTINUOUS
 62
       7
  5
B8
 10
26.5
 20
5.0
 30
0.0
 11
29.65832901
 21
5.0
 31
0.0
  0
LINE
  8
0
  6
CONTINUOUS
 62
       7
  5
B9
 10
26.5
 20
-5.00001526
 30
0.0
 11
29.65832901
 21
-5.00001526
 31
0.0
  0
CIRCLE
  8
0
  6
CONTINUOUS
 62
       7
  5
BA
 10
45.0
 20
-9.00001526
 30
0.0
 40
2.0
  0
CIRCLE
  8
0
  6
CONTINUOUS
 62
       7
  5
BB
 10
74.0
 20
9.0
 30
0.0
 40
2.0
  0
CIRCLE
  8
0
  6
CONTINUOUS
 62
       7
  5
BC
 10
45.0
 20
-9.00001526
 30
0.0
 40
4.25
  0
CIRCLE
  8
0
  6
CONTINUOUS
 62
       7
  5
BD
 10
74.0
 20
9.0
 30
0.0
 40
4.25
  0
CIRCLE
  8
0
  6
CONTINUOUS
 62
       2
  5
BE
 10
45.0
 20
-9.00001526
 30
0.0
 40
2.5
  0
CIRCLE
  8
0
  6
CONTINUOUS
 62
       2
  5
BF
 10
74.0
 20
9.0
 30
0.0
 40
2.5
  0
CIRCLE
  8
0
  6
CONTINUOUS
 62
       2
  5
C0
 10
-9.5
 20
0.0
 30
0.0
 40
2.5
  0
CIRCLE
  8
0
  6
CONTINUOUS
 62
       2
  5
C1
 10
-21.5
 20
0.0
 30
0.0
 40
2.5
  0
CIRCLE
  8
0
  6
CONTINUOUS
 62
       7
  5
C2
 10
-21.5
 20
0.0
 30
0.0
 40
2.0
  0
CIRCLE
  8
0
  6
CONTINUOUS
 62
       7
  5
C3
 10
-9.5
 20
0.0
 30
0.0
 40
2.0
  0
CIRCLE
  8
0
  6
CONTINUOUS
 62
       7
  5
C4
 10
14.49832535
 20
-12.00001526
 30
0.0
 40
1.60000002
  0
CIRCLE
  8
0
  6
CONTINUOUS
 62
       2
  5
C5
 10
14.49832535
 20
12.0
 30
0.0
 40
2.0
  0
CIRCLE
  8
0
  6
CONTINUOUS
 62
       7
  5
C6
 10
14.49832535
 20
12.0
 30
0.0
 40
1.60000002
  0
CIRCLE
  8
0
  6
CONTINUOUS
 62
       2
  5
C7
 10
14.49832535
 20
-12.00001526
 30
0.0
 40
2.0
  0
LINE
  8
0
  6
CONTINUOUS
 62
       7
  5
C8
 10
6.63953991
 20
-16.0000305
 30
0.0
 11
6.63953991
 21
-6.20001221
 31
0.0
  0
LINE
  8
0
  6
CONTINUOUS
 62
       7
  5
C9
 10
6.63953991
 20
6.19998169
 30
0.0
 11
6.63953991
 21
16.00000002
 31
0.0
  0
LINE
  8
0
  6
CONTINUOUS
 62
       4
  5
CA
 10
48.15832901
 20
-1.3
 30
0.0
 11
98.74769053
 21
-1.3
 31
0.0
  0
LINE
  8
0
  6
CONTINUOUS
 62
       4
  5
CB
 10
48.15832901
 20
1.3
 30
0.0
 11
97.23769053
 21
1.3
 31
0.0
  0
LINE
  8
0
  6
CONTINUOUS
 62
     200
  5
CC
 10
96.74769053
 20
2.16
 30
0.0
 11
99.24769053
 21
-2.16
 31
0.0
  0
LINE
  8
0
  6
CONTINUOUS
 62
       4
  5
CD
 10
32.65832901
 20
1.6
 30
0.0
 11
32.65832901
 21
-1.6
 31
0.0
  0
LINE
  8
0
  6
CONTINUOUS
 62
       4
  5
CE
 10
33.61832901
 20
-0.7
 30
0.0
 11
35.35832901
 21
1.03
 31
0.0
  0
CIRCLE
  8
0
  6
CONTINUOUS
 62
       4
  5
CF
 10
34.65834427
 20
0.0
 30
0.0
 40
1.25
  0
CIRCLE
  8
0
  6
CONTINUOUS
 62
       4
  5
D0
 10
34.65834427
 20
0.0
 30
0.0
 40
1.39999962
  0
LINE
  8
0
  6
CONTINUOUS
 62
       4
  5
D1
 10
33.97832901
 20
-1.05
 30
0.0
 11
35.70832901
 21
0.67
 31
0.0
  0
LINE
  8
0
  6
CONTINUOUS
 62
       4
  5
D2
 10
48.15832901
 20
1.6
 30
0.0
 11
48.15832901
 21
-1.6
 31
0.0
  0
ENDBLK
  8
0
  5
D3
  0
BLOCK
  8
0
  5
D4
  2
MS_4
 70
       0
 10
0.0
 20
0.0
 30
0.0
  3
MS_4
  0
LINE
  8
0
  6
CONTINUOUS
 62
       7
  5
D5
 10
0.0
 20
16.00000763
 30
0.0
 11
88.0
 21
16.00000763
 31
0.0
  0
LINE
  8
0
  6
CONTINUOUS
 62
       7
  5
D6
 10
0.0
 20
-16.0
 30
0.0
 11
88.0
 21
-16.0
 31
0.0
  0
LINE
  8
0
  6
CONTINUOUS
 62
       7
  5
D7
 10
29.65832901
 20
6.19999695
 30
0.0
 11
29.65832901
 21
-6.19999695
 31
0.0
  0
LINE
  8
0
  6
CONTINUOUS
 62
       7
  5
D8
 10
0.0
 20
16.00000763
 30
0.0
 11
0.0
 21
6.19999695
 31
0.0
  0
LINE
  8
0
  6
CENTER
 62
       2
  5
D9
 10
-29.5
 20
0.0
 30
0.0
 11
100.22866053
 21
0.0
 31
0.0
  0
LINE
  8
0
  6
CONTINUOUS
 62
       7
  5
DA
 10
0.0
 20
-6.19999695
 30
0.0
 11
0.0
 21
-16.0
 31
0.0
  0
LINE
  8
0
  6
CONTINUOUS
 62
       7
  5
DB
 10
-26.5
 20
6.0
 30
0.0
 11
-26.5
 21
-6.0
 31
0.0
  0
LINE
  8
0
  6
CENTER
 62
       2
  5
DC
 10
43.0
 20
13.00000763
 30
0.0
 11
43.0
 21
3.0
 31
0.0
  0
LINE
  8
0
  6
CONTINUOUS
 62
       7
  5
DD
 10
29.65832901
 20
-1.59999847
 30
0.0
 11
88.0
 21
-1.59999847
 31
0.0
  0
LINE
  8
0
  6
CONTINUOUS
 62
       7
  5
DE
 10
29.65832901
 20
1.59999847
 30
0.0
 11
88.0
 21
1.59999847
 31
0.0
  0
LINE
  8
0
  6
CENTER
 62
       2
  5
DF
 10
38.0
 20
8.0
 30
0.0
 11
48.0
 21
8.0
 31
0.0
  0
LINE
  8
0
  6
CENTER
 62
       2
  5
E0
 10
43.0
 20
-13.0
 30
0.0
 11
43.0
 21
-3.0
 31
0.0
  0
LINE
  8
0
  6
CENTER
 62
       2
  5
E1
 10
38.0
 20
-8.0
 30
0.0
 11
48.0
 21
-8.0
 31
0.0
  0
LINE
  8
0
  6
CONTINUOUS
 62
       7
  5
E2
 10
88.0
 20
16.00000763
 30
0.0
 11
88.0
 21
1.3
 31
0.0
  0
LINE
  8
0
  6
CENTER
 62
       2
  5
E3
 10
-21.5
 20
5.0
 30
0.0
 11
-21.5
 21
-5.0
 31
0.0
  0
LINE
  8
0
  6
CENTER
 62
       2
  5
E4
 10
-9.5
 20
5.0
 30
0.0
 11
-9.5
 21
-5.0
 31
0.0
  0
LINE
  8
0
  6
CONTINUOUS
 62
       7
  5
E5
 10
-26.5
 20
6.0
 30
0.0
 11
29.65832901
 21
6.0
 31
0.0
  0
LINE
  8
0
  6
CONTINUOUS
 62
       7
  5
E6
 10
-26.5
 20
-6.0
 30
0.0
 11
29.65832901
 21
-6.0
 31
0.0
  0
LINE
  8
0
  6
CONTINUOUS
 62
       7
  5
E7
 10
0.0
 20
6.19999695
 30
0.0
 11
29.65832901
 21
6.19999695
 31
0.0
  0
LINE
  8
0
  6
CONTINUOUS
 62
       7
  5
E8
 10
0.0
 20
-6.19999695
 30
0.0
 11
29.65832901
 21
-6.19999695
 31
0.0
  0
LINE
  8
0
  6
CENTER
 62
       2
  5
E9
 10
10.49832535
 20
12.0
 30
0.0
 11
18.49832535
 21
12.0
 31
0.0
  0
LINE
  8
0
  6
CENTER
 62
       2
  5
EA
 10
14.49832535
 20
16.00000763
 30
0.0
 11
14.49832535
 21
8.0
 31
0.0
  0
LINE
  8
0
  6
CENTER
 62
       2
  5
EB
 10
10.49832535
 20
-12.0
 30
0.0
 11
18.49832535
 21
-12.0
 31
0.0
  0
LINE
  8
0
  6
CENTER
 62
       2
  5
EC
 10
14.49832535
 20
-16.0
 30
0.0
 11
14.49832535
 21
-8.0
 31
0.0
  0
LINE
  8
0
  6
CONTINUOUS
 62
       7
  5
ED
 10
26.5
 20
-6.0
 30
0.0
 11
26.5
 21
6.0
 31
0.0
  0
LINE
  8
0
  6
CONTINUOUS
 62
       7
  5
EE
 10
11.5
 20
1.84999847
 30
0.0
 11
26.5
 21
1.84999847
 31
0.0
  0
LINE
  8
0
  6
CONTINUOUS
 62
       7
  5
EF
 10
11.5
 20
-1.84999847
 30
0.0
 11
11.5
 21
1.84999847
 31
0.0
  0
LINE
  8
0
  6
CONTINUOUS
 62
       7
  5
F0
 10
16.99832535
 20
1.84999847
 30
0.0
 11
16.99832535
 21
-1.84999847
 31
0.0
  0
LINE
  8
0
  6
CONTINUOUS
 62
       7
  5
F1
 10
11.5
 20
-1.84999847
 30
0.0
 11
26.5
 21
-1.84999847
 31
0.0
  0
LINE
  8
0
  6
CONTINUOUS
 62
       7
  5
F2
 10
11.99832535
 20
1.84999847
 30
0.0
 11
11.99832535
 21
-1.84999847
 31
0.0
  0
LINE
  8
0
  6
CONTINUOUS
 62
       7
  5
F3
 10
16.99832535
 20
-1.75
 30
0.0
 11
26.5
 21
-1.75
 31
0.0
  0
LINE
  8
0
  6
CONTINUOUS
 62
       7
  5
F4
 10
16.99832535
 20
1.75
 30
0.0
 11
26.5
 21
1.75
 31
0.0
  0
LINE
  8
0
  6
CONTINUOUS
 62
       7
  5
F5
 10
26.5
 20
-5.0
 30
0.0
 11
29.65832901
 21
-5.0
 31
0.0
  0
LINE
  8
0
  6
CONTINUOUS
 62
       7
  5
F6
 10
26.5
 20
5.0
 30
0.0
 11
29.65832901
 21
5.0
 31
0.0
  0
CIRCLE
  8
0
  6
CONTINUOUS
 62
       7
  5
F7
 10
43.0
 20
8.0
 30
0.0
 40
2.5
  0
CIRCLE
  8
0
  6
CONTINUOUS
 62
       7
  5
F8
 10
43.0
 20
-8.0
 30
0.0
 40
2.5
  0
CIRCLE
  8
0
  6
CONTINUOUS
 62
       2
  5
F9
 10
43.0
 20
8.0
 30
0.0
 40
3.0
  0
CIRCLE
  8
0
  6
CONTINUOUS
 62
       2
  5
FA
 10
43.0
 20
-8.0
 30
0.0
 40
3.0
  0
CIRCLE
  8
0
  6
CONTINUOUS
 62
       2
  5
FB
 10
-9.5
 20
0.0
 30
0.0
 40
2.5
  0
CIRCLE
  8
0
  6
CONTINUOUS
 62
       2
  5
FC
 10
-21.5
 20
0.0
 30
0.0
 40
2.5
  0
CIRCLE
  8
0
  6
CONTINUOUS
 62
       7
  5
FD
 10
-21.5
 20
0.0
 30
0.0
 40
2.0
  0
CIRCLE
  8
0
  6
CONTINUOUS
 62
       7
  5
FE
 10
-9.5
 20
0.0
 30
0.0
 40
2.0
  0
CIRCLE
  8
0
  6
CONTINUOUS
 62
       2
  5
FF
 10
14.49832535
 20
12.0
 30
0.0
 40
2.0
  0
CIRCLE
  8
0
  6
CONTINUOUS
 62
       7
  5
100
 10
14.49832535
 20
12.0
 30
0.0
 40
1.60000002
  0
CIRCLE
  8
0
  6
CONTINUOUS
 62
       2
  5
101
 10
14.49832535
 20
-12.0
 30
0.0
 40
2.0
  0
CIRCLE
  8
0
  6
CONTINUOUS
 62
       7
  5
102
 10
14.49832535
 20
-12.0
 30
0.0
 40
1.60000002
  0
LINE
  8
0
  6
CONTINUOUS
 62
       7
  5
103
 10
6.63953332
 20
-15.99999998
 30
0.0
 11
6.63953332
 21
-6.19999695
 31
0.0
  0
LINE
  8
0
  6
CONTINUOUS
 62
       7
  5
104
 10
6.63953332
 20
6.19999695
 30
0.0
 11
6.63953332
 21
16.00000765
 31
0.0
  0
LINE
  8
0
  6
CONTINUOUS
 62
     200
  5
105
 10
96.75
 20
2.16
 30
0.0
 11
99.25
 21
-2.16
 31
0.0
  0
LINE
  8
0
  6
CONTINUOUS
 62
       4
  5
106
 10
80.5
 20
-1.3
 30
0.0
 11
98.75
 21
-1.3
 31
0.0
  0
LINE
  8
0
  6
CONTINUOUS
 62
       4
  5
107
 10
65.0
 20
1.6
 30
0.0
 11
65.0
 21
-1.6
 31
0.0
  0
LINE
  8
0
  6
CONTINUOUS
 62
       4
  5
108
 10
65.96
 20
-0.7
 30
0.0
 11
67.7
 21
1.03
 31
0.0
  0
CIRCLE
  8
0
  6
CONTINUOUS
 62
       4
  5
109
 10
67.00001526
 20
0.0
 30
0.0
 40
1.25
  0
CIRCLE
  8
0
  6
CONTINUOUS
 62
       4
  5
10A
 10
67.00001526
 20
0.0
 30
0.0
 40
1.39999962
  0
LINE
  8
0
  6
CONTINUOUS
 62
       4
  5
10B
 10
66.32
 20
-1.05
 30
0.0
 11
68.05
 21
0.67
 31
0.0
  0
LINE
  8
0
  6
CONTINUOUS
 62
       7
  5
10C
 10
88.0
 20
-1.3
 30
0.0
 11
88.0
 21
-16.0
 31
0.0
  0
LINE
  8
0
  6
CONTINUOUS
 62
       4
  5
10D
 10
80.5
 20
1.3
 30
0.0
 11
97.24
 21
1.3
 31
0.0
  0
LINE
  8
0
  6
CONTINUOUS
 62
       4
  5
10E
 10
80.5
 20
1.6
 30
0.0
 11
80.5
 21
-1.6
 31
0.0
  0
ENDBLK
  8
0
  5
10F
  0
ENDSEC
  0
SECTION
  2
ENTITIES
  0
INSERT
  8
0
  5
110
  2
MS_4
 10
-59.55097459
 20
-107.8809271
 30
0.0
  0
INSERT
  8
0
  5
111
  2
MS_3
 10
-59.55097459
 20
74.11909579
 30
0.0
  0
INSERT
  8
0
  5
112
  2
MS_2
 10
132.44902541
 20
-17.88092519
 30
0.0
  0
INSERT
  8
0
  5
113
  2
MS_1
 10
-59.55097459
 20
-17.88092519
 30
0.0
  0
TEXT
  8
0
  6
CONTINUOUS
 62
     255
  5
114
 10
-168.92430811
 20
122.8500061
 30
0.0
 40
4.5
  1
AIR HAND
 41
1.10091743
  7
MX_NOTE_STANDARD
 11
-168.92430811
 21
125.1000061
 31
0.0
 73
       2
  0
TEXT
  8
0
  6
CONTINUOUS
 62
       7
  5
115
 10
-185.71590909
 20
105.3500061
 30
0.0
 40
4.5
  1
MODEL:NHBDSL-25-ZE135A2
 41
1.04545454
  7
MX_NOTE_STANDARD
 11
-185.71590909
 21
107.6000061
 31
0.0
 73
       2
  0
LINE
  8
0
  6
CONTINUOUS
 62
       7
  5
116
 10
-194.25
 20
132.6000061
 30
0.0
 11
194.80000305
 21
132.6000061
 31
0.0
  0
LINE
  8
0
  6
CONTINUOUS
 62
       7
  5
117
 10
194.80000305
 20
132.6000061
 30
0.0
 11
194.80000305
 21
-133.5
 31
0.0
  0
LINE
  8
0
  6
CONTINUOUS
 62
       7
  5
118
 10
-194.25
 20
132.6000061
 30
0.0
 11
-194.25
 21
-133.5
 31
0.0
  0
LINE
  8
0
  6
CONTINUOUS
 62
       7
  5
119
 10
-194.25
 20
-133.5
 30
0.0
 11
194.80000305
 21
-133.5
 31
0.0
  0
LINE
  8
0
  6
CONTINUOUS
 62
       7
  5
11A
 10
109.80000305
 20
-118.5
 30
0.0
 11
109.80000305
 21
-133.5
 31
0.0
  0
LINE
  8
0
  6
CONTINUOUS
 62
       7
  5
11B
 10
109.80000305
 20
-118.5
 30
0.0
 11
194.80000305
 21
-118.5
 31
0.0
  0
LINE
  8
0
  6
CONTINUOUS
 62
       7
  5
11C
 10
109.80000305
 20
132.6000061
 30
0.0
 11
109.80000305
 21
117.6000061
 31
0.0
  0
LINE
  8
0
  6
CONTINUOUS
 62
       7
  5
11D
 10
109.80000305
 20
117.6000061
 30
0.0
 11
194.80000305
 21
117.6000061
 31
0.0
  0
LINE
  8
0
  6
CONTINUOUS
 62
       7
  5
11E
 10
-194.25
 20
117.6000061
 30
0.0
 11
-109.25
 21
117.6000061
 31
0.0
  0
LINE
  8
0
  6
CONTINUOUS
 62
       7
  5
11F
 10
-109.25
 20
132.6000061
 30
0.0
 11
-109.25
 21
117.6000061
 31
0.0
  0
TEXT
  8
0
  6
CONTINUOUS
 62
       7
  5
120
 10
135.28361341
 20
122.8500061
 30
0.0
 40
4.5
  1
Ver. 1.0
 41
1.3114754
  7
MX_NOTE_STANDARD
 11
135.28361341
 21
125.1000061
 31
0.0
 73
       2
  0
TEXT
  8
0
  6
CONTINUOUS
 62
       7
  5
121
 10
115.52672598
 20
-129.1500001
 30
0.0
 40
6.30000019
  1
KOGANEI CORP.
 41
1.12068965
  7
MX_NOTE_STANDARD
 11
115.52672598
 21
-126.0
 31
0.0
 73
       2
  0
ENDSEC
  0
EOF
