  0
SECTION
  2
HEADER
  9
$ACADVER
  1
AC1009
  9
$INSBASE
 10
0.0
 20
0.0
 30
0.0
  9
$EXTMIN
 10
-194.25
 20
-133.5
 30
0.0
  9
$EXTMAX
 10
194.80000305
 20
132.6000061
 30
0.0
  9
$LIMMIN
 10
-194.25
 20
-133.5
  9
$LIMMAX
 10
194.80000305
 20
132.6000061
  9
$ORTHOMODE
 70
       0
  9
$REGENMODE
 70
       1
  9
$FILLMODE
 70
       1
  9
$QTEXTMODE
 70
       0
  9
$MIRRTEXT
 70
       1
  9
$DRAGMODE
 70
       2
  9
$LTSCALE
 40
1.0
  9
$OSMODE
 70
       0
  9
$ATTMODE
 70
       1
  9
$TEXTSIZE
 40
3.20000005
  9
$TRACEWID
 40
0.05
  9
$TEXTSTYLE
  7
MX_NOTE_STANDARD
  9
$CLAYER
  8
0
  9
$CELTYPE
  6
CONTINUOUS
  9
$CECOLOR
 62
     256
  9
$DIMSCALE
 40
1.0
  9
$DIMASZ
 40
2.5
  9
$DIMEXO
 40
1.5
  9
$DIMDLI
 40
3.75
  9
$DIMRND
 40
0.0
  9
$DIMDLE
 40
0.0
  9
$DIMEXE
 40
1.5
  9
$DIMTP
 40
0.0
  9
$DIMTM
 40
0.0
  9
$DIMTXT
 40
3.20000005
  9
$DIMCEN
 40
2.5
  9
$DIMTSZ
 40
0.0
  9
$DIMTOL
 70
       0
  9
$DIMLIM
 70
       0
  9
$DIMTIH
 70
       0
  9
$DIMTOH
 70
       0
  9
$DIMSE1
 70
       0
  9
$DIMSE2
 70
       0
  9
$DIMTAD
 70
       1
  9
$DIMZIN
 70
       8
  9
$DIMBLK
  1

  9
$DIMASO
 70
       1
  9
$DIMSHO
 70
       1
  9
$DIMPOST
  1

  9
$DIMAPOST
  1

  9
$DIMALT
 70
       0
  9
$DIMALTD
 70
       4
  9
$DIMALTF
 40
0.0394
  9
$DIMLFAC
 40
1.0
  9
$DIMTOFL
 70
       1
  9
$DIMTVP
 40
0.0
  9
$DIMTIX
 70
       0
  9
$DIMSOXD
 70
       0
  9
$DIMSAH
 70
       0
  9
$DIMBLK1
  1

  9
$DIMBLK2
  1

  9
$DIMSTYLE
  2
MXDIMSTYLE
  9
$DIMCLRD
 70
       0
  9
$DIMCLRE
 70
       0
  9
$DIMCLRT
 70
       0
  9
$DIMTFAC
 40
1.0
  9
$DIMGAP
 40
1.0
  9
$LUNITS
 70
       2
  9
$LUPREC
 70
       4
  9
$AXISMODE
 70
       0
  9
$AXISUNIT
 10
0.0
 20
0.0
  9
$SKETCHINC
 40
0.1
  9
$FILLETRAD
 40
0.0
  9
$AUNITS
 70
       0
  9
$AUPREC
 70
       0
  9
$MENU
  1
acad
  9
$ELEVATION
 40
0.0
  9
$PELEVATION
 40
0.0
  9
$THICKNESS
 40
0.0
  9
$LIMCHECK
 70
       0
  9
$BLIPMODE
 70
       1
  9
$CHAMFERA
 40
0.0
  9
$CHAMFERB
 40
0.0
  9
$SKPOLY
 70
       0
  9
$TDCREATE
 40
2452580.504525463
  9
$TDUPDATE
 40
2452580.504525463
  9
$TDINDWG
 40
0.0000000000
  9
$TDUSRTIMER
 40
0.0000000000
  9
$USRTIMER
 70
       1
  9
$ANGBASE
 50
0.0
  9
$ANGDIR
 70
       0
  9
$PDMODE
 70
       0
  9
$PDSIZE
 40
0.0
  9
$PLINEWID
 40
0.0
  9
$COORDS
 70
       1
  9
$SPLFRAME
 70
       0
  9
$SPLINETYPE
 70
       6
  9
$SPLINESEGS
 70
       8
  9
$ATTDIA
 70
       0
  9
$ATTREQ
 70
       1
  9
$HANDLING
 70
       1
  9
$HANDSEED
  5
1DC
  9
$SURFTAB1
 70
       6
  9
$SURFTAB2
 70
       6
  9
$SURFTYPE
 70
       6
  9
$SURFU
 70
       6
  9
$SURFV
 70
       6
  9
$UCSNAME
  2

  9
$UCSORG
 10
0.0
 20
0.0
 30
0.0
  9
$UCSXDIR
 10
1.0
 20
0.0
 30
0.0
  9
$UCSYDIR
 10
0.0
 20
1.0
 30
0.0
  9
$PUCSNAME
  2

  9
$PUCSORG
 10
0.0
 20
0.0
 30
0.0
  9
$PUCSXDIR
 10
1.0
 20
0.0
 30
0.0
  9
$PUCSYDIR
 10
0.0
 20
1.0
 30
0.0
  9
$USERI1
 70
       0
  9
$USERI2
 70
       0
  9
$USERI3
 70
       0
  9
$USERI4
 70
       0
  9
$USERI5
 70
       0
  9
$USERR1
 40
0.0
  9
$USERR2
 40
0.0
  9
$USERR3
 40
0.0
  9
$USERR4
 40
0.0
  9
$USERR5
 40
0.0
  9
$WORLDVIEW
 70
       1
  9
$SHADEDGE
 70
       3
  9
$SHADEDIF
 70
      70
  9
$TILEMODE
 70
       1
  9
$MAXACTVP
 70
      16
  9
$PINSBASE
 10
0.0
 20
0.0
 30
0.0
  9
$PLIMCHECK
 70
       0
  9
$PEXTMIN
 10
1.00000000E+20
 20
1.00000000E+20
 30
1.00000000E+20
  9
$PEXTMAX
 10
-1.00000000E+20
 20
-1.00000000E+20
 30
-1.00000000E+20
  9
$PLIMMIN
 10
0.0
 20
0.0
  9
$PLIMMAX
 10
12.0
 20
9.0
  9
$UNITMODE
 70
       0
  9
$VISRETAIN
 70
       0
  9
$PLINEGEN
 70
       1
  9
$PSLTSCALE
 70
       0
  9
$TREEDEPTH
 70
    3020
  9
$DWGCODEPAGE
  3
dos932
  0
ENDSEC
  0
SECTION
  2
TABLES
  0
TABLE
  2
VPORT
 70
       1
  0
VPORT
  2
*ACTIVE
 70
       0
 10
0.0
 20
0.0
 11
1.0
 21
1.0
 12
0.27500153
 22
-0.44999695
 13
0.0
 23
0.0
 14
1.0
 24
1.0
 15
0.0
 25
0.0
 16
0.0
 26
0.0
 36
1.0
 17
0.0
 27
0.0
 37
0.0
 40
268.76100616
 41
1.73205081
 42
50.0
 43
0.0
 44
0.0
 50
0.0
 51
0.0
 71
       0
 72
     100
 73
       1
 74
       1
 75
       0
 76
       0
 77
       0
 78
       0
  0
ENDTAB
  0
TABLE
  2
LTYPE
 70
       3
  0
LTYPE
  2
CONTINUOUS
 70
      64
  3
Solid line
 72
      65
 73
       0
 40
0.0
  0
LTYPE
  2
CENTER
 70
      64
  3
Center ____ _ ____ _ ____ _ ____ _ ____ _ ____
 72
      65
 73
       4
 40
50.8
 49
31.75
 49
-6.35
 49
6.35
 49
-6.35
  0
LTYPE
  2
PHANTOM
 70
      64
  3
Phantom ______  __  __  ______  __  __  ______
 72
      65
 73
       6
 40
63.5
 49
31.75
 49
-6.35
 49
6.35
 49
-6.35
 49
6.35
 49
-6.35
  0
ENDTAB
  0
TABLE
  2
LAYER
 70
       2
  0
LAYER
  2
0
 70
       0
 62
       7
  6
CONTINUOUS
  0
LAYER
  2
DEFPOINTS
 70
       0
 62
       7
  6
CONTINUOUS
  0
ENDTAB
  0
TABLE
  2
STYLE
 70
       1
  0
STYLE
  2
MX_NOTE_STANDARD
 70
       0
 40
3.20000005
 41
1.0
 50
0.0
 71
       0
 42
3.20000005
  3
txt.shx
  4
extfont.shx
  0
ENDTAB
  0
TABLE
  2
VIEW
 70
       0
  0
ENDTAB
  0
TABLE
  2
UCS
 70
       0
  0
ENDTAB
  0
TABLE
  2
APPID
 70
       1
  0
APPID
  2
ACAD
 70
       0
  0
ENDTAB
  0
TABLE
  2
DIMSTYLE
 70
       1
  0
DIMSTYLE
  2
MXDIMSTYLE
 70
       0
  3

  4

  5

  6

  7

 40
1.0
 41
2.5
 42
1.5
 43
3.75
 44
1.5
 45
0.0
 46
0.0
 47
0.0
 48
0.0
 71
       0
 72
       0
 73
       0
 74
       0
 75
       0
 76
       0
 77
       1
 78
       8
140
3.20000005
141
2.5
142
0.0
143
0.0394
144
1.0
145
0.0
146
1.0
147
1.0
170
       0
171
       4
172
       1
173
       0
174
       0
175
       0
176
       0
177
       0
178
       0
  0
ENDTAB
  0
ENDSEC
  0
SECTION
  2
BLOCKS
  0
ENDSEC
  0
SECTION
  2
ENTITIES
  0
LINE
  8
0
  6
CONTINUOUS
 62
       7
  5
1E
 10
-117.05599702
 20
-31.58967629
 30
0.0
 11
-117.05599702
 21
-29.88967934
 31
0.0
  0
LINE
  8
0
  6
CONTINUOUS
 62
       7
  5
1F
 10
-116.75607232
 20
-31.88970799
 30
0.0
 11
-117.05606619
 21
-31.58971415
 31
0.0
  0
LINE
  8
0
  6
CONTINUOUS
 62
       7
  5
20
 10
-114.35605134
 20
-31.88961933
 30
0.0
 11
-114.05604673
 21
-31.58961464
 31
0.0
  0
LINE
  8
0
  6
CONTINUOUS
 62
       7
  5
21
 10
-114.05599702
 20
-31.58967629
 30
0.0
 11
-114.05599702
 21
-29.88967934
 31
0.0
  0
LINE
  8
0
  6
CONTINUOUS
 62
       7
  5
22
 10
-117.05599702
 20
-31.58972206
 30
0.0
 11
-114.05599702
 21
-31.58972206
 31
0.0
  0
LINE
  8
0
  6
CONTINUOUS
 62
       7
  5
23
 10
-114.35601533
 20
-31.88967934
 30
0.0
 11
-116.75600923
 21
-31.88967934
 31
0.0
  0
LINE
  8
0
  6
CENTER
 62
       2
  5
25
 10
60.22200286
 20
-13.88967552
 30
0.0
 11
41.72200286
 21
-13.88967552
 31
0.0
  0
TEXT
  8
0
  6
CONTINUOUS
 62
       7
  5
26
 10
-158.71428571
 20
95.3500061
 30
0.0
 40
4.5
  1
NHBMPG-10-M
 41
1.04761905
  7
MX_NOTE_STANDARD
 11
-158.71428571
 21
97.6000061
 31
0.0
 73
       2
  0
CIRCLE
  8
0
  6
CONTINUOUS
 62
       7
  5
27
 10
-119.55599702
 20
-5.88967552
 30
0.0
 40
1.65
  0
LINE
  8
0
  6
CENTER
 62
       2
  5
28
 10
-115.55599702
 20
-33.88967934
 30
0.0
 11
-115.55599702
 21
-26.38967934
 31
0.0
  0
LINE
  8
0
  6
CENTER
 62
       2
  5
29
 10
-106.55599702
 20
-33.88967934
 30
0.0
 11
-106.55599702
 21
-26.38967934
 31
0.0
  0
LINE
  8
0
  6
CONTINUOUS
 62
       7
  5
2A
 10
-106.40600458
 20
9.01033937
 30
0.0
 11
-106.10599994
 21
9.31034403
 31
0.0
  0
LINE
  8
0
  6
CONTINUOUS
 62
       7
  5
2B
 10
-108.05599702
 20
9.01032219
 30
0.0
 11
-108.05599702
 21
5.61032448
 31
0.0
  0
LINE
  8
0
  6
CONTINUOUS
 62
       7
  5
2C
 10
-118.05599702
 20
1.61032448
 30
0.0
 11
-118.05599702
 21
0.11032448
 31
0.0
  0
LINE
  8
0
  6
CONTINUOUS
 62
       7
  5
2D
 10
-106.10598481
 20
5.31032142
 30
0.0
 11
-106.10598481
 21
1.61032448
 31
0.0
  0
LINE
  8
0
  6
CONTINUOUS
 62
       7
  5
2E
 10
-116.00597871
 20
14.61032448
 30
0.0
 11
-116.00597871
 21
9.31032142
 31
0.0
  0
LINE
  8
0
  6
PHANTOM
 62
       2
  5
30
 10
-116.30599702
 20
14.010326
 30
0.0
 11
-116.30599702
 21
1.61032448
 31
0.0
  0
LINE
  8
0
  6
CENTER
 62
       2
  5
31
 10
-119.50597871
 20
14.010326
 30
0.0
 11
-114.30599702
 21
14.010326
 31
0.0
  0
LINE
  8
0
  6
PHANTOM
 62
       2
  5
32
 10
-105.80599702
 20
14.010326
 30
0.0
 11
-105.80599702
 21
1.61032448
 31
0.0
  0
LINE
  8
0
  6
CONTINUOUS
 62
       7
  5
33
 10
-104.05599702
 20
1.61032448
 30
0.0
 11
-104.05599702
 21
0.11032448
 31
0.0
  0
LINE
  8
0
  6
CONTINUOUS
 62
       7
  5
34
 10
-118.05599702
 20
1.61032448
 30
0.0
 11
-104.05599702
 21
1.61032448
 31
0.0
  0
LINE
  8
0
  6
CONTINUOUS
 62
       7
  5
35
 10
-106.10598481
 20
14.61032448
 30
0.0
 11
-106.10598481
 21
9.31032142
 31
0.0
  0
LINE
  8
0
  6
CONTINUOUS
 62
       7
  5
36
 10
-106.40602284
 20
5.61031511
 30
0.0
 11
-106.10601821
 21
5.31031045
 31
0.0
  0
LINE
  8
0
  6
CONTINUOUS
 62
       7
  5
37
 10
-104.05599702
 20
22.61032448
 30
0.0
 11
-104.05599702
 21
14.61032448
 31
0.0
  0
LINE
  8
0
  6
CENTER
 62
       2
  5
38
 10
-116.90598786
 20
16.61032448
 30
0.0
 11
-116.90598786
 21
-0.38967743
 31
0.0
  0
LINE
  8
0
  6
CONTINUOUS
 62
       7
  5
39
 10
-116.00597871
 20
5.31032142
 30
0.0
 11
-106.10598481
 21
5.31032142
 31
0.0
  0
LINE
  8
0
  6
CONTINUOUS
 62
       7
  5
3A
 10
-115.70600283
 20
5.61034925
 30
0.0
 11
-116.00600207
 21
5.31034998
 31
0.0
  0
LINE
  8
0
  6
CENTER
 62
       2
  5
3B
 10
-105.20599092
 20
16.61032448
 30
0.0
 11
-105.20599092
 21
-0.38967743
 31
0.0
  0
LINE
  8
0
  6
CONTINUOUS
 62
       7
  5
3C
 10
-124.95599092
 20
-29.88967934
 30
0.0
 11
-124.95599092
 21
-28.38967934
 31
0.0
  0
LINE
  8
0
  6
CONTINUOUS
 62
       7
  5
3D
 10
-117.55599702
 20
23.11032448
 30
0.0
 11
-104.55599702
 21
23.11032448
 31
0.0
  0
LINE
  8
0
  6
CONTINUOUS
 62
       7
  5
3E
 10
-117.55600345
 20
23.11034151
 30
0.0
 11
-118.05600398
 21
22.61034094
 31
0.0
  0
LINE
  8
0
  6
CONTINUOUS
 62
       7
  5
3F
 10
-118.05599702
 20
22.61032448
 30
0.0
 11
-104.05599702
 21
22.61032448
 31
0.0
  0
LINE
  8
0
  6
CONTINUOUS
 62
       7
  5
40
 10
-105.05599702
 20
-31.58967629
 30
0.0
 11
-105.05599702
 21
-29.88967934
 31
0.0
  0
LINE
  8
0
  6
CENTER
 62
       2
  5
41
 10
-114.55599702
 20
16.61032448
 30
0.0
 11
-107.55599702
 21
16.61032448
 31
0.0
  0
LINE
  8
0
  6
PHANTOM
 62
       2
  5
42
 10
-117.50597871
 20
14.010326
 30
0.0
 11
-117.50597871
 21
1.61032448
 31
0.0
  0
LINE
  8
0
  6
CONTINUOUS
 62
       7
  5
43
 10
-104.55600603
 20
23.11031277
 30
0.0
 11
-104.0560055
 21
22.6103122
 31
0.0
  0
LINE
  8
0
  6
CONTINUOUS
 62
       7
  5
44
 10
-97.15600312
 20
-29.88967934
 30
0.0
 11
-97.15600312
 21
-28.38967934
 31
0.0
  0
LINE
  8
0
  6
CONTINUOUS
 62
       7
  5
45
 10
-118.05599702
 20
14.61032448
 30
0.0
 11
-104.05599702
 21
14.61032448
 31
0.0
  0
LINE
  8
0
  6
CENTER
 62
       2
  5
46
 10
-102.60598481
 20
14.010326
 30
0.0
 11
-107.80599702
 21
14.010326
 31
0.0
  0
LINE
  8
0
  6
CENTER
 62
       2
  5
47
 10
-114.55599702
 20
-18.88967552
 30
0.0
 11
-107.55599702
 21
-18.88967552
 31
0.0
  0
LINE
  8
0
  6
CONTINUOUS
 62
       7
  5
48
 10
-108.05599702
 20
-31.58972206
 30
0.0
 11
-105.05599702
 21
-31.58972206
 31
0.0
  0
LINE
  8
0
  6
CENTER
 62
       2
  5
49
 10
-111.05599702
 20
-31.88967934
 30
0.0
 11
-111.05599702
 21
25.11032448
 31
0.0
  0
LINE
  8
0
  6
CONTINUOUS
 62
       7
  5
4A
 10
-122.55599702
 20
-15.88967934
 30
0.0
 11
-122.55599702
 21
0.11032448
 31
0.0
  0
LINE
  8
0
  6
CONTINUOUS
 62
       7
  5
4B
 10
-96.35601533
 20
-29.88967934
 30
0.0
 11
-111.05599702
 21
-29.88967934
 31
0.0
  0
LINE
  8
0
  6
CONTINUOUS
 62
       7
  5
4C
 10
-111.85598481
 20
-29.88967934
 30
0.0
 11
-111.85598481
 21
-28.38967934
 31
0.0
  0
LINE
  8
0
  6
CONTINUOUS
 62
       7
  5
4D
 10
-125.75600923
 20
-29.88967934
 30
0.0
 11
-111.05602754
 21
-29.88967934
 31
0.0
  0
LINE
  8
0
  6
CONTINUOUS
 62
       7
  5
4E
 10
-110.25599397
 20
-29.88967934
 30
0.0
 11
-110.25599397
 21
-28.38967934
 31
0.0
  0
LINE
  8
0
  6
CONTINUOUS
 62
       7
  5
4F
 10
-105.35601533
 20
-31.88967934
 30
0.0
 11
-107.75600923
 21
-31.88967934
 31
0.0
  0
LINE
  8
0
  6
CONTINUOUS
 62
       7
  5
50
 10
-108.05599702
 20
-31.58967629
 30
0.0
 11
-108.05599702
 21
-29.88967934
 31
0.0
  0
LINE
  8
0
  6
CONTINUOUS
 62
       7
  5
51
 10
-121.89864839
 20
-15.88967552
 30
0.0
 11
-129.05601228
 21
-15.88967552
 31
0.0
  0
LINE
  8
0
  6
CONTINUOUS
 62
       7
  5
52
 10
-93.73548616
 20
-23.88967934
 30
0.0
 11
-93.73548616
 21
-15.88967934
 31
0.0
  0
LINE
  8
0
  6
CONTINUOUS
 62
       7
  5
53
 10
-107.75607232
 20
-31.88970799
 30
0.0
 11
-108.05606619
 21
-31.58971415
 31
0.0
  0
LINE
  8
0
  6
CONTINUOUS
 62
       7
  5
54
 10
-128.37650788
 20
-23.88967934
 30
0.0
 11
-128.37650788
 21
-15.88967934
 31
0.0
  0
LINE
  8
0
  6
CONTINUOUS
 62
       7
  5
55
 10
-93.05599702
 20
-15.88967552
 30
0.0
 11
-100.21337617
 21
-15.88967552
 31
0.0
  0
LINE
  8
0
  6
CENTER
 62
       2
  5
56
 10
-119.55599702
 20
-9.88967552
 30
0.0
 11
-119.55599702
 21
-1.88967552
 31
0.0
  0
LINE
  8
0
  6
CENTER
 62
       2
  5
57
 10
-123.55599702
 20
-5.88967552
 30
0.0
 11
-115.55599702
 21
-5.88967552
 31
0.0
  0
LINE
  8
0
  6
CENTER
 62
       2
  5
58
 10
-98.55599702
 20
-5.88967552
 30
0.0
 11
-106.55599702
 21
-5.88967552
 31
0.0
  0
LINE
  8
0
  6
CONTINUOUS
 62
       7
  5
59
 10
-105.35605134
 20
-31.88961933
 30
0.0
 11
-105.05604673
 21
-31.58961464
 31
0.0
  0
LINE
  8
0
  6
CONTINUOUS
 62
       7
  5
5A
 10
-99.55599702
 20
-15.88967934
 30
0.0
 11
-99.55599702
 21
0.11032448
 31
0.0
  0
LINE
  8
0
  6
CENTER
 62
       2
  5
5B
 10
-120.30599702
 20
-13.88967552
 30
0.0
 11
-101.80599702
 21
-13.88967552
 31
0.0
  0
LINE
  8
0
  6
CONTINUOUS
 62
       7
  5
5C
 10
-93.05599702
 20
-28.38967934
 30
0.0
 11
-129.05601228
 21
-28.38967934
 31
0.0
  0
LINE
  8
0
  6
CONTINUOUS
 62
       7
  5
5D
 10
-114.05599702
 20
9.01032219
 30
0.0
 11
-114.05599702
 21
5.61032448
 31
0.0
  0
LINE
  8
0
  6
CONTINUOUS
 62
       7
  5
5E
 10
-115.70599092
 20
9.01032219
 30
0.0
 11
-106.40598786
 21
9.01032219
 31
0.0
  0
LINE
  8
0
  6
CONTINUOUS
 62
       7
  5
5F
 10
-111.05599702
 20
-29.88967934
 30
0.0
 11
-111.05599702
 21
-28.38967934
 31
0.0
  0
LINE
  8
0
  6
CONTINUOUS
 62
       7
  5
60
 10
-125.75600923
 20
-29.88967934
 30
0.0
 11
-125.75600923
 21
-28.38967934
 31
0.0
  0
LINE
  8
0
  6
CONTINUOUS
 62
       7
  5
61
 10
-96.35598481
 20
-29.88967934
 30
0.0
 11
-96.35598481
 21
-28.38967934
 31
0.0
  0
LINE
  8
0
  6
CONTINUOUS
 62
       7
  5
62
 10
-116.00597871
 20
5.31032142
 30
0.0
 11
-116.00597871
 21
1.61032448
 31
0.0
  0
LINE
  8
0
  6
CONTINUOUS
 62
       7
  5
63
 10
-118.05599702
 20
22.61032448
 30
0.0
 11
-118.05599702
 21
14.61032448
 31
0.0
  0
LINE
  8
0
  6
CONTINUOUS
 62
       7
  5
64
 10
-115.70599092
 20
5.61032448
 30
0.0
 11
-106.40598786
 21
5.61032448
 31
0.0
  0
LINE
  8
0
  6
PHANTOM
 62
       2
  5
65
 10
-104.60598481
 20
14.010326
 30
0.0
 11
-104.60598481
 21
1.61032448
 31
0.0
  0
LINE
  8
0
  6
CONTINUOUS
 62
       7
  5
66
 10
-100.21337617
 20
-15.88967934
 30
0.0
 11
-100.21337617
 21
0.11032448
 31
0.0
  0
LINE
  8
0
  6
CENTER
 62
       2
  5
67
 10
-102.55599702
 20
-9.88967552
 30
0.0
 11
-102.55599702
 21
-1.88967552
 31
0.0
  0
LINE
  8
0
  6
CONTINUOUS
 62
       7
  5
68
 10
-93.05599702
 20
-28.38967934
 30
0.0
 11
-93.05599702
 21
-15.88967934
 31
0.0
  0
LINE
  8
0
  6
CONTINUOUS
 62
       7
  5
69
 10
-129.05599702
 20
-28.38967934
 30
0.0
 11
-129.05599702
 21
-15.88967934
 31
0.0
  0
LINE
  8
0
  6
CONTINUOUS
 62
       7
  5
6A
 10
-121.89861787
 20
-15.88967934
 30
0.0
 11
-121.89861787
 21
0.11032448
 31
0.0
  0
LINE
  8
0
  6
CONTINUOUS
 62
       7
  5
6B
 10
-115.70600491
 20
9.01031063
 30
0.0
 11
-116.00600954
 21
9.31031529
 31
0.0
  0
LINE
  8
0
  6
CENTER
 62
       2
  5
6C
 10
-105.05599702
 20
-10.63967552
 30
0.0
 11
-105.05599702
 21
-17.13967552
 31
0.0
  0
LINE
  8
0
  6
CENTER
 62
       2
  5
6D
 10
-117.05599702
 20
-10.63967552
 30
0.0
 11
-117.05599702
 21
-17.13967552
 31
0.0
  0
LINE
  8
0
  6
CONTINUOUS
 62
       7
  5
6E
 10
-116.00597871
 20
9.31032142
 30
0.0
 11
-106.10598481
 21
9.31032142
 31
0.0
  0
LINE
  8
0
  6
CONTINUOUS
 62
       7
  5
6F
 10
-122.55599702
 20
0.11032448
 30
0.0
 11
-99.55599702
 21
0.11032448
 31
0.0
  0
LINE
  8
0
  6
CONTINUOUS
 62
       7
  5
70
 10
-93.05599702
 20
-23.88967934
 30
0.0
 11
-129.05601228
 21
-23.88967934
 31
0.0
  0
CIRCLE
  8
0
  6
CONTINUOUS
 62
       2
  5
71
 10
-105.20599092
 20
14.010326
 30
0.0
 40
0.60000002
  0
CIRCLE
  8
0
  6
CONTINUOUS
 62
       2
  5
72
 10
-116.90598786
 20
14.010326
 30
0.0
 40
0.60000002
  0
CIRCLE
  8
0
  6
CONTINUOUS
 62
       7
  5
73
 10
-117.05599702
 20
-13.88967552
 30
0.0
 40
1.25
  0
CIRCLE
  8
0
  6
CONTINUOUS
 62
       7
  5
74
 10
-102.55599702
 20
-5.88967552
 30
0.0
 40
1.65
  0
CIRCLE
  8
0
  6
CONTINUOUS
 62
       7
  5
75
 10
-105.05599702
 20
-13.88967552
 30
0.0
 40
1.25
  0
CIRCLE
  8
0
  6
CONTINUOUS
 62
       2
  5
76
 10
-111.05599702
 20
-18.88967552
 30
0.0
 40
1.5
  0
CIRCLE
  8
0
  6
CONTINUOUS
 62
       7
  5
77
 10
-111.05599702
 20
-13.88967552
 30
0.0
 40
1.25
  0
CIRCLE
  8
0
  6
CONTINUOUS
 62
       2
  5
78
 10
-111.05599702
 20
-13.88967552
 30
0.0
 40
1.5
  0
CIRCLE
  8
0
  6
CONTINUOUS
 62
       7
  5
79
 10
-111.05599702
 20
-18.88967552
 30
0.0
 40
1.25
  0
CIRCLE
  8
0
  6
CONTINUOUS
 62
       2
  5
7A
 10
-102.55599702
 20
-5.88967552
 30
0.0
 40
2.0
  0
CIRCLE
  8
0
  6
CONTINUOUS
 62
       2
  5
7B
 10
-119.55599702
 20
-5.88967552
 30
0.0
 40
2.0
  0
CIRCLE
  8
0
  6
CONTINUOUS
 62
       7
  5
7C
 10
-111.05599702
 20
16.61032448
 30
0.0
 40
1.5
  0
CIRCLE
  8
0
  6
CONTINUOUS
 62
       2
  5
7D
 10
-111.05599702
 20
16.61032448
 30
0.0
 40
1.0
  0
LINE
  8
0
  6
CONTINUOUS
 62
       7
  5
7E
 10
65.67202269
 20
-76.21931754
 30
0.0
 11
65.67202269
 21
-69.21931754
 31
0.0
  0
LINE
  8
0
  6
CONTINUOUS
 62
       7
  5
7F
 10
39.47200286
 20
-15.88967552
 30
0.0
 11
39.47200286
 21
0.11032448
 31
0.0
  0
LINE
  8
0
  6
CONTINUOUS
 62
       7
  5
80
 10
32.97200286
 20
-28.38967552
 30
0.0
 11
32.97200286
 21
-15.88967171
 31
0.0
  0
LINE
  8
0
  6
CONTINUOUS
 62
       7
  5
81
 10
45.27200591
 20
-31.88967934
 30
0.0
 11
47.67200744
 21
-31.88967934
 31
0.0
  0
LINE
  8
0
  6
CONTINUOUS
 62
       7
  5
82
 10
47.97200286
 20
-31.58967247
 30
0.0
 11
47.97200286
 21
-29.93908348
 31
0.0
  0
LINE
  8
0
  6
CONTINUOUS
 62
       7
  5
83
 10
51.77200591
 20
-29.88967171
 30
0.0
 11
51.77200591
 21
-28.38967171
 31
0.0
  0
LINE
  8
0
  6
CONTINUOUS
 62
       7
  5
84
 10
32.97200286
 20
-28.38967934
 30
0.0
 11
68.97200286
 21
-28.38967934
 31
0.0
  0
LINE
  8
0
  6
CONTINUOUS
 62
       7
  5
85
 10
62.47200286
 20
-15.88967552
 30
0.0
 11
62.47200286
 21
0.11032448
 31
0.0
  0
LINE
  8
0
  6
CONTINUOUS
 62
       7
  5
86
 10
68.97200286
 20
-28.38967552
 30
0.0
 11
68.97200286
 21
-15.88967171
 31
0.0
  0
LINE
  8
0
  6
CONTINUOUS
 62
       7
  5
87
 10
56.67199981
 20
-31.88967934
 30
0.0
 11
54.27199828
 21
-31.88967934
 31
0.0
  0
LINE
  8
0
  6
CONTINUOUS
 62
       7
  5
88
 10
53.97200286
 20
-31.58967247
 30
0.0
 11
53.97200286
 21
-29.93908348
 31
0.0
  0
LINE
  8
0
  6
CONTINUOUS
 62
       7
  5
89
 10
56.97200286
 20
-31.58967247
 30
0.0
 11
56.97200286
 21
-29.93908348
 31
0.0
  0
LINE
  8
0
  6
CONTINUOUS
 62
       7
  5
8A
 10
40.12938201
 20
-15.88967552
 30
0.0
 11
32.97200286
 21
-15.88967552
 31
0.0
  0
LINE
  8
0
  6
CONTINUOUS
 62
       7
  5
8B
 10
33.65149962
 20
-23.88967934
 30
0.0
 11
33.65149962
 21
-15.88967171
 31
0.0
  0
LINE
  8
0
  6
CONTINUOUS
 62
       7
  5
8C
 10
45.27198669
 20
-31.88967971
 30
0.0
 11
44.97198203
 21
-31.58967508
 31
0.0
  0
LINE
  8
0
  6
CENTER
 62
       2
  5
8D
 10
30.97200667
 20
67.06795082
 30
0.0
 11
70.97200286
 21
67.06795082
 31
0.0
  0
LINE
  8
0
  6
CONTINUOUS
 62
       7
  5
8E
 10
33.65149962
 20
57.06796608
 30
0.0
 11
68.29251372
 21
57.06796608
 31
0.0
  0
LINE
  8
0
  6
CONTINUOUS
 62
       7
  5
8F
 10
33.65149962
 20
77.06795082
 30
0.0
 11
68.29251372
 21
77.06795082
 31
0.0
  0
LINE
  8
0
  6
CONTINUOUS
 62
       7
  5
90
 10
62.47200286
 20
57.83148536
 30
0.0
 11
62.47200286
 21
76.30444679
 31
0.0
  0
LINE
  8
0
  6
CONTINUOUS
 62
       7
  5
91
 10
39.47200667
 20
57.83148536
 30
0.0
 11
39.47200667
 21
76.30444679
 31
0.0
  0
LINE
  8
0
  6
CONTINUOUS
 62
       7
  5
92
 10
65.47200244
 20
62.06794857
 30
0.0
 11
64.17296435
 21
61.31794862
 31
0.0
  0
LINE
  8
0
  6
CONTINUOUS
 62
       7
  5
93
 10
64.17296111
 20
61.31795082
 30
0.0
 11
64.17296111
 21
59.81795082
 31
0.0
  0
LINE
  8
0
  6
CONTINUOUS
 62
       7
  5
94
 10
65.4720153
 20
59.06798282
 30
0.0
 11
64.17298061
 21
59.81798109
 31
0.0
  0
LINE
  8
0
  6
CONTINUOUS
 62
       7
  5
95
 10
66.77108371
 20
59.81793376
 30
0.0
 11
65.47203214
 21
59.06792658
 31
0.0
  0
LINE
  8
0
  6
CONTINUOUS
 62
       7
  5
96
 10
66.77103698
 20
61.31795082
 30
0.0
 11
66.77103698
 21
59.81795082
 31
0.0
  0
LINE
  8
0
  6
CONTINUOUS
 62
       7
  5
97
 10
65.47200576
 20
62.06798075
 30
0.0
 11
66.77104402
 21
61.31798098
 31
0.0
  0
LINE
  8
0
  6
CONTINUOUS
 62
       7
  5
98
 10
65.47201536
 20
75.06795674
 30
0.0
 11
64.17297728
 21
74.31795679
 31
0.0
  0
LINE
  8
0
  6
CONTINUOUS
 62
       7
  5
99
 10
64.17296111
 20
74.31795082
 30
0.0
 11
64.17296111
 21
72.81795082
 31
0.0
  0
LINE
  8
0
  6
CONTINUOUS
 62
       7
  5
9A
 10
65.4719799
 20
72.06795259
 30
0.0
 11
64.17294934
 21
72.81794848
 31
0.0
  0
LINE
  8
0
  6
CONTINUOUS
 62
       7
  5
9B
 10
66.77107439
 20
72.81792694
 30
0.0
 11
65.47203604
 21
72.06792739
 31
0.0
  0
LINE
  8
0
  6
CONTINUOUS
 62
       7
  5
9C
 10
65.47201734
 20
75.06799174
 30
0.0
 11
66.77105478
 21
74.31799244
 31
0.0
  0
LINE
  8
0
  6
CENTER
 62
       2
  5
9D
 10
65.47200286
 20
69.06795082
 30
0.0
 11
65.47200286
 21
78.06795082
 31
0.0
  0
LINE
  8
0
  6
CENTER
 62
       2
  5
9E
 10
65.47200286
 20
56.06796608
 30
0.0
 11
65.47200286
 21
65.06796608
 31
0.0
  0
LINE
  8
0
  6
CONTINUOUS
 62
       7
  5
9F
 10
68.97200286
 20
58.35016212
 30
0.0
 11
68.97200286
 21
75.78577003
 31
0.0
  0
LINE
  8
0
  6
CONTINUOUS
 62
       7
  5
A0
 10
32.97200667
 20
58.35016212
 30
0.0
 11
32.97200667
 21
75.78577003
 31
0.0
  0
LINE
  8
0
  6
CONTINUOUS
 62
       7
  5
A1
 10
66.77103698
 20
74.31795082
 30
0.0
 11
66.77103698
 21
72.81795082
 31
0.0
  0
LINE
  8
0
  6
CENTER
 62
       2
  5
A2
 10
60.97201049
 20
60.56796608
 30
0.0
 11
69.97200286
 21
60.56796608
 31
0.0
  0
LINE
  8
0
  6
CONTINUOUS
 62
       7
  5
A3
 10
-34.47280229
 20
-31.88967934
 30
0.0
 11
-36.87280381
 21
-31.88967934
 31
0.0
  0
LINE
  8
0
  6
CENTER
 62
       2
  5
A4
 10
-35.67280686
 20
-33.88967934
 30
0.0
 11
-35.67280686
 21
25.11032448
 31
0.0
  0
LINE
  8
0
  6
CONTINUOUS
 62
       7
  5
A5
 10
-32.17280686
 20
-29.88967934
 30
0.0
 11
-39.17279161
 21
-29.88967934
 31
0.0
  0
LINE
  8
0
  6
CONTINUOUS
 62
       7
  5
A6
 10
-45.67279542
 20
-15.88967552
 30
0.0
 11
-25.67280305
 21
-15.88967552
 31
0.0
  0
LINE
  8
0
  6
CENTER
 62
       2
  5
A7
 10
60.97201049
 20
73.56795082
 30
0.0
 11
69.97200286
 21
73.56795082
 31
0.0
  0
LINE
  8
0
  6
CONTINUOUS
 62
       7
  5
A8
 10
-32.17280686
 20
-29.8896679
 30
0.0
 11
-32.17280686
 21
-27.38967552
 31
0.0
  0
LINE
  8
0
  6
CONTINUOUS
 62
       7
  5
A9
 10
-45.67279542
 20
-23.88967934
 30
0.0
 11
-45.67279542
 21
0.11032448
 31
0.0
  0
LINE
  8
0
  6
CONTINUOUS
 62
       7
  5
AA
 10
-25.67280305
 20
-23.88967934
 30
0.0
 11
-25.67280305
 21
0.11032448
 31
0.0
  0
LINE
  8
0
  6
CONTINUOUS
 62
       7
  5
AB
 10
-27.17280305
 20
-28.3896679
 30
0.0
 11
-27.17280305
 21
-21.96832314
 31
0.0
  0
LINE
  8
0
  6
CONTINUOUS
 62
       7
  5
AC
 10
-27.17280305
 20
-28.38967934
 30
0.0
 11
-31.87280763
 21
-28.38967934
 31
0.0
  0
LINE
  8
0
  6
CONTINUOUS
 62
       7
  5
AD
 10
-34.17280686
 20
-31.58966866
 30
0.0
 11
-34.17280686
 21
-29.8896679
 31
0.0
  0
LINE
  8
0
  6
CONTINUOUS
 62
       7
  5
AE
 10
-39.47279084
 20
-25.12476387
 30
0.0
 11
-39.47279084
 21
-23.5896801
 31
0.0
  0
LINE
  8
0
  6
CONTINUOUS
 62
       7
  5
AF
 10
36.27200591
 20
-29.88967934
 30
0.0
 11
65.67199981
 21
-29.88967934
 31
0.0
  0
LINE
  8
0
  6
CONTINUOUS
 62
       7
  5
B0
 10
46.32201014
 20
5.61032059
 30
0.0
 11
46.0220109
 21
5.31032132
 31
0.0
  0
LINE
  8
0
  6
CENTER
 62
       2
  5
B1
 10
47.47200286
 20
16.61032448
 30
0.0
 11
54.47200286
 21
16.61032448
 31
0.0
  0
LINE
  8
0
  6
CONTINUOUS
 62
       7
  5
B2
 10
-32.67280686
 20
9.01032219
 30
0.0
 11
-32.67280686
 21
5.61032448
 31
0.0
  0
LINE
  8
0
  6
CONTINUOUS
 62
       7
  5
B3
 10
-42.67280686
 20
1.61032448
 30
0.0
 11
-42.67280686
 21
0.11032448
 31
0.0
  0
LINE
  8
0
  6
CONTINUOUS
 62
       7
  5
B4
 10
-30.7228061
 20
14.61032448
 30
0.0
 11
-30.7228061
 21
9.31032142
 31
0.0
  0
LINE
  8
0
  6
CENTER
 62
       2
  5
B5
 10
-41.52280534
 20
16.61032448
 30
0.0
 11
-41.52280534
 21
-0.38967743
 31
0.0
  0
LINE
  8
0
  6
CONTINUOUS
 62
       7
  5
B6
 10
50.17199981
 20
-29.88967171
 30
0.0
 11
50.17199981
 21
-28.38967171
 31
0.0
  0
LINE
  8
0
  6
CONTINUOUS
 62
       7
  5
B7
 10
-42.67280686
 20
22.61032448
 30
0.0
 11
-42.67280686
 21
14.61032448
 31
0.0
  0
LINE
  8
0
  6
CONTINUOUS
 62
       7
  5
B8
 10
-28.67280686
 20
22.61032448
 30
0.0
 11
-28.67280686
 21
14.61032448
 31
0.0
  0
LINE
  8
0
  6
CONTINUOUS
 62
       7
  5
B9
 10
-40.32280458
 20
5.61032448
 30
0.0
 11
-31.02280534
 21
5.61032448
 31
0.0
  0
LINE
  8
0
  6
PHANTOM
 62
       2
  5
BA
 10
-40.92280686
 20
14.010326
 30
0.0
 11
-40.92280686
 21
1.61032448
 31
0.0
  0
LINE
  8
0
  6
CONTINUOUS
 62
       7
  5
BB
 10
-30.7228061
 20
5.31032142
 30
0.0
 11
-30.7228061
 21
1.61032448
 31
0.0
  0
LINE
  8
0
  6
CONTINUOUS
 62
       7
  5
BC
 10
-31.02281131
 20
5.61032045
 30
0.0
 11
-30.72281207
 21
5.31032118
 31
0.0
  0
LINE
  8
0
  6
CONTINUOUS
 62
       7
  5
BD
 10
-28.67280686
 20
1.61032448
 30
0.0
 11
-28.67280686
 21
0.11032448
 31
0.0
  0
LINE
  8
0
  6
CONTINUOUS
 62
       7
  5
BE
 10
-40.62280763
 20
5.31032142
 30
0.0
 11
-40.62280763
 21
1.61032448
 31
0.0
  0
LINE
  8
0
  6
CONTINUOUS
 62
       7
  5
BF
 10
-40.32280771
 20
9.01032321
 30
0.0
 11
-40.62280695
 21
9.31032248
 31
0.0
  0
LINE
  8
0
  6
PHANTOM
 62
       2
  5
C0
 10
-42.12280763
 20
14.010326
 30
0.0
 11
-42.12280763
 21
1.61032448
 31
0.0
  0
LINE
  8
0
  6
CONTINUOUS
 62
       7
  5
C1
 10
43.97200286
 20
14.61032448
 30
0.0
 11
57.97200286
 21
14.61032448
 31
0.0
  0
LINE
  8
0
  6
CONTINUOUS
 62
       7
  5
C2
 10
55.62201041
 20
9.01031947
 30
0.0
 11
55.92200965
 21
9.31031874
 31
0.0
  0
LINE
  8
0
  6
CENTER
 62
       2
  5
C3
 10
59.42199981
 20
14.010326
 30
0.0
 11
54.22200286
 21
14.010326
 31
0.0
  0
LINE
  8
0
  6
CONTINUOUS
 62
       7
  5
C4
 10
57.97200286
 20
22.61032448
 30
0.0
 11
57.97200286
 21
14.61032448
 31
0.0
  0
LINE
  8
0
  6
CONTINUOUS
 62
       7
  5
C5
 10
46.32200133
 20
5.61032448
 30
0.0
 11
55.62200438
 21
5.61032448
 31
0.0
  0
LINE
  8
0
  6
PHANTOM
 62
       2
  5
C6
 10
56.22200286
 20
14.010326
 30
0.0
 11
56.22200286
 21
1.61032448
 31
0.0
  0
LINE
  8
0
  6
CENTER
 62
       2
  5
C7
 10
56.82200133
 20
16.61032448
 30
0.0
 11
56.82200133
 21
-0.38967743
 31
0.0
  0
LINE
  8
0
  6
CONTINUOUS
 62
       7
  5
C8
 10
53.97200286
 20
9.01032219
 30
0.0
 11
53.97200286
 21
5.61032448
 31
0.0
  0
LINE
  8
0
  6
CONTINUOUS
 62
       7
  5
C9
 10
55.92199981
 20
5.31032142
 30
0.0
 11
55.92199981
 21
1.61032448
 31
0.0
  0
LINE
  8
0
  6
CONTINUOUS
 62
       7
  5
CA
 10
32.97202575
 20
-81.4371215
 30
0.0
 11
32.97202575
 21
-64.00151359
 31
0.0
  0
LINE
  8
0
  6
CONTINUOUS
 62
       7
  5
CB
 10
44.47200286
 20
23.11032448
 30
0.0
 11
57.47200286
 21
23.11032448
 31
0.0
  0
LINE
  8
0
  6
CONTINUOUS
 62
       7
  5
CC
 10
55.62200834
 20
5.61032422
 30
0.0
 11
55.92201027
 21
5.31032225
 31
0.0
  0
LINE
  8
0
  6
CONTINUOUS
 62
       7
  5
CD
 10
43.97200286
 20
22.61032448
 30
0.0
 11
57.97200286
 21
22.61032448
 31
0.0
  0
LINE
  8
0
  6
CONTINUOUS
 62
       7
  5
CE
 10
-44.17279161
 20
-23.88967934
 30
0.0
 11
-45.67279542
 21
-23.88967934
 31
0.0
  0
LINE
  8
0
  6
CONTINUOUS
 62
       7
  5
CF
 10
-25.67280305
 20
-23.88967934
 30
0.0
 11
-27.17280305
 21
-23.88967934
 31
0.0
  0
LINE
  8
0
  6
CONTINUOUS
 62
       7
  5
D0
 10
36.47199822
 20
62.06792527
 30
0.0
 11
37.7710363
 21
61.31792531
 31
0.0
  0
LINE
  8
0
  6
CONTINUOUS
 62
       7
  5
D1
 10
-39.47279084
 20
-28.38967934
 30
0.0
 11
-44.17279161
 21
-28.38967934
 31
0.0
  0
LINE
  8
0
  6
CONTINUOUS
 62
       7
  5
D2
 10
-37.17280686
 20
-31.58966866
 30
0.0
 11
-37.17280686
 21
-29.8896679
 31
0.0
  0
LINE
  8
0
  6
CONTINUOUS
 62
       7
  5
D3
 10
36.47199998
 20
59.06797066
 30
0.0
 11
37.77103797
 21
59.81797084
 31
0.0
  0
LINE
  8
0
  6
CONTINUOUS
 62
       7
  5
D4
 10
36.47196776
 20
75.06792594
 30
0.0
 11
37.77100584
 21
74.31792599
 31
0.0
  0
LINE
  8
0
  6
CONTINUOUS
 62
       7
  5
D5
 10
36.47201198
 20
62.06797337
 30
0.0
 11
35.17297372
 21
61.31797359
 31
0.0
  0
LINE
  8
0
  6
CONTINUOUS
 62
       7
  5
D6
 10
35.17297255
 20
61.31795082
 30
0.0
 11
35.17297255
 21
59.81795082
 31
0.0
  0
LINE
  8
0
  6
CONTINUOUS
 62
       7
  5
D7
 10
35.17292341
 20
59.8179298
 30
0.0
 11
36.47197497
 21
59.06792262
 31
0.0
  0
LINE
  8
0
  6
CONTINUOUS
 62
       7
  5
D8
 10
37.77104842
 20
61.31795082
 30
0.0
 11
37.77104842
 21
59.81795082
 31
0.0
  0
LINE
  8
0
  6
CONTINUOUS
 62
       7
  5
D9
 10
36.47198059
 20
72.06797047
 30
0.0
 11
37.77101859
 21
72.81797065
 31
0.0
  0
LINE
  8
0
  6
CENTER
 62
       2
  5
DA
 10
36.47200667
 20
69.06795082
 30
0.0
 11
36.47200667
 21
78.06795082
 31
0.0
  0
LINE
  8
0
  6
CENTER
 62
       2
  5
DB
 10
36.47200667
 20
56.06796608
 30
0.0
 11
36.47200667
 21
65.06796608
 31
0.0
  0
LINE
  8
0
  6
CONTINUOUS
 62
       7
  5
DC
 10
36.47200897
 20
75.06799811
 30
0.0
 11
35.17297071
 21
74.31799833
 31
0.0
  0
LINE
  8
0
  6
CONTINUOUS
 62
       7
  5
DD
 10
35.17297255
 20
74.31795082
 30
0.0
 11
35.17297255
 21
72.81795082
 31
0.0
  0
LINE
  8
0
  6
CONTINUOUS
 62
       7
  5
DE
 10
35.1729443
 20
72.8179163
 30
0.0
 11
36.47198265
 21
72.06791675
 31
0.0
  0
LINE
  8
0
  6
CONTINUOUS
 62
       7
  5
DF
 10
37.77104842
 20
74.31795082
 30
0.0
 11
37.77104842
 21
72.81795082
 31
0.0
  0
LINE
  8
0
  6
CENTER
 62
       2
  5
E0
 10
40.97199904
 20
60.56796608
 30
0.0
 11
31.97199904
 21
60.56796608
 31
0.0
  0
LINE
  8
0
  6
CONTINUOUS
 62
       7
  5
E1
 10
-42.17280686
 20
23.11032448
 30
0.0
 11
-29.17280686
 21
23.11032448
 31
0.0
  0
LINE
  8
0
  6
CENTER
 62
       2
  5
E2
 10
40.97199904
 20
73.56795082
 30
0.0
 11
31.97199904
 21
73.56795082
 31
0.0
  0
LINE
  8
0
  6
CONTINUOUS
 62
       7
  5
E3
 10
46.0220021
 20
5.31032142
 30
0.0
 11
55.92199981
 21
5.31032142
 31
0.0
  0
LINE
  8
0
  6
CONTINUOUS
 62
       7
  5
E4
 10
43.97200286
 20
22.61032448
 30
0.0
 11
43.97200286
 21
14.61032448
 31
0.0
  0
LINE
  8
0
  6
CONTINUOUS
 62
       7
  5
E5
 10
-40.62280763
 20
9.31032142
 30
0.0
 11
-30.7228061
 21
9.31032142
 31
0.0
  0
LINE
  8
0
  6
CONTINUOUS
 62
       7
  5
E6
 10
-40.62280763
 20
5.31032142
 30
0.0
 11
-30.7228061
 21
5.31032142
 31
0.0
  0
LINE
  8
0
  6
CONTINUOUS
 62
       7
  5
E7
 10
39.47200286
 20
0.11032448
 30
0.0
 11
62.47200286
 21
0.11032448
 31
0.0
  0
LINE
  8
0
  6
CONTINUOUS
 62
       7
  5
E8
 10
57.97200286
 20
1.61032448
 30
0.0
 11
57.97200286
 21
0.11032448
 31
0.0
  0
LINE
  8
0
  6
CONTINUOUS
 62
       7
  5
E9
 10
36.27200591
 20
-29.88967171
 30
0.0
 11
36.27200591
 21
-28.38967934
 31
0.0
  0
LINE
  8
0
  6
CONTINUOUS
 62
       7
  5
EA
 10
46.0220021
 20
14.61032448
 30
0.0
 11
46.0220021
 21
9.31032142
 31
0.0
  0
LINE
  8
0
  6
CONTINUOUS
 62
       7
  5
EB
 10
-27.17280305
 20
-21.88967934
 30
0.0
 11
-44.17279161
 21
-21.88967934
 31
0.0
  0
LINE
  8
0
  6
CONTINUOUS
 62
       7
  5
EC
 10
-44.17279161
 20
-28.3896679
 30
0.0
 11
-44.17279161
 21
-21.8896679
 31
0.0
  0
LINE
  8
0
  6
CONTINUOUS
 62
       7
  5
ED
 10
47.97200286
 20
9.01032219
 30
0.0
 11
47.97200286
 21
5.61032448
 31
0.0
  0
LINE
  8
0
  6
CONTINUOUS
 62
       7
  5
EE
 10
43.97200286
 20
1.61032448
 30
0.0
 11
57.97200286
 21
1.61032448
 31
0.0
  0
LINE
  8
0
  6
CONTINUOUS
 62
       7
  5
EF
 10
61.81462371
 20
0.11032448
 30
0.0
 11
61.81462371
 21
-15.88967552
 31
0.0
  0
LINE
  8
0
  6
CONTINUOUS
 62
       7
  5
F0
 10
-32.17280686
 20
-23.88967934
 30
0.0
 11
-39.17279161
 21
-23.88967934
 31
0.0
  0
LINE
  8
0
  6
CONTINUOUS
 62
       7
  5
F1
 10
-39.17279161
 20
-29.8896679
 30
0.0
 11
-39.17279161
 21
-27.3896679
 31
0.0
  0
LINE
  8
0
  6
CENTER
 62
       2
  5
F2
 10
-31.67279924
 20
-26.38967934
 30
0.0
 11
-39.67279924
 21
-26.38967934
 31
0.0
  0
LINE
  8
0
  6
CENTER
 62
       2
  5
F3
 10
-33.67280686
 20
-28.38967171
 30
0.0
 11
-33.67280686
 21
-24.38967171
 31
0.0
  0
LINE
  8
0
  6
CONTINUOUS
 62
       7
  5
F4
 10
-32.17280686
 20
-25.3896679
 30
0.0
 11
-32.17280686
 21
-23.8896679
 31
0.0
  0
LINE
  8
0
  6
CONTINUOUS
 62
       7
  5
F5
 10
-39.17279161
 20
-25.3896679
 30
0.0
 11
-39.17279161
 21
-23.8896679
 31
0.0
  0
LINE
  8
0
  6
CONTINUOUS
 62
       7
  5
F6
 10
43.97200286
 20
1.61032448
 30
0.0
 11
43.97200286
 21
0.11032448
 31
0.0
  0
LINE
  8
0
  6
CONTINUOUS
 62
       7
  5
F7
 10
44.47200515
 20
23.11031721
 30
0.0
 11
43.97201002
 21
22.61032204
 31
0.0
  0
LINE
  8
0
  6
CENTER
 62
       2
  5
F8
 10
42.5220021
 20
14.010326
 30
0.0
 11
47.72200286
 21
14.010326
 31
0.0
  0
LINE
  8
0
  6
CONTINUOUS
 62
       7
  5
F9
 10
46.0220021
 20
5.31032142
 30
0.0
 11
46.0220021
 21
1.61032448
 31
0.0
  0
LINE
  8
0
  6
PHANTOM
 62
       2
  5
FA
 10
44.5220021
 20
14.010326
 30
0.0
 11
44.5220021
 21
1.61032448
 31
0.0
  0
LINE
  8
0
  6
CENTER
 62
       2
  5
FB
 10
45.12200438
 20
16.61032448
 30
0.0
 11
45.12200438
 21
-0.38967743
 31
0.0
  0
LINE
  8
0
  6
CONTINUOUS
 62
       7
  5
FC
 10
68.97202575
 20
-81.4371215
 30
0.0
 11
68.97202575
 21
-64.00151359
 31
0.0
  0
LINE
  8
0
  6
CONTINUOUS
 62
       7
  5
FD
 10
46.32200133
 20
9.01032219
 30
0.0
 11
55.62200438
 21
9.01032219
 31
0.0
  0
LINE
  8
0
  6
PHANTOM
 62
       2
  5
FE
 10
45.72200286
 20
14.010326
 30
0.0
 11
45.72200286
 21
1.61032448
 31
0.0
  0
LINE
  8
0
  6
CONTINUOUS
 62
       7
  5
FF
 10
-36.87284116
 20
-31.8896999
 30
0.0
 11
-37.17284015
 21
-31.58970038
 31
0.0
  0
LINE
  8
0
  6
CONTINUOUS
 62
       7
  5
100
 10
-34.47279994
 20
-31.88965752
 30
0.0
 11
-34.17280582
 21
-31.58966392
 31
0.0
  0
LINE
  8
0
  6
CONTINUOUS
 62
       7
  5
101
 10
-34.17280686
 20
-31.58966866
 30
0.0
 11
-37.17280686
 21
-31.58966866
 31
0.0
  0
LINE
  8
0
  6
CENTER
 62
       2
  5
102
 10
44.97200286
 20
-17.13967552
 30
0.0
 11
44.97200286
 21
-10.63967552
 31
0.0
  0
LINE
  8
0
  6
CONTINUOUS
 62
       7
  5
103
 10
56.97200286
 20
-31.58967629
 30
0.0
 11
53.97200286
 21
-31.58967629
 31
0.0
  0
LINE
  8
0
  6
CENTER
 62
       2
  5
104
 10
56.97200286
 20
-17.13967552
 30
0.0
 11
56.97200286
 21
-10.63967552
 31
0.0
  0
LINE
  8
0
  6
CONTINUOUS
 62
       7
  5
105
 10
37.07200133
 20
-29.88967171
 30
0.0
 11
37.07200133
 21
-28.38967171
 31
0.0
  0
LINE
  8
0
  6
CENTER
 62
       2
  5
106
 10
46.47200286
 20
-33.88967934
 30
0.0
 11
46.47200286
 21
-26.38967934
 31
0.0
  0
LINE
  8
0
  6
CONTINUOUS
 62
       7
  5
107
 10
40.12938201
 20
0.11032448
 30
0.0
 11
40.12938201
 21
-15.88967552
 31
0.0
  0
LINE
  8
0
  6
CONTINUOUS
 62
       7
  5
108
 10
32.97200286
 20
-23.88967934
 30
0.0
 11
68.97200286
 21
-23.88967934
 31
0.0
  0
LINE
  8
0
  6
CENTER
 62
       2
  5
109
 10
-37.67280686
 20
-28.38967171
 30
0.0
 11
-37.67280686
 21
-24.38967171
 31
0.0
  0
LINE
  8
0
  6
CONTINUOUS
 62
       7
  5
10A
 10
61.81462371
 20
-15.88967552
 30
0.0
 11
68.97200286
 21
-15.88967552
 31
0.0
  0
LINE
  8
0
  6
CONTINUOUS
 62
       7
  5
10B
 10
47.97199883
 20
-31.58966146
 30
0.0
 11
47.67199959
 21
-31.88966073
 31
0.0
  0
LINE
  8
0
  6
CENTER
 62
       2
  5
10C
 10
30.97202575
 20
-72.7193328
 30
0.0
 11
70.97202575
 21
-72.7193328
 31
0.0
  0
LINE
  8
0
  6
CONTINUOUS
 62
       7
  5
10D
 10
33.65149962
 20
-62.71934806
 30
0.0
 11
68.29252135
 21
-62.71934806
 31
0.0
  0
LINE
  8
0
  6
CONTINUOUS
 62
       7
  5
10E
 10
33.65149962
 20
-82.71931754
 30
0.0
 11
68.29252135
 21
-82.71931754
 31
0.0
  0
LINE
  8
0
  6
CONTINUOUS
 62
       7
  5
10F
 10
46.32200536
 20
9.01032984
 30
0.0
 11
46.02200612
 21
9.31032911
 31
0.0
  0
LINE
  8
0
  6
CONTINUOUS
 62
       7
  5
110
 10
68.29249846
 20
-23.88967934
 30
0.0
 11
68.29249846
 21
-15.88967171
 31
0.0
  0
LINE
  8
0
  6
CONTINUOUS
 62
       7
  5
111
 10
32.97202575
 20
-64.21934806
 30
0.0
 11
68.97202575
 21
-64.21934806
 31
0.0
  0
LINE
  8
0
  6
CONTINUOUS
 62
       7
  5
112
 10
32.97202575
 20
-81.21931754
 30
0.0
 11
68.97202575
 21
-81.21931754
 31
0.0
  0
LINE
  8
0
  6
CENTER
 62
       2
  5
113
 10
-23.67280305
 20
-5.88967934
 30
0.0
 11
-47.67279542
 21
-5.88967934
 31
0.0
  0
LINE
  8
0
  6
CONTINUOUS
 62
       7
  5
114
 10
36.27201354
 20
-76.2193328
 30
0.0
 11
50.97201049
 21
-76.2193328
 31
0.0
  0
LINE
  8
0
  6
CONTINUOUS
 62
       7
  5
115
 10
36.27201354
 20
-69.21934806
 30
0.0
 11
50.97201049
 21
-69.21934806
 31
0.0
  0
LINE
  8
0
  6
CONTINUOUS
 62
       7
  5
116
 10
51.77201354
 20
-76.21931754
 30
0.0
 11
51.77201354
 21
-69.21931754
 31
0.0
  0
LINE
  8
0
  6
CONTINUOUS
 62
       7
  5
117
 10
50.17200744
 20
-76.21931754
 30
0.0
 11
50.17200744
 21
-69.21931754
 31
0.0
  0
LINE
  8
0
  6
CENTER
 62
       2
  5
118
 10
55.47201049
 20
-75.00319678
 30
0.0
 11
55.47201049
 21
-70.43546882
 31
0.0
  0
LINE
  8
0
  6
CONTINUOUS
 62
       7
  5
119
 10
53.97201628
 20
-31.58965581
 30
0.0
 11
54.27201552
 21
-31.88965508
 31
0.0
  0
LINE
  8
0
  6
CONTINUOUS
 62
       7
  5
11A
 10
56.67203381
 20
-31.88967946
 30
0.0
 11
56.97203577
 21
-31.58967752
 31
0.0
  0
LINE
  8
0
  6
CENTER
 62
       2
  5
11B
 10
60.47201049
 20
-75.00319678
 30
0.0
 11
60.47201049
 21
-70.43546882
 31
0.0
  0
LINE
  8
0
  6
CENTER
 62
       2
  5
11C
 10
41.47202575
 20
-75.00319678
 30
0.0
 11
41.47202575
 21
-70.43546882
 31
0.0
  0
LINE
  8
0
  6
CENTER
 62
       2
  5
11D
 10
46.47202575
 20
-75.00319678
 30
0.0
 11
46.47202575
 21
-70.43546882
 31
0.0
  0
LINE
  8
0
  6
CONTINUOUS
 62
       7
  5
11E
 10
-26.78780091
 20
-15.88967171
 30
0.0
 11
-26.78780091
 21
0.11032448
 31
0.0
  0
LINE
  8
0
  6
CONTINUOUS
 62
       7
  5
11F
 10
-44.55780519
 20
-15.88967171
 30
0.0
 11
-44.55780519
 21
0.11032448
 31
0.0
  0
LINE
  8
0
  6
CONTINUOUS
 62
       7
  5
120
 10
-26.95280183
 20
-23.88967934
 30
0.0
 11
-26.95280183
 21
-15.8896679
 31
0.0
  0
LINE
  8
0
  6
CONTINUOUS
 62
       7
  5
121
 10
-44.3928119
 20
-23.88967934
 30
0.0
 11
-44.3928119
 21
-15.8896679
 31
0.0
  0
LINE
  8
0
  6
CENTER
 62
       2
  5
122
 10
38.87200057
 20
-5.88967552
 30
0.0
 11
46.07200133
 21
-5.88967552
 31
0.0
  0
LINE
  8
0
  6
CENTER
 62
       2
  5
123
 10
42.47200286
 20
-9.489674
 30
0.0
 11
42.47200286
 21
-2.28967324
 31
0.0
  0
LINE
  8
0
  6
CENTER
 62
       2
  5
124
 10
63.07200896
 20
-5.88967552
 30
0.0
 11
55.87200438
 21
-5.88967552
 31
0.0
  0
LINE
  8
0
  6
CONTINUOUS
 62
       7
  5
125
 10
44.97200286
 20
-31.58967629
 30
0.0
 11
47.97200286
 21
-31.58967629
 31
0.0
  0
LINE
  8
0
  6
CONTINUOUS
 62
       7
  5
126
 10
-40.32280458
 20
9.01032219
 30
0.0
 11
-31.02280534
 21
9.01032219
 31
0.0
  0
LINE
  8
0
  6
CONTINUOUS
 62
       7
  5
127
 10
55.92199981
 20
14.61032448
 30
0.0
 11
55.92199981
 21
9.31032142
 31
0.0
  0
LINE
  8
0
  6
CONTINUOUS
 62
       7
  5
128
 10
-40.62280763
 20
14.61032448
 30
0.0
 11
-40.62280763
 21
9.31032142
 31
0.0
  0
LINE
  8
0
  6
CONTINUOUS
 62
       7
  5
129
 10
57.47201098
 20
23.11033603
 30
0.0
 11
57.97201151
 21
22.61033546
 31
0.0
  0
LINE
  8
0
  6
CENTER
 62
       2
  5
12A
 10
55.47200286
 20
-33.88967934
 30
0.0
 11
55.47200286
 21
-26.38967934
 31
0.0
  0
LINE
  8
0
  6
CENTER
 62
       2
  5
12B
 10
50.97200286
 20
79.06796608
 30
0.0
 11
50.97200286
 21
55.06796608
 31
0.0
  0
LINE
  8
0
  6
CENTER
 62
       2
  5
12C
 10
59.47200286
 20
-9.489674
 30
0.0
 11
59.47200286
 21
-2.28967324
 31
0.0
  0
LINE
  8
0
  6
CONTINUOUS
 62
       7
  5
12D
 10
46.0220021
 20
9.31032142
 30
0.0
 11
55.92199981
 21
9.31032142
 31
0.0
  0
LINE
  8
0
  6
CENTER
 62
       2
  5
12E
 10
50.97201049
 20
-60.7193328
 30
0.0
 11
50.97201049
 21
-84.71931754
 31
0.0
  0
LINE
  8
0
  6
CENTER
 62
       2
  5
12F
 10
50.97200286
 20
25.11032448
 30
0.0
 11
50.97200286
 21
-31.88967934
 31
0.0
  0
LINE
  8
0
  6
CONTINUOUS
 62
       7
  5
130
 10
-32.17280686
 20
-28.88967934
 30
0.0
 11
-39.17279161
 21
-28.88967934
 31
0.0
  0
LINE
  8
0
  6
CONTINUOUS
 62
       7
  5
131
 10
32.97202575
 20
-76.7193328
 30
0.0
 11
68.97202575
 21
-76.7193328
 31
0.0
  0
LINE
  8
0
  6
CONTINUOUS
 62
       7
  5
132
 10
32.97202575
 20
-68.71934806
 30
0.0
 11
68.97202575
 21
-68.71934806
 31
0.0
  0
LINE
  8
0
  6
CONTINUOUS
 62
       7
  5
133
 10
50.97201049
 20
-76.2193328
 30
0.0
 11
65.67202269
 21
-76.2193328
 31
0.0
  0
LINE
  8
0
  6
CONTINUOUS
 62
       7
  5
134
 10
50.97201049
 20
-69.21934806
 30
0.0
 11
65.67202269
 21
-69.21934806
 31
0.0
  0
LINE
  8
0
  6
CENTER
 62
       2
  5
135
 10
-23.67280305
 20
-13.88967552
 30
0.0
 11
-47.67279542
 21
-13.88967552
 31
0.0
  0
LINE
  8
0
  6
CONTINUOUS
 62
       7
  5
136
 10
50.97201049
 20
-76.21931754
 30
0.0
 11
50.97201049
 21
-69.21931754
 31
0.0
  0
LINE
  8
0
  6
CONTINUOUS
 62
       7
  5
137
 10
37.07203185
 20
-76.21931754
 30
0.0
 11
37.07203185
 21
-69.21931754
 31
0.0
  0
LINE
  8
0
  6
CONTINUOUS
 62
       7
  5
138
 10
64.8720349
 20
-76.21931754
 30
0.0
 11
64.8720349
 21
-69.21931754
 31
0.0
  0
LINE
  8
0
  6
CONTINUOUS
 62
       7
  5
139
 10
36.27201354
 20
-76.21931754
 30
0.0
 11
36.27201354
 21
-69.21931754
 31
0.0
  0
LINE
  8
0
  6
CENTER
 62
       2
  5
13A
 10
65.97200286
 20
70.56795082
 30
0.0
 11
65.97200286
 21
63.56795082
 31
0.0
  0
LINE
  8
0
  6
CENTER
 62
       2
  5
13B
 10
35.97200667
 20
70.56795082
 30
0.0
 11
35.97200667
 21
63.56795082
 31
0.0
  0
LINE
  8
0
  6
CENTER
 62
       2
  5
13C
 10
-44.12280763
 20
14.010326
 30
0.0
 11
-38.92280686
 21
14.010326
 31
0.0
  0
LINE
  8
0
  6
CENTER
 62
       2
  5
13D
 10
-27.2228061
 20
14.010326
 30
0.0
 11
-32.42280686
 21
14.010326
 31
0.0
  0
LINE
  8
0
  6
PHANTOM
 62
       2
  5
13E
 10
57.42199981
 20
14.010326
 30
0.0
 11
57.42199981
 21
1.61032448
 31
0.0
  0
LINE
  8
0
  6
CONTINUOUS
 62
       7
  5
13F
 10
44.97200286
 20
-31.58967247
 30
0.0
 11
44.97200286
 21
-29.93908348
 31
0.0
  0
LINE
  8
0
  6
CONTINUOUS
 62
       7
  5
140
 10
50.97200286
 20
-29.88967171
 30
0.0
 11
50.97200286
 21
-28.38967171
 31
0.0
  0
LINE
  8
0
  6
CONTINUOUS
 62
       7
  5
141
 10
64.87200438
 20
-29.88967171
 30
0.0
 11
64.87200438
 21
-28.38967171
 31
0.0
  0
LINE
  8
0
  6
CONTINUOUS
 62
       7
  5
142
 10
65.67199981
 20
-29.88967171
 30
0.0
 11
65.67199981
 21
-28.38967934
 31
0.0
  0
LINE
  8
0
  6
CONTINUOUS
 62
       7
  5
143
 10
-42.67280686
 20
14.61032448
 30
0.0
 11
-28.67280686
 21
14.61032448
 31
0.0
  0
LINE
  8
0
  6
CONTINUOUS
 62
       7
  5
144
 10
-45.67279542
 20
0.11032448
 30
0.0
 11
-25.67280305
 21
0.11032448
 31
0.0
  0
LINE
  8
0
  6
CONTINUOUS
 62
       7
  5
145
 10
-42.67280686
 20
1.61032448
 30
0.0
 11
-28.67280686
 21
1.61032448
 31
0.0
  0
LINE
  8
0
  6
CONTINUOUS
 62
       7
  5
146
 10
-40.32280597
 20
5.61032891
 30
0.0
 11
-40.62281061
 21
5.31032425
 31
0.0
  0
LINE
  8
0
  6
CENTER
 62
       2
  5
147
 10
-29.82280458
 20
16.61032448
 30
0.0
 11
-29.82280458
 21
-0.38967743
 31
0.0
  0
LINE
  8
0
  6
PHANTOM
 62
       2
  5
148
 10
-30.42280686
 20
14.010326
 30
0.0
 11
-30.42280686
 21
1.61032448
 31
0.0
  0
LINE
  8
0
  6
PHANTOM
 62
       2
  5
149
 10
-29.2228061
 20
14.010326
 30
0.0
 11
-29.2228061
 21
1.61032448
 31
0.0
  0
LINE
  8
0
  6
CONTINUOUS
 62
       7
  5
14A
 10
-31.02281109
 20
9.01032644
 30
0.0
 11
-30.72281185
 21
9.31032571
 31
0.0
  0
LINE
  8
0
  6
CONTINUOUS
 62
       7
  5
14B
 10
-42.67280686
 20
22.61032448
 30
0.0
 11
-28.67280686
 21
22.61032448
 31
0.0
  0
LINE
  8
0
  6
CONTINUOUS
 62
       7
  5
14C
 10
-42.17281334
 20
23.11032522
 30
0.0
 11
-42.67281387
 21
22.61032464
 31
0.0
  0
LINE
  8
0
  6
CONTINUOUS
 62
       7
  5
14D
 10
-29.17280715
 20
23.11032704
 30
0.0
 11
-28.67280662
 21
22.61032647
 31
0.0
  0
LINE
  8
0
  6
CONTINUOUS
 62
       7
  5
14E
 10
-38.67280686
 20
9.01032219
 30
0.0
 11
-38.67280686
 21
5.61032448
 31
0.0
  0
LINE
  8
0
  6
CONTINUOUS
 62
       7
  5
14F
 10
-31.87280763
 20
-23.5896801
 30
0.0
 11
-39.47279084
 21
-23.5896801
 31
0.0
  0
LINE
  8
0
  6
CONTINUOUS
 62
       7
  5
150
 10
-31.87280763
 20
-25.12476006
 30
0.0
 11
-31.87280763
 21
-23.5896801
 31
0.0
  0
LINE
  8
0
  6
CONTINUOUS
 62
       7
  5
151
 10
-31.87280763
 20
-28.38967934
 30
0.0
 11
-31.87280763
 21
-27.65458336
 31
0.0
  0
LINE
  8
0
  6
CONTINUOUS
 62
       7
  5
152
 10
-39.47279084
 20
-28.38967934
 30
0.0
 11
-39.47279084
 21
-27.65457955
 31
0.0
  0
LINE
  8
0
  6
CONTINUOUS
 62
       7
  5
153
 10
139.11679351
 20
-28.3896679
 30
0.0
 11
139.11679351
 21
-21.8896679
 31
0.0
  0
LINE
  8
0
  6
CONTINUOUS
 62
       7
  5
154
 10
122.11682403
 20
-21.88967934
 30
0.0
 11
139.11679351
 21
-21.88967934
 31
0.0
  0
LINE
  8
0
  6
CONTINUOUS
 62
       7
  5
155
 10
132.11680877
 20
-31.58966866
 30
0.0
 11
132.11680877
 21
-29.8896679
 31
0.0
  0
LINE
  8
0
  6
CONTINUOUS
 62
       7
  5
156
 10
134.41679656
 20
-28.38967934
 30
0.0
 11
139.11679351
 21
-28.38967934
 31
0.0
  0
LINE
  8
0
  6
CONTINUOUS
 62
       7
  5
157
 10
140.61679351
 20
-23.88967934
 30
0.0
 11
140.61679351
 21
0.11032448
 31
0.0
  0
LINE
  8
0
  6
CONTINUOUS
 62
       7
  5
158
 10
120.61682403
 20
-23.88967934
 30
0.0
 11
120.61682403
 21
0.11032448
 31
0.0
  0
LINE
  8
0
  6
CONTINUOUS
 62
       7
  5
159
 10
122.11682403
 20
-28.3896679
 30
0.0
 11
122.11682403
 21
-21.88967934
 31
0.0
  0
LINE
  8
0
  6
CONTINUOUS
 62
       7
  5
15A
 10
122.11682403
 20
-28.38967934
 30
0.0
 11
126.81680571
 21
-28.38967934
 31
0.0
  0
LINE
  8
0
  6
CONTINUOUS
 62
       7
  5
15B
 10
127.11682403
 20
-29.8896679
 30
0.0
 11
127.11682403
 21
-27.38967552
 31
0.0
  0
LINE
  8
0
  6
CONTINUOUS
 62
       7
  5
15C
 10
129.11680877
 20
-31.58966866
 30
0.0
 11
129.11680877
 21
-29.8896679
 31
0.0
  0
LINE
  8
0
  6
CONTINUOUS
 62
       7
  5
15D
 10
129.41681182
 20
-31.88967934
 30
0.0
 11
131.81680571
 21
-31.88967934
 31
0.0
  0
LINE
  8
0
  6
CENTER
 62
       2
  5
15E
 10
130.61680877
 20
-33.88967934
 30
0.0
 11
130.61680877
 21
25.11032448
 31
0.0
  0
LINE
  8
0
  6
CONTINUOUS
 62
       7
  5
15F
 10
127.11682403
 20
-29.88967934
 30
0.0
 11
134.11679351
 21
-29.88967934
 31
0.0
  0
LINE
  8
0
  6
CONTINUOUS
 62
       7
  5
160
 10
140.61679351
 20
-15.88967552
 30
0.0
 11
120.61682403
 21
-15.88967552
 31
0.0
  0
LINE
  8
0
  6
CONTINUOUS
 62
       7
  5
161
 10
134.11679351
 20
-29.8896679
 30
0.0
 11
134.11679351
 21
-27.3896679
 31
0.0
  0
LINE
  8
0
  6
CONTINUOUS
 62
       7
  5
162
 10
127.11682403
 20
-23.88967934
 30
0.0
 11
134.11679351
 21
-23.88967934
 31
0.0
  0
LINE
  8
0
  6
CENTER
 62
       2
  5
163
 10
126.61682403
 20
-26.38967934
 30
0.0
 11
134.61679351
 21
-26.38967934
 31
0.0
  0
LINE
  8
0
  6
CONTINUOUS
 62
       7
  5
164
 10
134.11679351
 20
-25.3896679
 30
0.0
 11
134.11679351
 21
-23.8896679
 31
0.0
  0
LINE
  8
0
  6
CONTINUOUS
 62
       7
  5
165
 10
127.11682403
 20
-25.3896679
 30
0.0
 11
127.11682403
 21
-23.8896679
 31
0.0
  0
LINE
  8
0
  6
CENTER
 62
       2
  5
166
 10
128.61680877
 20
-28.38967171
 30
0.0
 11
128.61680877
 21
-24.38967171
 31
0.0
  0
LINE
  8
0
  6
CENTER
 62
       2
  5
167
 10
132.61680877
 20
-28.38967171
 30
0.0
 11
132.61680877
 21
-24.38967171
 31
0.0
  0
LINE
  8
0
  6
CONTINUOUS
 62
       7
  5
168
 10
139.33680999
 20
-23.88967934
 30
0.0
 11
139.33680999
 21
-15.8896679
 31
0.0
  0
LINE
  8
0
  6
CONTINUOUS
 62
       7
  5
169
 10
121.8968228
 20
-23.88967934
 30
0.0
 11
121.8968228
 21
-15.8896679
 31
0.0
  0
LINE
  8
0
  6
CONTINUOUS
 62
       7
  5
16A
 10
139.50180327
 20
-15.88967171
 30
0.0
 11
139.50180327
 21
0.11032448
 31
0.0
  0
LINE
  8
0
  6
CONTINUOUS
 62
       7
  5
16B
 10
121.73181426
 20
-15.88967171
 30
0.0
 11
121.73181426
 21
0.11032448
 31
0.0
  0
LINE
  8
0
  6
CONTINUOUS
 62
       7
  5
16C
 10
131.81688435
 20
-31.88971457
 30
0.0
 11
132.11688873
 21
-31.58970966
 31
0.0
  0
LINE
  8
0
  6
CONTINUOUS
 62
       7
  5
16D
 10
129.41682559
 20
-31.88963038
 30
0.0
 11
129.11683147
 21
-31.58963678
 31
0.0
  0
LINE
  8
0
  6
CONTINUOUS
 62
       7
  5
16E
 10
129.11680877
 20
-31.58966866
 30
0.0
 11
132.11680877
 21
-31.58966866
 31
0.0
  0
LINE
  8
0
  6
CONTINUOUS
 62
       7
  5
16F
 10
127.11682403
 20
-28.88967934
 30
0.0
 11
134.11679351
 21
-28.88967934
 31
0.0
  0
LINE
  8
0
  6
CENTER
 62
       2
  5
170
 10
119.63792693
 20
-13.88967552
 30
0.0
 11
141.76397979
 21
-13.88967552
 31
0.0
  0
LINE
  8
0
  6
CONTINUOUS
 62
       7
  5
171
 10
127.61682403
 20
9.01032219
 30
0.0
 11
127.61682403
 21
5.61032448
 31
0.0
  0
LINE
  8
0
  6
CONTINUOUS
 62
       7
  5
172
 10
137.61680877
 20
1.61032448
 30
0.0
 11
137.61680877
 21
0.11032448
 31
0.0
  0
LINE
  8
0
  6
CONTINUOUS
 62
       7
  5
173
 10
137.61680877
 20
22.61032448
 30
0.0
 11
137.61680877
 21
14.61032448
 31
0.0
  0
LINE
  8
0
  6
CONTINUOUS
 62
       7
  5
174
 10
123.61682403
 20
22.61032448
 30
0.0
 11
123.61682403
 21
14.61032448
 31
0.0
  0
LINE
  8
0
  6
CONTINUOUS
 62
       7
  5
175
 10
135.26680266
 20
5.61032448
 30
0.0
 11
125.96683013
 21
5.61032448
 31
0.0
  0
LINE
  8
0
  6
CONTINUOUS
 62
       7
  5
176
 10
139.11679351
 20
-23.88967934
 30
0.0
 11
140.61679351
 21
-23.88967934
 31
0.0
  0
LINE
  8
0
  6
CONTINUOUS
 62
       7
  5
177
 10
120.61682403
 20
-23.88967934
 30
0.0
 11
122.11682403
 21
-23.88967934
 31
0.0
  0
LINE
  8
0
  6
CONTINUOUS
 62
       7
  5
178
 10
137.11680877
 20
23.11032448
 30
0.0
 11
124.11682403
 21
23.11032448
 31
0.0
  0
LINE
  8
0
  6
CONTINUOUS
 62
       7
  5
179
 10
140.61679351
 20
0.11032448
 30
0.0
 11
120.61682403
 21
0.11032448
 31
0.0
  0
LINE
  8
0
  6
CONTINUOUS
 62
       7
  5
17A
 10
137.61680877
 20
1.61032448
 30
0.0
 11
123.61682403
 21
1.61032448
 31
0.0
  0
LINE
  8
0
  6
CENTER
 62
       2
  5
17B
 10
136.46681487
 20
16.61032448
 30
0.0
 11
136.46681487
 21
-0.38967743
 31
0.0
  0
LINE
  8
0
  6
CENTER
 62
       2
  5
17C
 10
139.06680571
 20
14.010326
 30
0.0
 11
133.86680877
 21
14.010326
 31
0.0
  0
LINE
  8
0
  6
PHANTOM
 62
       2
  5
17D
 10
137.06680571
 20
14.010326
 30
0.0
 11
137.06680571
 21
1.61032448
 31
0.0
  0
LINE
  8
0
  6
PHANTOM
 62
       2
  5
17E
 10
135.86680877
 20
14.010326
 30
0.0
 11
135.86680877
 21
1.61032448
 31
0.0
  0
LINE
  8
0
  6
CONTINUOUS
 62
       7
  5
17F
 10
135.56680571
 20
14.61032448
 30
0.0
 11
135.56680571
 21
9.31032142
 31
0.0
  0
LINE
  8
0
  6
CONTINUOUS
 62
       7
  5
180
 10
135.56680571
 20
5.31032142
 30
0.0
 11
135.56680571
 21
1.61032448
 31
0.0
  0
LINE
  8
0
  6
CONTINUOUS
 62
       7
  5
181
 10
125.66681182
 20
14.61032448
 30
0.0
 11
125.66681182
 21
9.31032142
 31
0.0
  0
LINE
  8
0
  6
CONTINUOUS
 62
       7
  5
182
 10
125.66681182
 20
5.31032142
 30
0.0
 11
125.66681182
 21
1.61032448
 31
0.0
  0
LINE
  8
0
  6
CONTINUOUS
 62
       7
  5
183
 10
123.61682403
 20
1.61032448
 30
0.0
 11
123.61682403
 21
0.11032448
 31
0.0
  0
LINE
  8
0
  6
CONTINUOUS
 62
       7
  5
184
 10
135.2668337
 20
9.01030066
 30
0.0
 11
135.56683834
 21
9.31030532
 31
0.0
  0
LINE
  8
0
  6
CONTINUOUS
 62
       7
  5
185
 10
125.96684416
 20
9.01033854
 30
0.0
 11
125.66683953
 21
9.3103432
 31
0.0
  0
LINE
  8
0
  6
CONTINUOUS
 62
       7
  5
186
 10
125.96682466
 20
5.61031054
 30
0.0
 11
125.66683082
 21
5.31031667
 31
0.0
  0
LINE
  8
0
  6
CONTINUOUS
 62
       7
  5
187
 10
135.26685321
 20
5.61035921
 30
0.0
 11
135.56685245
 21
5.31035995
 31
0.0
  0
LINE
  8
0
  6
CONTINUOUS
 62
       7
  5
188
 10
125.66681182
 20
9.31032142
 30
0.0
 11
135.56680571
 21
9.31032142
 31
0.0
  0
LINE
  8
0
  6
CONTINUOUS
 62
       7
  5
189
 10
125.66681182
 20
5.31032142
 30
0.0
 11
135.56680571
 21
5.31032142
 31
0.0
  0
LINE
  8
0
  6
PHANTOM
 62
       2
  5
18A
 10
124.16681182
 20
14.010326
 30
0.0
 11
124.16681182
 21
1.61032448
 31
0.0
  0
LINE
  8
0
  6
CENTER
 62
       2
  5
18B
 10
124.76681792
 20
16.61032448
 30
0.0
 11
124.76681792
 21
-0.38967743
 31
0.0
  0
LINE
  8
0
  6
PHANTOM
 62
       2
  5
18C
 10
125.36682403
 20
14.010326
 30
0.0
 11
125.36682403
 21
1.61032448
 31
0.0
  0
LINE
  8
0
  6
CENTER
 62
       2
  5
18D
 10
122.16681182
 20
14.010326
 30
0.0
 11
127.36682403
 21
14.010326
 31
0.0
  0
LINE
  8
0
  6
CONTINUOUS
 62
       7
  5
18E
 10
135.26680266
 20
9.01032219
 30
0.0
 11
125.96683013
 21
9.01032219
 31
0.0
  0
LINE
  8
0
  6
CONTINUOUS
 62
       7
  5
18F
 10
137.61680877
 20
14.61032448
 30
0.0
 11
123.61682403
 21
14.61032448
 31
0.0
  0
LINE
  8
0
  6
CONTINUOUS
 62
       7
  5
190
 10
137.11685383
 20
23.11035148
 30
0.0
 11
137.61685436
 21
22.6103509
 31
0.0
  0
LINE
  8
0
  6
CONTINUOUS
 62
       7
  5
191
 10
124.11684022
 20
23.11031899
 30
0.0
 11
123.61683969
 21
22.61031842
 31
0.0
  0
LINE
  8
0
  6
CONTINUOUS
 62
       7
  5
192
 10
133.61680877
 20
9.01032219
 30
0.0
 11
133.61680877
 21
5.61032448
 31
0.0
  0
LINE
  8
0
  6
CONTINUOUS
 62
       7
  5
193
 10
123.61682403
 20
22.61032448
 30
0.0
 11
137.61680877
 21
22.61032448
 31
0.0
  0
LINE
  8
0
  6
CONTINUOUS
 62
       7
  5
194
 10
134.41679656
 20
-28.38967934
 30
0.0
 11
134.41679656
 21
-27.65457955
 31
0.0
  0
LINE
  8
0
  6
CONTINUOUS
 62
       7
  5
195
 10
126.81680571
 20
-28.38967934
 30
0.0
 11
126.81680571
 21
-27.65458336
 31
0.0
  0
LINE
  8
0
  6
CONTINUOUS
 62
       7
  5
196
 10
126.81680571
 20
-25.12476006
 30
0.0
 11
126.81680571
 21
-23.5896801
 31
0.0
  0
LINE
  8
0
  6
CONTINUOUS
 62
       7
  5
197
 10
126.81680571
 20
-23.5896801
 30
0.0
 11
134.41679656
 21
-23.5896801
 31
0.0
  0
LINE
  8
0
  6
CONTINUOUS
 62
       7
  5
198
 10
134.41679656
 20
-25.12476387
 30
0.0
 11
134.41679656
 21
-23.5896801
 31
0.0
  0
LINE
  8
0
  6
CENTER
 62
       2
  5
199
 10
54.47200286
 20
-18.88967934
 30
0.0
 11
47.47200286
 21
-18.88967934
 31
0.0
  0
CIRCLE
  8
0
  6
CONTINUOUS
 62
       7
  5
19A
 10
42.47200286
 20
-5.88967552
 30
0.0
 40
1.60000002
  0
CIRCLE
  8
0
  6
CONTINUOUS
 62
       2
  5
19B
 10
45.12200438
 20
14.010326
 30
0.0
 40
0.60000002
  0
CIRCLE
  8
0
  6
CONTINUOUS
 62
       2
  5
19C
 10
-29.82280458
 20
14.010326
 30
0.0
 40
0.60000002
  0
CIRCLE
  8
0
  6
CONTINUOUS
 62
       2
  5
19D
 10
56.82200133
 20
14.010326
 30
0.0
 40
0.60000002
  0
CIRCLE
  8
0
  6
CONTINUOUS
 62
       7
  5
19E
 10
44.97200286
 20
-13.88967552
 30
0.0
 40
1.25
  0
CIRCLE
  8
0
  6
CONTINUOUS
 62
       7
  5
19F
 10
56.97200286
 20
-13.88967552
 30
0.0
 40
1.25
  0
CIRCLE
  8
0
  6
CONTINUOUS
 62
       7
  5
1A0
 10
35.97200667
 20
67.06795082
 30
0.0
 40
1.25
  0
CIRCLE
  8
0
  6
CONTINUOUS
 62
       7
  5
1A1
 10
50.97200286
 20
16.61032448
 30
0.0
 40
1.5
  0
CIRCLE
  8
0
  6
CONTINUOUS
 62
       7
  5
1A2
 10
65.47201049
 20
73.56795082
 30
0.0
 40
2.5
  0
CIRCLE
  8
0
  6
CONTINUOUS
 62
       7
  5
1A3
 10
65.97201049
 20
67.06795082
 30
0.0
 40
1.25
  0
CIRCLE
  8
0
  6
CONTINUOUS
 62
       7
  5
1A4
 10
36.47199904
 20
60.56796608
 30
0.0
 40
2.5
  0
CIRCLE
  8
0
  6
CONTINUOUS
 62
       7
  5
1A5
 10
36.47199904
 20
73.56795082
 30
0.0
 40
2.5
  0
CIRCLE
  8
0
  6
CONTINUOUS
 62
       2
  5
1A6
 10
50.97200286
 20
16.61032448
 30
0.0
 40
1.0
  0
CIRCLE
  8
0
  6
CONTINUOUS
 62
       7
  5
1A7
 10
65.47201049
 20
60.56796608
 30
0.0
 40
2.5
  0
CIRCLE
  8
0
  6
CONTINUOUS
 62
       7
  5
1A8
 10
65.47201049
 20
73.56795082
 30
0.0
 40
2.20000005
  0
CIRCLE
  8
0
  6
CONTINUOUS
 62
       7
  5
1A9
 10
65.47201049
 20
60.56796608
 30
0.0
 40
2.20000005
  0
ARC
  8
0
  6
CONTINUOUS
 62
       7
  5
1AA
 10
50.97201049
 20
67.06795082
 30
0.0
 40
20.0
 50
205.84196107
 51
210.00002998
  0
ARC
  8
0
  6
CONTINUOUS
 62
       7
  5
1AB
 10
50.97201049
 20
67.06795082
 30
0.0
 40
20.0
 50
329.99997867
 51
334.15804758
  0
ARC
  8
0
  6
CONTINUOUS
 62
       7
  5
1AC
 10
50.97201049
 20
67.06795082
 30
0.0
 40
20.0
 50
149.99999734
 51
154.15806625
  0
ARC
  8
0
  6
CONTINUOUS
 62
       7
  5
1AD
 10
50.97201049
 20
67.06795082
 30
0.0
 40
20.0
 50
25.8419251
 51
29.999994
  0
ARC
  8
0
  6
CONTINUOUS
 62
       7
  5
1AE
 10
-32.17280305
 20
-26.38967171
 30
0.0
 40
1.0
 50
269.999977
 51
89.99994103
  0
CIRCLE
  8
0
  6
CONTINUOUS
 62
       7
  5
1AF
 10
-33.67279924
 20
-26.38967171
 30
0.0
 40
1.0
  0
ARC
  8
0
  6
CONTINUOUS
 62
       7
  5
1B0
 10
50.97202575
 20
-72.7193328
 30
0.0
 40
20.0
 50
330.00001966
 51
334.1580749
  0
CIRCLE
  8
0
  6
CONTINUOUS
 62
       7
  5
1B1
 10
-37.67279924
 20
-26.38967171
 30
0.0
 40
1.0
  0
ARC
  8
0
  6
CONTINUOUS
 62
       7
  5
1B2
 10
-39.17278398
 20
-26.38967171
 30
0.0
 40
1.0
 50
89.99994103
 51
269.99994604
  0
ARC
  8
0
  6
CONTINUOUS
 62
       7
  5
1B3
 10
50.97202575
 20
-72.7193328
 30
0.0
 40
20.0
 50
25.84195242
 51
30.00000767
  0
ARC
  8
0
  6
CONTINUOUS
 62
       7
  5
1B4
 10
50.97202575
 20
-72.7193328
 30
0.0
 40
20.0
 50
150.000011
 51
154.15809357
  0
ARC
  8
0
  6
CONTINUOUS
 62
       7
  5
1B5
 10
50.97202575
 20
-72.7193328
 30
0.0
 40
20.0
 50
205.84193375
 51
210.00004364
  0
CIRCLE
  8
0
  6
CONTINUOUS
 62
       7
  5
1B6
 10
55.47204101
 20
-72.7193328
 30
0.0
 40
1.5
  0
CIRCLE
  8
0
  6
CONTINUOUS
 62
       7
  5
1B7
 10
46.47202575
 20
-72.7193328
 30
0.0
 40
1.5
  0
CIRCLE
  8
0
  6
CONTINUOUS
 62
       7
  5
1B8
 10
41.47202575
 20
-72.7193328
 30
0.0
 40
1.25
  0
CIRCLE
  8
0
  6
CONTINUOUS
 62
       2
  5
1B9
 10
41.47202575
 20
-72.7193328
 30
0.0
 40
1.5
  0
CIRCLE
  8
0
  6
CONTINUOUS
 62
       2
  5
1BA
 10
60.47204101
 20
-72.7193328
 30
0.0
 40
1.5
  0
CIRCLE
  8
0
  6
CONTINUOUS
 62
       7
  5
1BB
 10
60.47204101
 20
-72.7193328
 30
0.0
 40
1.25
  0
CIRCLE
  8
0
  6
CONTINUOUS
 62
       7
  5
1BC
 10
59.47200286
 20
-5.88967552
 30
0.0
 40
1.60000002
  0
ARC
  8
0
  6
CONTINUOUS
 62
       7
  5
1BD
 10
50.97201049
 20
67.06795082
 30
0.0
 40
14.75
 50
218.77047098
 51
222.68494802
  0
ARC
  8
0
  6
CONTINUOUS
 62
       7
  5
1BE
 10
50.97201049
 20
67.06795082
 30
0.0
 40
14.75
 50
317.31507429
 51
321.22953767
  0
ARC
  8
0
  6
CONTINUOUS
 62
       7
  5
1BF
 10
50.97201049
 20
67.06795082
 30
0.0
 40
14.75
 50
137.31509296
 51
141.22955634
  0
ARC
  8
0
  6
CONTINUOUS
 62
       7
  5
1C0
 10
50.97201049
 20
67.06795082
 30
0.0
 40
14.75
 50
38.77043501
 51
42.68489839
  0
CIRCLE
  8
0
  6
CONTINUOUS
 62
       2
  5
1C1
 10
35.97200667
 20
67.06795082
 30
0.0
 40
1.5
  0
CIRCLE
  8
0
  6
CONTINUOUS
 62
       2
  5
1C2
 10
65.97201049
 20
67.06795082
 30
0.0
 40
1.5
  0
CIRCLE
  8
0
  6
CONTINUOUS
 62
       2
  5
1C3
 10
-41.52280534
 20
14.010326
 30
0.0
 40
0.60000002
  0
CIRCLE
  8
0
  6
CONTINUOUS
 62
       7
  5
1C4
 10
36.47199904
 20
73.56795082
 30
0.0
 40
2.20000005
  0
CIRCLE
  8
0
  6
CONTINUOUS
 62
       7
  5
1C5
 10
36.47199904
 20
60.56796608
 30
0.0
 40
2.20000005
  0
CIRCLE
  8
0
  6
CONTINUOUS
 62
       7
  5
1C6
 10
50.97201049
 20
67.06795082
 30
0.0
 40
7.0
  0
ARC
  8
0
  6
CONTINUOUS
 62
       7
  5
1C7
 10
-32.17280305
 20
-26.38967171
 30
0.0
 40
1.29999995
 50
283.34219147
 51
76.65780853
  0
ARC
  8
0
  6
CONTINUOUS
 62
       7
  5
1C8
 10
-39.17278398
 20
-26.38967171
 30
0.0
 40
1.29999995
 50
103.34270875
 51
256.65728078
  0
ARC
  8
0
  6
CONTINUOUS
 62
       7
  5
1C9
 10
127.11682403
 20
-26.38967171
 30
0.0
 40
1.29999995
 50
103.34218965
 51
256.65779988
  0
ARC
  8
0
  6
CONTINUOUS
 62
       7
  5
1CA
 10
134.11679351
 20
-26.38967171
 30
0.0
 40
1.29999995
 50
283.34271057
 51
76.65728943
  0
CIRCLE
  8
0
  6
CONTINUOUS
 62
       2
  5
1CB
 10
124.76681792
 20
14.010326
 30
0.0
 40
0.60000002
  0
ARC
  8
0
  6
CONTINUOUS
 62
       7
  5
1CC
 10
127.11682403
 20
-26.38967171
 30
0.0
 40
1.0
 50
90.00005715
 51
270.000028
  0
ARC
  8
0
  6
CONTINUOUS
 62
       7
  5
1CD
 10
134.11679351
 20
-26.38967171
 30
0.0
 40
1.0
 50
270.00005214
 51
90.00005715
  0
CIRCLE
  8
0
  6
CONTINUOUS
 62
       7
  5
1CE
 10
128.61679351
 20
-26.38967171
 30
0.0
 40
1.0
  0
CIRCLE
  8
0
  6
CONTINUOUS
 62
       7
  5
1CF
 10
132.61679351
 20
-26.38967171
 30
0.0
 40
1.0
  0
CIRCLE
  8
0
  6
CONTINUOUS
 62
       2
  5
1D0
 10
136.46681487
 20
14.010326
 30
0.0
 40
0.60000002
  0
CIRCLE
  8
0
  6
CONTINUOUS
 62
       2
  5
1D1
 10
50.97200286
 20
-18.88967934
 30
0.0
 40
1.5
  0
CIRCLE
  8
0
  6
CONTINUOUS
 62
       7
  5
1D2
 10
50.97200286
 20
-18.88967934
 30
0.0
 40
1.25
  0
CIRCLE
  8
0
  6
CONTINUOUS
 62
       2
  5
1D3
 10
50.97200286
 20
-13.88967552
 30
0.0
 40
1.5
  0
CIRCLE
  8
0
  6
CONTINUOUS
 62
       7
  5
1D4
 10
50.97200286
 20
-13.88967552
 30
0.0
 40
1.25
  0
TEXT
  8
0
  6
CONTINUOUS
 62
       7
  5
1D5
 10
-185.69473684
 20
105.3500061
 30
0.0
 40
4.5
  1
MODEL:NHBMPG-10-L
 41
1.07368421
  7
MX_NOTE_STANDARD
 11
-185.69473684
 21
107.6000061
 31
0.0
 73
       2
  0
LINE
  8
0
  6
CONTINUOUS
 62
       7
  5
1D6
 10
-194.25
 20
132.6000061
 30
0.0
 11
194.80000305
 21
132.6000061
 31
0.0
  0
LINE
  8
0
  6
CONTINUOUS
 62
       7
  5
1D7
 10
194.80000305
 20
132.6000061
 30
0.0
 11
194.80000305
 21
-133.5
 31
0.0
  0
LINE
  8
0
  6
CONTINUOUS
 62
       7
  5
1D8
 10
-194.25
 20
132.6000061
 30
0.0
 11
-194.25
 21
-133.5
 31
0.0
  0
LINE
  8
0
  6
CONTINUOUS
 62
       7
  5
1D9
 10
-194.25
 20
-133.5
 30
0.0
 11
194.80000305
 21
-133.5
 31
0.0
  0
ENDSEC
  0
EOF
