  0
SECTION
  2
HEADER
  9
$ACADVER
  1
AC1015
  9
$ACADMAINTVER
 70
    20
  9
$DWGCODEPAGE
  3
ANSI_932
  9
$INSBASE
 10
0.0
 20
0.0
 30
0.0
  9
$EXTMIN
 10
-194.25
 20
-133.5
 30
0.0
  9
$EXTMAX
 10
195.0953023707291
 20
132.6000061035156
 30
0.0
  9
$LIMMIN
 10
-210.0
 20
-148.5
  9
$LIMMAX
 10
210.0
 20
148.5
  9
$ORTHOMODE
 70
     0
  9
$REGENMODE
 70
     1
  9
$FILLMODE
 70
     1
  9
$QTEXTMODE
 70
     0
  9
$MIRRTEXT
 70
     1
  9
$LTSCALE
 40
1.0
  9
$ATTMODE
 70
     1
  9
$TEXTSIZE
 40
3.200000047683714
  9
$TRACEWID
 40
0.05
  9
$TEXTSTYLE
  7
MX_NOTE_STANDARD
  9
$CLAYER
  8
0
  9
$CELTYPE
  6
CONTINUOUS
  9
$CECOLOR
 62
   256
  9
$CELTSCALE
 40
1.0
  9
$DISPSILH
 70
     0
  9
$DIMSCALE
 40
1.0
  9
$DIMASZ
 40
2.5
  9
$DIMEXO
 40
1.5
  9
$DIMDLI
 40
3.75
  9
$DIMRND
 40
0.0
  9
$DIMDLE
 40
0.0
  9
$DIMEXE
 40
1.5
  9
$DIMTP
 40
0.0
  9
$DIMTM
 40
0.0
  9
$DIMTXT
 40
3.200000047683714
  9
$DIMCEN
 40
2.5
  9
$DIMTSZ
 40
0.0
  9
$DIMTOL
 70
     0
  9
$DIMLIM
 70
     0
  9
$DIMTIH
 70
     0
  9
$DIMTOH
 70
     0
  9
$DIMSE1
 70
     0
  9
$DIMSE2
 70
     0
  9
$DIMTAD
 70
     1
  9
$DIMZIN
 70
     8
  9
$DIMBLK
  1

  9
$DIMASO
 70
     1
  9
$DIMSHO
 70
     1
  9
$DIMPOST
  1

  9
$DIMAPOST
  1

  9
$DIMALT
 70
     0
  9
$DIMALTD
 70
     4
  9
$DIMALTF
 40
0.03937007874016
  9
$DIMLFAC
 40
1.0
  9
$DIMTOFL
 70
     1
  9
$DIMTVP
 40
0.0
  9
$DIMTIX
 70
     0
  9
$DIMSOXD
 70
     0
  9
$DIMSAH
 70
     1
  9
$DIMBLK1
  1
OPEN30
  9
$DIMBLK2
  1
OPEN30
  9
$DIMSTYLE
  2
MXDIMSTYLE
  9
$DIMCLRD
 70
     0
  9
$DIMCLRE
 70
     0
  9
$DIMCLRT
 70
     0
  9
$DIMTFAC
 40
1.0
  9
$DIMGAP
 40
1.0
  9
$DIMJUST
 70
     0
  9
$DIMSD1
 70
     0
  9
$DIMSD2
 70
     0
  9
$DIMTOLJ
 70
     0
  9
$DIMTZIN
 70
     0
  9
$DIMALTZ
 70
     0
  9
$DIMALTTZ
 70
     0
  9
$DIMUPT
 70
     1
  9
$DIMDEC
 70
     2
  9
$DIMTDEC
 70
     2
  9
$DIMALTU
 70
     2
  9
$DIMALTTD
 70
     4
  9
$DIMTXSTY
  7
MX_NOTE_STANDARD
  9
$DIMAUNIT
 70
     0
  9
$DIMADEC
 70
     0
  9
$DIMALTRND
 40
0.0
  9
$DIMAZIN
 70
     0
  9
$DIMDSEP
 70
    46
  9
$DIMATFIT
 70
     3
  9
$DIMFRAC
 70
     0
  9
$DIMLDRBLK
  1
OPEN30
  9
$DIMLUNIT
 70
     2
  9
$DIMLWD
 70
    -2
  9
$DIMLWE
 70
    -2
  9
$DIMTMOVE
 70
     0
  9
$LUNITS
 70
     2
  9
$LUPREC
 70
     4
  9
$SKETCHINC
 40
0.1
  9
$FILLETRAD
 40
0.0
  9
$AUNITS
 70
     0
  9
$AUPREC
 70
     0
  9
$MENU
  1
acad
  9
$ELEVATION
 40
0.0
  9
$PELEVATION
 40
0.0
  9
$THICKNESS
 40
0.0
  9
$LIMCHECK
 70
     0
  9
$CHAMFERA
 40
0.0
  9
$CHAMFERB
 40
0.0
  9
$CHAMFERC
 40
0.0
  9
$CHAMFERD
 40
0.0
  9
$SKPOLY
 70
     0
  9
$TDCREATE
 40
2453882.358090278
  9
$TDUCREATE
 40
2453881.983090278
  9
$TDUPDATE
 40
2453885.478573577
  9
$TDUUPDATE
 40
2453885.103573576
  9
$TDINDWG
 40
0.0021496181
  9
$TDUSRTIMER
 40
0.0021491551
  9
$USRTIMER
 70
     1
  9
$ANGBASE
 50
0.0
  9
$ANGDIR
 70
     0
  9
$PDMODE
 70
     0
  9
$PDSIZE
 40
0.0
  9
$PLINEWID
 40
0.0
  9
$SPLFRAME
 70
     0
  9
$SPLINETYPE
 70
     6
  9
$SPLINESEGS
 70
     8
  9
$HANDSEED
  5
3C7
  9
$SURFTAB1
 70
     6
  9
$SURFTAB2
 70
     6
  9
$SURFTYPE
 70
     6
  9
$SURFU
 70
     6
  9
$SURFV
 70
     6
  9
$UCSBASE
  2

  9
$UCSNAME
  2

  9
$UCSORG
 10
0.0
 20
0.0
 30
0.0
  9
$UCSXDIR
 10
1.0
 20
0.0
 30
0.0
  9
$UCSYDIR
 10
0.0
 20
1.0
 30
0.0
  9
$UCSORTHOREF
  2

  9
$UCSORTHOVIEW
 70
     0
  9
$UCSORGTOP
 10
0.0
 20
0.0
 30
0.0
  9
$UCSORGBOTTOM
 10
0.0
 20
0.0
 30
0.0
  9
$UCSORGLEFT
 10
0.0
 20
0.0
 30
0.0
  9
$UCSORGRIGHT
 10
0.0
 20
0.0
 30
0.0
  9
$UCSORGFRONT
 10
0.0
 20
0.0
 30
0.0
  9
$UCSORGBACK
 10
0.0
 20
0.0
 30
0.0
  9
$PUCSBASE
  2

  9
$PUCSNAME
  2

  9
$PUCSORG
 10
0.0
 20
0.0
 30
0.0
  9
$PUCSXDIR
 10
1.0
 20
0.0
 30
0.0
  9
$PUCSYDIR
 10
0.0
 20
1.0
 30
0.0
  9
$PUCSORTHOREF
  2

  9
$PUCSORTHOVIEW
 70
     0
  9
$PUCSORGTOP
 10
0.0
 20
0.0
 30
0.0
  9
$PUCSORGBOTTOM
 10
0.0
 20
0.0
 30
0.0
  9
$PUCSORGLEFT
 10
0.0
 20
0.0
 30
0.0
  9
$PUCSORGRIGHT
 10
0.0
 20
0.0
 30
0.0
  9
$PUCSORGFRONT
 10
0.0
 20
0.0
 30
0.0
  9
$PUCSORGBACK
 10
0.0
 20
0.0
 30
0.0
  9
$USERI1
 70
     0
  9
$USERI2
 70
     0
  9
$USERI3
 70
     0
  9
$USERI4
 70
     0
  9
$USERI5
 70
     0
  9
$USERR1
 40
0.0
  9
$USERR2
 40
0.0
  9
$USERR3
 40
0.0
  9
$USERR4
 40
0.0
  9
$USERR5
 40
0.0
  9
$WORLDVIEW
 70
     1
  9
$SHADEDGE
 70
     3
  9
$SHADEDIF
 70
    70
  9
$TILEMODE
 70
     1
  9
$MAXACTVP
 70
    16
  9
$PINSBASE
 10
0.0
 20
0.0
 30
0.0
  9
$PLIMCHECK
 70
     0
  9
$PEXTMIN
 10
1.000000000000000E+20
 20
1.000000000000000E+20
 30
1.000000000000000E+20
  9
$PEXTMAX
 10
-1.000000000000000E+20
 20
-1.000000000000000E+20
 30
-1.000000000000000E+20
  9
$PLIMMIN
 10
0.0
 20
0.0
  9
$PLIMMAX
 10
12.0
 20
9.0
  9
$UNITMODE
 70
     0
  9
$VISRETAIN
 70
     0
  9
$PLINEGEN
 70
     1
  9
$PSLTSCALE
 70
     0
  9
$TREEDEPTH
 70
  3020
  9
$CMLSTYLE
  2
STANDARD
  9
$CMLJUST
 70
     0
  9
$CMLSCALE
 40
1.0
  9
$PROXYGRAPHICS
 70
     1
  9
$MEASUREMENT
 70
     0
  9
$CELWEIGHT
370
    -1
  9
$ENDCAPS
280
     0
  9
$JOINSTYLE
280
     0
  9
$LWDISPLAY
290
     0
  9
$INSUNITS
 70
     0
  9
$HYPERLINKBASE
  1

  9
$STYLESHEET
  1

  9
$XEDIT
290
     1
  9
$CEPSNTYPE
380
     0
  9
$PSTYLEMODE
290
     1
  9
$FINGERPRINTGUID
  2
{0653C21E-6548-416A-8D45-0F6CECA32CF7}
  9
$VERSIONGUID
  2
{4E0A3D75-03CE-4D48-9D89-DADC77CAAF1F}
  9
$EXTNAMES
290
     1
  9
$PSVPSCALE
 40
0.0
  9
$OLESTARTUP
290
     0
  0
ENDSEC
  0
SECTION
  2
CLASSES
  0
CLASS
  1
IMAGE
  2
AcDbRasterImage
  3
ISM
 90
    32895
280
     0
281
     1
  0
CLASS
  1
DICTIONARYVAR
  2
AcDbDictionaryVar
  3
ObjectDBX Classes
 90
        0
280
     0
281
     0
  0
CLASS
  1
RASTERVARIABLES
  2
AcDbRasterVariables
  3
ISM
 90
    32768
280
     0
281
     0
  0
CLASS
  1
IMAGEDEF
  2
AcDbRasterImageDef
  3
ISM
 90
    32768
280
     0
281
     0
  0
CLASS
  1
IMAGEDEF_REACTOR
  2
AcDbRasterImageDefReactor
  3
ISM
 90
    32769
280
     0
281
     0
  0
CLASS
  1
IDBUFFER
  2
AcDbIdBuffer
  3
ObjectDBX Classes
 90
    32768
280
     0
281
     0
  0
CLASS
  1
SPATIAL_FILTER
  2
AcDbSpatialFilter
  3
ObjectDBX Classes
 90
    32768
280
     0
281
     0
  0
CLASS
  1
SORTENTSTABLE
  2
AcDbSortentsTable
  3
ObjectDBX Classes
 90
        0
280
     0
281
     0
  0
CLASS
  1
LAYER_INDEX
  2
AcDbLayerIndex
  3
ObjectDBX Classes
 90
    32768
280
     0
281
     0
  0
CLASS
  1
SPATIAL_INDEX
  2
AcDbSpatialIndex
  3
ObjectDBX Classes
 90
    32768
280
     0
281
     0
  0
CLASS
  1
OBJECT_PTR
  2
CAseDLPNTableRecord
  3
"ASE-LPNTableRecord"
 90
    32769
280
     0
281
     0
  0
CLASS
  1
LAYOUT
  2
AcDbLayout
  3
ObjectDBX Classes
 90
        0
280
     0
281
     0
  0
CLASS
  1
PLOTSETTINGS
  2
AcDbPlotSettings
  3
ObjectDBX Classes
 90
    32768
280
     0
281
     0
  0
CLASS
  1
ACDBDICTIONARYWDFLT
  2
AcDbDictionaryWithDefault
  3
ObjectDBX Classes
 90
        0
280
     0
281
     0
  0
CLASS
  1
ACDBPLACEHOLDER
  2
AcDbPlaceHolder
  3
ObjectDBX Classes
 90
        0
280
     0
281
     0
  0
CLASS
  1
TABLESTYLE
  2
AcDbTableStyle
  3
ObjectDBX Classes
 90
     2047
280
     0
281
     0
  0
ENDSEC
  0
SECTION
  2
TABLES
  0
TABLE
  2
VPORT
  5
7
330
0
100
AcDbSymbolTable
 70
     2
  0
VPORT
  5
3C1
330
7
100
AcDbSymbolTableRecord
100
AcDbViewportTableRecord
  2
*Active
 70
     0
 10
0.0
 20
0.0
 11
1.0
 21
1.0
 12
-37.49664807834131
 22
50.20868384248712
 13
0.0
 23
0.0
 14
1.0
 24
1.0
 15
0.0
 25
0.0
 16
0.0
 26
0.0
 36
1.0
 17
0.0
 27
0.0
 37
0.0
 40
179.7220280803486
 41
1.874251497005987
 42
50.0
 43
0.0
 44
0.0
 50
0.0
 51
0.0
 71
     0
 72
   100
 73
     1
 74
     1
 75
     0
 76
     0
 77
     0
 78
     0
281
     0
 65
     1
110
0.0
120
0.0
130
0.0
111
1.0
121
0.0
131
0.0
112
0.0
122
1.0
132
0.0
 79
     0
146
0.0
  0
ENDTAB
  0
TABLE
  2
LTYPE
  5
4
330
0
100
AcDbSymbolTable
 70
     2
  0
LTYPE
  5
11
330
4
100
AcDbSymbolTableRecord
100
AcDbLinetypeTableRecord
  2
BYBLOCK
 70
     0
  3

 72
    65
 73
     0
 40
0.0
  0
LTYPE
  5
12
330
4
100
AcDbSymbolTableRecord
100
AcDbLinetypeTableRecord
  2
BYLAYER
 70
     0
  3

 72
    65
 73
     0
 40
0.0
  0
LTYPE
  5
13
330
4
100
AcDbSymbolTableRecord
100
AcDbLinetypeTableRecord
  2
CONTINUOUS
 70
     0
  3
Solid line
 72
    65
 73
     0
 40
0.0
  0
LTYPE
  5
3D
330
4
100
AcDbSymbolTableRecord
100
AcDbLinetypeTableRecord
  2
CENTER
 70
     0
  3
Center ____ _ ____ _ ____ _ ____ _ ____ _ ____
 72
    65
 73
     4
 40
50.8
 49
31.75
 74
     0
 49
-6.349999999999998
 74
     0
 49
6.349999999999998
 74
     0
 49
-6.349999999999998
 74
     0
  0
ENDTAB
  0
TABLE
  2
LAYER
  5
2
330
0
100
AcDbSymbolTable
 70
     2
  0
LAYER
  5
14
330
2
100
AcDbSymbolTableRecord
100
AcDbLayerTableRecord
  2
0
 70
     0
 62
     7
  6
CONTINUOUS
370
    -3
390
31C
  0
LAYER
  5
1D
330
2
100
AcDbSymbolTableRecord
100
AcDbLayerTableRecord
  2
DEFPOINTS
 70
     0
 62
     7
  6
CONTINUOUS
290
     0
370
    -3
390
31C
  0
ENDTAB
  0
TABLE
  2
STYLE
  5
3
330
0
100
AcDbSymbolTable
 70
     2
  0
STYLE
  5
17
330
3
100
AcDbSymbolTableRecord
100
AcDbTextStyleTableRecord
  2
MX_NOTE_STANDARD
 70
     0
 40
0.0
 41
1.0
 50
0.0
 71
     0
 42
3.200000047683714
  3
txt.shx
  4
extfont.shx
  0
STYLE
  5
31A
330
3
100
AcDbSymbolTableRecord
100
AcDbTextStyleTableRecord
  2
Standard
 70
     0
 40
0.0
 41
1.0
 50
0.0
 71
     0
 42
0.2
  3

  4

  0
ENDTAB
  0
TABLE
  2
VIEW
  5
5
330
0
100
AcDbSymbolTable
 70
     0
  0
ENDTAB
  0
TABLE
  2
UCS
  5
6
330
0
100
AcDbSymbolTable
 70
     0
  0
ENDTAB
  0
TABLE
  2
APPID
  5
8
330
0
100
AcDbSymbolTable
 70
     2
  0
APPID
  5
16
330
8
100
AcDbSymbolTableRecord
100
AcDbRegAppTableRecord
  2
ACAD
 70
     0
  0
APPID
  5
3A8
330
8
100
AcDbSymbolTableRecord
100
AcDbRegAppTableRecord
  2
ACAD_EXEMPT_FROM_CAD_STANDARDS
 70
     0
  0
ENDTAB
  0
TABLE
  2
DIMSTYLE
  5
9
330
0
100
AcDbSymbolTable
 70
     1
100
AcDbDimStyleTable
 71
     1
340
18
  0
DIMSTYLE
105
18
330
9
100
AcDbSymbolTableRecord
100
AcDbDimStyleTableRecord
  2
MXDIMSTYLE
 70
     0
 41
2.5
 42
1.5
 43
3.75
 44
1.5
 73
     0
 74
     0
 77
     1
 78
     8
140
3.200000047683714
141
2.5
143
0.03937007874016
147
1.0
171
     4
172
     1
173
     1
271
     2
272
     2
274
     4
283
     0
288
     1
340
17
341
2A
343
2A
344
2A
  0
ENDTAB
  0
TABLE
  2
BLOCK_RECORD
  5
1
330
0
100
AcDbSymbolTable
 70
    13
  0
BLOCK_RECORD
  5
A
102
{ACAD_XDICTIONARY
360
3A5
102
}
330
1
100
AcDbSymbolTableRecord
100
AcDbBlockTableRecord
  2
*MODEL_SPACE
340
323
  0
BLOCK_RECORD
  5
B
330
1
100
AcDbSymbolTableRecord
100
AcDbBlockTableRecord
  2
*PAPER_SPACE
340
324
  0
BLOCK_RECORD
  5
1E
330
1
100
AcDbSymbolTableRecord
100
AcDbBlockTableRecord
  2
NHE1D-16-1
340
0
102
{BLKREFS
331
300
102
}
  0
BLOCK_RECORD
  5
1F
330
1
100
AcDbSymbolTableRecord
100
AcDbBlockTableRecord
  2
NHE1D-16-2
340
0
  0
BLOCK_RECORD
  5
20
330
1
100
AcDbSymbolTableRecord
100
AcDbBlockTableRecord
  2
NHE1D-16-3
340
0
102
{BLKREFS
331
2FE
102
}
  0
BLOCK_RECORD
  5
21
330
1
100
AcDbSymbolTableRecord
100
AcDbBlockTableRecord
  2
NHE1D-16-4
340
0
102
{BLKREFS
331
2FD
102
}
  0
BLOCK_RECORD
  5
22
330
1
100
AcDbSymbolTableRecord
100
AcDbBlockTableRecord
  2
NHE1D-16-5
340
0
  0
BLOCK_RECORD
  5
23
330
1
100
AcDbSymbolTableRecord
100
AcDbBlockTableRecord
  2
NHE1D-16-6
340
0
  0
BLOCK_RECORD
  5
24
330
1
100
AcDbSymbolTableRecord
100
AcDbBlockTableRecord
  2
NHE1D-16-7
340
0
  0
BLOCK_RECORD
  5
25
330
1
100
AcDbSymbolTableRecord
100
AcDbBlockTableRecord
  2
NHE1D-16-8
340
0
  0
BLOCK_RECORD
  5
26
330
1
100
AcDbSymbolTableRecord
100
AcDbBlockTableRecord
  2
NHE1D-16-9
340
0
  0
BLOCK_RECORD
  5
27
330
1
100
AcDbSymbolTableRecord
100
AcDbBlockTableRecord
  2
NHE1D-16-10
340
0
  0
BLOCK_RECORD
  5
28
330
1
100
AcDbSymbolTableRecord
100
AcDbBlockTableRecord
  2
NHE1D-16-11
340
0
  0
BLOCK_RECORD
  5
29
330
1
100
AcDbSymbolTableRecord
100
AcDbBlockTableRecord
  2
NHE1D-16-12
340
0
  0
BLOCK_RECORD
  5
2A
330
1
100
AcDbSymbolTableRecord
100
AcDbBlockTableRecord
  2
_OPEN30
340
0
  0
ENDTAB
  0
ENDSEC
  0
SECTION
  2
BLOCKS
  0
BLOCK
  5
D
330
A
100
AcDbEntity
  8
0
100
AcDbBlockBegin
  2
*MODEL_SPACE
 70
     0
 10
0.0
 20
0.0
 30
0.0
  3
*MODEL_SPACE
  1

  0
ENDBLK
  5
E
330
A
100
AcDbEntity
  8
0
100
AcDbBlockEnd
  0
BLOCK
  5
F
330
B
100
AcDbEntity
 67
     1
  8
0
100
AcDbBlockBegin
  2
*PAPER_SPACE
 70
     0
 10
0.0
 20
0.0
 30
0.0
  3
*PAPER_SPACE
  1

  0
ENDBLK
  5
10
330
B
100
AcDbEntity
 67
     1
  8
0
100
AcDbBlockEnd
  0
BLOCK
  5
30
330
1E
100
AcDbEntity
  8
0
100
AcDbBlockBegin
  2
NHE1D-16-1
 70
     0
 10
0.0
 20
0.0
 30
0.0
  3
NHE1D-16-1
  1

  0
ELLIPSE
  5
31
330
1E
100
AcDbEntity
  8
0
  6
Continuous
 62
     7
100
AcDbEllipse
 10
16.00001525878906
 20
-14.97406768798828
 30
0.0
 11
1.25
 21
-0.0000000000000003
 31
0.0
210
0.0
220
0.0
230
1.0
 40
0.854205322265625
 41
0.0
 42
6.283185307179584
  0
ELLIPSE
  5
32
330
1E
100
AcDbEntity
  8
0
  6
Continuous
 62
     7
100
AcDbEllipse
 10
16.00001525878906
 20
14.97406768798828
 30
0.0
 11
1.25
 21
-0.0000000000000003
 31
0.0
210
0.0
220
0.0
230
1.0
 40
0.854205322265625
 41
0.0
 42
6.283185307179584
  0
CIRCLE
  5
33
330
1E
100
AcDbEntity
  8
0
  6
Continuous
 62
     7
100
AcDbCircle
 10
3.500007629394531
 20
2.0
 30
0.0
 40
1.0
  0
CIRCLE
  5
34
330
1E
100
AcDbEntity
  8
0
  6
Continuous
 62
     7
100
AcDbCircle
 10
3.500007629394531
 20
-2.0
 30
0.0
 40
1.0
  0
ARC
  5
35
330
1E
100
AcDbEntity
  8
0
  6
Continuous
 62
     7
100
AcDbCircle
 10
3.500007629394531
 20
3.499984741210937
 30
0.0
 40
1.0
100
AcDbArc
 50
359.9999410327757
 51
179.999946041732
  0
ARC
  5
36
330
1E
100
AcDbEntity
  8
0
  6
Continuous
 62
     7
100
AcDbCircle
 10
3.500007629394531
 20
-3.5
 30
0.0
 40
1.0
100
AcDbArc
 50
179.9999770049543
 51
359.9999410327757
  0
CIRCLE
  5
37
330
1E
100
AcDbEntity
  8
0
  6
Continuous
 62
     2
100
AcDbCircle
 10
39.50001525878906
 20
0.0
 30
0.0
 40
2.5
  0
CIRCLE
  5
38
330
1E
100
AcDbEntity
  8
0
  6
Continuous
 62
     7
100
AcDbCircle
 10
39.50001525878906
 20
0.0
 30
0.0
 40
2.0
  0
CIRCLE
  5
39
330
1E
100
AcDbEntity
  8
0
  6
Continuous
 62
     7
100
AcDbCircle
 10
39.50001525878906
 20
0.0
 30
0.0
 40
4.25
  0
CIRCLE
  5
3A
330
1E
100
AcDbEntity
  8
0
  6
Continuous
 62
     7
100
AcDbCircle
 10
26.50001525878908
 20
0.0
 30
0.0
 40
2.0
  0
CIRCLE
  5
3B
330
1E
100
AcDbEntity
  8
0
  6
Continuous
 62
     2
100
AcDbCircle
 10
26.50001525878908
 20
0.0
 30
0.0
 40
2.5
  0
CIRCLE
  5
3C
330
1E
100
AcDbEntity
  8
0
  6
Continuous
 62
     7
100
AcDbCircle
 10
26.50001525878908
 20
0.0
 30
0.0
 40
4.25
  0
LINE
  5
3E
330
1E
100
AcDbEntity
  8
0
  6
CENTER
 62
     2
100
AcDbLine
 10
-3.746566772460937
 20
0.0
 30
0.0
 11
51.0
 21
0.0
 31
0.0
  0
LINE
  5
3F
330
1E
100
AcDbEntity
  8
0
  6
Continuous
 62
     7
100
AcDbLine
 10
48.0
 20
20.20000076293945
 30
0.0
 11
48.0
 21
-20.20000076293945
 31
0.0
  0
LINE
  5
40
330
1E
100
AcDbEntity
  8
0
  6
Continuous
 62
     7
100
AcDbLine
 10
14.00000381469726
 20
10.0
 30
0.0
 11
14.00000381469726
 21
-10.0
 31
0.0
  0
LINE
  5
41
330
1E
100
AcDbEntity
  8
0
  6
Continuous
 62
     7
100
AcDbLine
 10
6.000003814697264
 20
-10.0
 30
0.0
 11
20.00000381469726
 21
-10.0
 31
0.0
  0
LINE
  5
42
330
1E
100
AcDbEntity
  8
0
  6
Continuous
 62
     7
100
AcDbLine
 10
6.000003814697264
 20
10.0
 30
0.0
 11
20.00000381469726
 21
10.0
 31
0.0
  0
LINE
  5
43
330
1E
100
AcDbEntity
  8
0
  6
Continuous
 62
     7
100
AcDbLine
 10
6.000003814697264
 20
-8.5
 30
0.0
 11
6.000003814697264
 21
-23.89445495605469
 31
0.0
  0
LINE
  5
44
330
1E
100
AcDbEntity
  8
0
  6
Continuous
 62
     7
100
AcDbLine
 10
8.000003814697263
 20
8.499992370605466
 30
0.0
 11
1.5
 21
8.499992370605466
 31
0.0
  0
LINE
  5
45
330
1E
100
AcDbEntity
  8
0
  6
Continuous
 62
     7
100
AcDbLine
 10
8.000003814697263
 20
-8.5
 30
0.0
 11
1.5
 21
-8.5
 31
0.0
  0
LINE
  5
46
330
1E
100
AcDbEntity
  8
0
  6
Continuous
 62
     7
100
AcDbLine
 10
8.000003814697263
 20
8.499992370605466
 30
0.0
 11
8.000003814697263
 21
-8.5
 31
0.0
  0
LINE
  5
47
330
1E
100
AcDbEntity
  8
0
  6
Continuous
 62
     7
100
AcDbLine
 10
6.000003814697264
 20
8.499992370605466
 30
0.0
 11
6.000003814697264
 21
23.89446258544921
 31
0.0
  0
LINE
  5
48
330
1E
100
AcDbEntity
  8
0
  6
Continuous
 62
     7
100
AcDbLine
 10
13.00000798884775
 20
-23.89445495605469
 30
0.0
 11
6.000003814697264
 21
-23.89445495605469
 31
0.0
  0
LINE
  5
49
330
1E
100
AcDbEntity
  8
0
  6
Continuous
 62
     7
100
AcDbLine
 10
13.00000381469726
 20
23.89446258544921
 30
0.0
 11
6.000003814697264
 21
23.89446258544921
 31
0.0
  0
LINE
  5
4A
330
1E
100
AcDbEntity
  8
0
  6
Continuous
 62
     2
100
AcDbLine
 10
2.00000762939453
 20
2.0
 30
0.0
 11
5.000007629394531
 21
2.0
 31
0.0
  0
LINE
  5
4B
330
1E
100
AcDbEntity
  8
0
  6
Continuous
 62
     2
100
AcDbLine
 10
1.973320007324218
 20
-2.0
 30
0.0
 11
5.000007629394531
 21
-2.0
 31
0.0
  0
LINE
  5
4C
330
1E
100
AcDbEntity
  8
0
  6
Continuous
 62
     7
100
AcDbLine
 10
4.500015258789063
 20
-3.5
 30
0.0
 11
6.000015258789062
 21
-3.5
 31
0.0
  0
LINE
  5
4D
330
1E
100
AcDbEntity
  8
0
  6
Continuous
 62
     7
100
AcDbLine
 10
4.500015258789063
 20
3.499984741210937
 30
0.0
 11
6.000015258789062
 21
3.499984741210937
 31
0.0
  0
LINE
  5
4E
330
1E
100
AcDbEntity
  8
0
  6
Continuous
 62
     2
100
AcDbLine
 10
3.5
 20
-3.499999999970896
 30
0.0
 11
3.5
 21
3.499999999970896
 31
0.0
  0
LINE
  5
4F
330
1E
100
AcDbEntity
  8
0
  6
Continuous
 62
     7
100
AcDbLine
 10
1.0
 20
-3.5
 30
0.0
 11
1.0
 21
3.499984741210937
 31
0.0
  0
LINE
  5
50
330
1E
100
AcDbEntity
  8
0
  6
Continuous
 62
     7
100
AcDbLine
 10
6.000003814697264
 20
-3.5
 30
0.0
 11
6.000003814697264
 21
3.499984741210937
 31
0.0
  0
LINE
  5
51
330
1E
100
AcDbEntity
  8
0
  6
Continuous
 62
     7
100
AcDbLine
 10
0.0000152587890625
 20
3.499984741210937
 30
0.0
 11
2.500015258789062
 21
3.499984741210937
 31
0.0
  0
LINE
  5
52
330
1E
100
AcDbEntity
  8
0
  6
Continuous
 62
     7
100
AcDbLine
 10
0.0
 20
-3.5
 30
0.0
 11
2.50000762939453
 21
-3.5
 31
0.0
  0
LINE
  5
53
330
1E
100
AcDbEntity
  8
0
  6
Continuous
 62
     7
100
AcDbLine
 10
0.0
 20
-18.55088806152344
 30
0.0
 11
0.0
 21
-3.705947875976562
 31
0.0
  0
LINE
  5
54
330
1E
100
AcDbEntity
  8
0
  6
Continuous
 62
     7
100
AcDbLine
 10
1.5
 20
3.499984741210937
 30
0.0
 11
1.5
 21
23.64895629882813
 31
0.0
  0
LINE
  5
55
330
1E
100
AcDbEntity
  8
0
  6
Continuous
 62
     7
100
AcDbLine
 10
6.000003814697264
 20
-23.64896011352539
 30
0.0
 11
1.5
 21
-23.64896011352539
 31
0.0
  0
LINE
  5
56
330
1E
100
AcDbEntity
  8
0
  6
Continuous
 62
     7
100
AcDbLine
 10
6.000003814697264
 20
23.64895629882813
 30
0.0
 11
1.5
 21
23.64895629882813
 31
0.0
  0
LINE
  5
57
330
1E
100
AcDbEntity
  8
0
  6
Continuous
 62
     7
100
AcDbLine
 10
1.5
 20
-23.64896011352539
 30
0.0
 11
1.5
 21
-3.5
 31
0.0
  0
LINE
  5
58
330
1E
100
AcDbEntity
  8
0
  6
Continuous
 62
     7
100
AcDbLine
 10
2.0
 20
8.499992370605466
 30
0.0
 11
2.0
 21
12.3922988055001
 31
0.0
  0
LINE
  5
59
330
1E
100
AcDbEntity
  8
0
  6
Continuous
 62
     7
100
AcDbLine
 10
4.500003814697264
 20
8.499992370605466
 30
0.0
 11
4.500003814697264
 21
12.64230346679687
 31
0.0
  0
LINE
  5
5A
330
1E
100
AcDbEntity
  8
0
  6
Continuous
 62
     7
100
AcDbLine
 10
6.000003814697264
 20
12.64230346679687
 30
0.0
 11
2.250004661296769
 21
12.64230346679687
 31
0.0
  0
LINE
  5
5B
330
1E
100
AcDbEntity
  8
0
  6
Continuous
 62
     7
100
AcDbLine
 10
2.0
 20
12.3922988055001
 30
0.0
 11
2.250004661296769
 21
12.64230346679687
 31
0.0
  0
LINE
  5
5C
330
1E
100
AcDbEntity
  8
0
  6
Continuous
 62
     7
100
AcDbLine
 10
4.500003814697264
 20
-8.5
 30
0.0
 11
4.500003814697264
 21
-12.64230346679687
 31
0.0
  0
LINE
  5
5D
330
1E
100
AcDbEntity
  8
0
  6
Continuous
 62
     7
100
AcDbLine
 10
6.000003814697264
 20
-12.64230346679687
 30
0.0
 11
2.24999965229199
 21
-12.64230346679687
 31
0.0
  0
LINE
  5
5E
330
1E
100
AcDbEntity
  8
0
  6
Continuous
 62
     7
100
AcDbLine
 10
2.0
 20
-8.5
 30
0.0
 11
2.0
 21
-12.39230381450488
 31
0.0
  0
LINE
  5
5F
330
1E
100
AcDbEntity
  8
0
  6
Continuous
 62
     7
100
AcDbLine
 10
2.0
 20
-12.39230381450488
 30
0.0
 11
2.24999965229199
 21
-12.64230346679687
 31
0.0
  0
LINE
  5
60
330
1E
100
AcDbEntity
  8
0
  6
Continuous
 62
     7
100
AcDbLine
 10
1.5
 20
-18.55088806152344
 30
0.0
 11
0.0
 21
-18.55088806152344
 31
0.0
  0
LINE
  5
61
330
1E
100
AcDbEntity
  8
0
  6
Continuous
 62
     7
100
AcDbLine
 10
1.5
 20
-19.24369812011718
 30
0.0
 11
1.0
 21
-19.24369812011718
 31
0.0
  0
LINE
  5
62
330
1E
100
AcDbEntity
  8
0
  6
Continuous
 62
     7
100
AcDbLine
 10
0.0
 20
-3.5
 30
0.0
 11
0.0
 21
3.499984741210937
 31
0.0
  0
LINE
  5
63
330
1E
100
AcDbEntity
  8
0
  6
Continuous
 62
     7
100
AcDbLine
 10
1.0
 20
-18.55088806152344
 30
0.0
 11
1.0
 21
-19.24369812011718
 31
0.0
  0
LINE
  5
64
330
1E
100
AcDbEntity
  8
0
  6
Continuous
 62
     7
100
AcDbLine
 10
1.0
 20
18.55088806152344
 30
0.0
 11
1.0
 21
19.24369812011718
 31
0.0
  0
LINE
  5
65
330
1E
100
AcDbEntity
  8
0
  6
Continuous
 62
     7
100
AcDbLine
 10
0.0
 20
18.55088806152344
 30
0.0
 11
0.0
 21
3.705947875976562
 31
0.0
  0
LINE
  5
66
330
1E
100
AcDbEntity
  8
0
  6
Continuous
 62
     7
100
AcDbLine
 10
1.0
 20
3.499984741210937
 30
0.0
 11
1.0
 21
7.205947875976561
 31
0.0
  0
LINE
  5
67
330
1E
100
AcDbEntity
  8
0
  6
Continuous
 62
     7
100
AcDbLine
 10
1.5
 20
19.24369812011718
 30
0.0
 11
1.0
 21
19.24369812011718
 31
0.0
  0
LINE
  5
68
330
1E
100
AcDbEntity
  8
0
  6
Continuous
 62
     7
100
AcDbLine
 10
1.5
 20
6.513137817382812
 30
0.0
 11
1.0
 21
6.513137817382812
 31
0.0
  0
LINE
  5
69
330
1E
100
AcDbEntity
  8
0
  6
Continuous
 62
     7
100
AcDbLine
 10
1.5
 20
18.55088806152344
 30
0.0
 11
0.0
 21
18.55088806152344
 31
0.0
  0
LINE
  5
6A
330
1E
100
AcDbEntity
  8
0
  6
Continuous
 62
     7
100
AcDbLine
 10
1.5
 20
7.205947875976561
 30
0.0
 11
0.0
 21
7.205947875976561
 31
0.0
  0
LINE
  5
6B
330
1E
100
AcDbEntity
  8
0
  6
Continuous
 62
     7
100
AcDbLine
 10
14.00000381469726
 20
-20.5
 30
0.0
 11
14.00000381469726
 21
-22.89445913020518
 31
0.0
  0
LINE
  5
6C
330
1E
100
AcDbEntity
  8
0
  6
Continuous
 62
     7
100
AcDbLine
 10
14.00000140208749
 20
22.89445653381017
 30
0.0
 11
13.00000034049799
 21
23.89445759539967
 31
0.0
  0
LINE
  5
6D
330
1E
100
AcDbEntity
  8
0
  6
Continuous
 62
     7
100
AcDbLine
 10
14.00000381469726
 20
-22.89445913020518
 30
0.0
 11
13.00000798884775
 21
-23.89445495605469
 31
0.0
  0
LINE
  5
6E
330
1E
100
AcDbEntity
  8
0
  6
Continuous
 62
     7
100
AcDbLine
 10
13.00000381469726
 20
10.0
 30
0.0
 11
13.00000381469726
 21
-10.0
 31
0.0
  0
LINE
  5
6F
330
1E
100
AcDbEntity
  8
0
  6
Continuous
 62
     7
100
AcDbLine
 10
-2.0
 20
-1.199996948242187
 30
0.0
 11
-2.0
 21
1.199996948242187
 31
0.0
  0
LINE
  5
70
330
1E
100
AcDbEntity
  8
0
  6
Continuous
 62
     7
100
AcDbLine
 10
-1.699996948242186
 20
-1.5
 30
0.0
 11
0.0
 21
-1.5
 31
0.0
  0
LINE
  5
71
330
1E
100
AcDbEntity
  8
0
  6
Continuous
 62
     7
100
AcDbLine
 10
-1.699996948242186
 20
1.5
 30
0.0
 11
0.0
 21
1.5
 31
0.0
  0
LINE
  5
72
330
1E
100
AcDbEntity
  8
0
  6
Continuous
 62
     7
100
AcDbLine
 10
-1.699996948242186
 20
1.5
 30
0.0
 11
-2.0
 21
1.199996948242187
 31
0.0
  0
LINE
  5
73
330
1E
100
AcDbEntity
  8
0
  6
Continuous
 62
     7
100
AcDbLine
 10
-1.699996948242186
 20
-1.5
 30
0.0
 11
-2.0
 21
-1.199996948242187
 31
0.0
  0
LINE
  5
74
330
1E
100
AcDbEntity
  8
0
  6
Continuous
 62
     7
100
AcDbLine
 10
-1.699996948242186
 20
1.5
 30
0.0
 11
-1.699996948242186
 21
-1.5
 31
0.0
  0
LINE
  5
75
330
1E
100
AcDbEntity
  8
0
  6
Continuous
 62
     2
100
AcDbLine
 10
-3.746566772460937
 20
8.660255432128906
 30
0.0
 11
1.5
 21
8.660255432128906
 31
0.0
  0
LINE
  5
76
330
1E
100
AcDbEntity
  8
0
  6
Continuous
 62
     7
100
AcDbLine
 10
-1.699996948242186
 20
7.160255432128905
 30
0.0
 11
0.0
 21
7.160255432128905
 31
0.0
  0
LINE
  5
77
330
1E
100
AcDbEntity
  8
0
  6
Continuous
 62
     7
100
AcDbLine
 10
-2.0
 20
7.460258483886718
 30
0.0
 11
-2.0
 21
9.860252380371091
 31
0.0
  0
LINE
  5
78
330
1E
100
AcDbEntity
  8
0
  6
Continuous
 62
     7
100
AcDbLine
 10
-1.699996948242186
 20
10.1602554321289
 30
0.0
 11
0.0
 21
10.1602554321289
 31
0.0
  0
LINE
  5
79
330
1E
100
AcDbEntity
  8
0
  6
Continuous
 62
     7
100
AcDbLine
 10
-1.699996948242186
 20
10.1602554321289
 30
0.0
 11
-1.699996948242186
 21
7.160255432128905
 31
0.0
  0
LINE
  5
7A
330
1E
100
AcDbEntity
  8
0
  6
Continuous
 62
     7
100
AcDbLine
 10
-1.699996948242186
 20
10.1602554321289
 30
0.0
 11
-2.0
 21
9.860252380371091
 31
0.0
  0
LINE
  5
7B
330
1E
100
AcDbEntity
  8
0
  6
Continuous
 62
     7
100
AcDbLine
 10
-1.699996948242186
 20
7.160255432128905
 30
0.0
 11
-2.0
 21
7.460258483886718
 31
0.0
  0
LINE
  5
7C
330
1E
100
AcDbEntity
  8
0
  6
Continuous
 62
     7
100
AcDbLine
 10
1.5
 20
3.705947875976562
 30
0.0
 11
0.0
 21
3.705947875976562
 31
0.0
  0
LINE
  5
7D
330
1E
100
AcDbEntity
  8
0
  6
Continuous
 62
     7
100
AcDbLine
 10
1.0
 20
-3.499984741210937
 30
0.0
 11
1.0
 21
-7.205947875976561
 31
0.0
  0
LINE
  5
7E
330
1E
100
AcDbEntity
  8
0
  6
Continuous
 62
     7
100
AcDbLine
 10
1.5
 20
-7.205947875976561
 30
0.0
 11
0.0
 21
-7.205947875976561
 31
0.0
  0
LINE
  5
7F
330
1E
100
AcDbEntity
  8
0
  6
Continuous
 62
     7
100
AcDbLine
 10
1.5
 20
-6.513137817382812
 30
0.0
 11
1.0
 21
-6.513137817382812
 31
0.0
  0
LINE
  5
80
330
1E
100
AcDbEntity
  8
0
  6
Continuous
 62
     7
100
AcDbLine
 10
1.5
 20
-3.705947875976562
 30
0.0
 11
0.0
 21
-3.705947875976562
 31
0.0
  0
LINE
  5
81
330
1E
100
AcDbEntity
  8
0
  6
Continuous
 62
     7
100
AcDbLine
 10
-1.699996948242186
 20
-7.160251617431639
 30
0.0
 11
-2.0
 21
-7.460254669189452
 31
0.0
  0
LINE
  5
82
330
1E
100
AcDbEntity
  8
0
  6
Continuous
 62
     7
100
AcDbLine
 10
-1.699996948242186
 20
-7.160251617431639
 30
0.0
 11
0.0
 21
-7.160251617431639
 31
0.0
  0
LINE
  5
83
330
1E
100
AcDbEntity
  8
0
  6
Continuous
 62
     2
100
AcDbLine
 10
-3.746566772460937
 20
-8.660251617431638
 30
0.0
 11
1.5
 21
-8.660251617431638
 31
0.0
  0
LINE
  5
84
330
1E
100
AcDbEntity
  8
0
  6
Continuous
 62
     7
100
AcDbLine
 10
-1.699996948242186
 20
-10.16025161743164
 30
0.0
 11
0.0
 21
-10.16025161743164
 31
0.0
  0
LINE
  5
85
330
1E
100
AcDbEntity
  8
0
  6
Continuous
 62
     7
100
AcDbLine
 10
-1.699996948242186
 20
-10.16025161743164
 30
0.0
 11
-2.0
 21
-9.860248565673826
 31
0.0
  0
LINE
  5
86
330
1E
100
AcDbEntity
  8
0
  6
Continuous
 62
     7
100
AcDbLine
 10
-1.699996948242186
 20
-10.16025161743164
 30
0.0
 11
-1.699996948242186
 21
-7.160251617431639
 31
0.0
  0
LINE
  5
87
330
1E
100
AcDbEntity
  8
0
  6
Continuous
 62
     7
100
AcDbLine
 10
-2.0
 20
-7.460254669189452
 30
0.0
 11
-2.0
 21
-9.860248565673826
 31
0.0
  0
LINE
  5
88
330
1E
100
AcDbEntity
  8
0
  6
Continuous
 62
     7
100
AcDbLine
 10
20.00000381469726
 20
-10.0
 30
0.0
 11
20.00000381469726
 21
-20.5
 31
0.0
  0
LINE
  5
89
330
1E
100
AcDbEntity
  8
0
  6
Continuous
 62
     2
100
AcDbLine
 10
16.00001525878906
 20
-11.90631103515625
 30
0.0
 11
16.00001525878906
 21
-18.04182434082031
 31
0.0
  0
LINE
  5
8A
330
1E
100
AcDbEntity
  8
0
  6
Continuous
 62
     2
100
AcDbLine
 10
19.25001525878906
 20
-14.97406768798828
 30
0.0
 11
12.75001525878906
 21
-14.97406768798828
 31
0.0
  0
LINE
  5
8B
330
1E
100
AcDbEntity
  8
0
  6
Continuous
 62
     2
100
AcDbLine
 10
16.00001525878906
 20
11.90631103515625
 30
0.0
 11
16.00001525878906
 21
18.04182434082031
 31
0.0
  0
LINE
  5
8C
330
1E
100
AcDbEntity
  8
0
  6
Continuous
 62
     2
100
AcDbLine
 10
19.25001525878906
 20
14.97406768798828
 30
0.0
 11
12.75001525878906
 21
14.97406768798828
 31
0.0
  0
LINE
  5
8D
330
1E
100
AcDbEntity
  8
0
  6
Continuous
 62
     7
100
AcDbLine
 10
20.00000381469726
 20
10.0
 30
0.0
 11
20.00000381469726
 21
20.5
 31
0.0
  0
LINE
  5
8E
330
1E
100
AcDbEntity
  8
0
  6
Continuous
 62
     7
100
AcDbLine
 10
14.00000381469726
 20
20.5
 30
0.0
 11
14.00000381469726
 21
22.89445495605469
 31
0.0
  0
LINE
  5
8F
330
1E
100
AcDbEntity
  8
0
  6
Continuous
 62
     2
100
AcDbLine
 10
39.50001525878906
 20
6.25
 30
0.0
 11
39.50001525878906
 21
-6.25
 31
0.0
  0
LINE
  5
90
330
1E
100
AcDbEntity
  8
0
  6
Continuous
 62
     2
100
AcDbLine
 10
26.50001525878908
 20
6.25
 30
0.0
 11
26.50001525878908
 21
-6.25
 31
0.0
  0
LINE
  5
91
330
1E
100
AcDbEntity
  8
0
  6
Continuous
 62
     7
100
AcDbLine
 10
21.50001525878908
 20
9.247642517089843
 30
0.0
 11
14.00000381469726
 21
9.247642517089843
 31
0.0
  0
LINE
  5
92
330
1E
100
AcDbEntity
  8
0
  6
Continuous
 62
     7
100
AcDbLine
 10
21.50001525878908
 20
3.579277038574218
 30
0.0
 11
14.00000381469726
 21
3.579277038574218
 31
0.0
  0
LINE
  5
93
330
1E
100
AcDbEntity
  8
0
  6
Continuous
 62
     7
100
AcDbLine
 10
21.50001525878908
 20
-3.579277038574218
 30
0.0
 11
14.00000381469726
 21
-3.579277038574218
 31
0.0
  0
LINE
  5
94
330
1E
100
AcDbEntity
  8
0
  6
Continuous
 62
     7
100
AcDbLine
 10
21.50001525878908
 20
-9.247642517089843
 30
0.0
 11
14.00000381469726
 21
-9.247642517089843
 31
0.0
  0
LINE
  5
95
330
1E
100
AcDbEntity
  8
0
  6
Continuous
 62
     7
100
AcDbLine
 10
14.00000381469726
 20
-20.5
 30
0.0
 11
47.70000076293945
 21
-20.5
 31
0.0
  0
LINE
  5
96
330
1E
100
AcDbEntity
  8
0
  6
Continuous
 62
     7
100
AcDbLine
 10
14.00000381469726
 20
20.5
 30
0.0
 11
47.70000076293945
 21
20.5
 31
0.0
  0
LINE
  5
97
330
1E
100
AcDbEntity
  8
0
  6
Continuous
 62
     7
100
AcDbLine
 10
48.0
 20
20.20000076293945
 30
0.0
 11
47.70000076293945
 21
20.5
 31
0.0
  0
LINE
  5
98
330
1E
100
AcDbEntity
  8
0
  6
Continuous
 62
     7
100
AcDbLine
 10
48.000000002457
 20
-20.20000076048245
 30
0.0
 11
47.70000076293945
 21
-20.5
 31
0.0
  0
LINE
  5
99
330
1E
100
AcDbEntity
  8
0
  6
Continuous
 62
     7
100
AcDbLine
 10
47.70000076293945
 20
20.5
 30
0.0
 11
47.70000076293945
 21
12.16555786132812
 31
0.0
  0
LINE
  5
9A
330
1E
100
AcDbEntity
  8
0
  6
Continuous
 62
     7
100
AcDbLine
 10
47.70000076293945
 20
-12.16555786132812
 30
0.0
 11
47.70000076293945
 21
-20.5
 31
0.0
  0
LINE
  5
9B
330
1E
100
AcDbEntity
  8
0
  6
Continuous
 62
     7
100
AcDbLine
 10
21.50001525878908
 20
12.16555786132812
 30
0.0
 11
21.50001525878908
 21
-12.16555786132812
 31
0.0
  0
LINE
  5
9C
330
1E
100
AcDbEntity
  8
0
  6
Continuous
 62
     7
100
AcDbLine
 10
48.0
 20
12.16555786132812
 30
0.0
 11
21.50001525878908
 21
12.16555786132812
 31
0.0
  0
LINE
  5
9D
330
1E
100
AcDbEntity
  8
0
  6
Continuous
 62
     7
100
AcDbLine
 10
48.0
 20
-12.16555786132812
 30
0.0
 11
21.50001525878908
 21
-12.16555786132812
 31
0.0
  0
ENDBLK
  5
9E
330
1E
100
AcDbEntity
  8
0
100
AcDbBlockEnd
  0
BLOCK
  5
9F
330
1F
100
AcDbEntity
  8
0
100
AcDbBlockBegin
  2
NHE1D-16-2
 70
     0
 10
0.0
 20
0.0
 30
0.0
  3
NHE1D-16-2
  1

  0
CIRCLE
  5
A0
330
1F
100
AcDbEntity
  8
0
  6
Continuous
 62
     7
100
AcDbCircle
 10
0.0
 20
0.0
 30
0.0
 40
3.0
  0
CIRCLE
  5
A1
330
1F
100
AcDbEntity
  8
0
  6
Continuous
 62
     7
100
AcDbCircle
 10
10.0
 20
0.0
 30
0.0
 40
1.5
  0
CIRCLE
  5
A2
330
1F
100
AcDbEntity
  8
0
  6
Continuous
 62
     7
100
AcDbCircle
 10
15.0
 20
0.0
 30
0.0
 40
1.200000047683715
  0
ARC
  5
A3
330
1F
100
AcDbEntity
  8
0
  6
Continuous
 62
     7
100
AcDbCircle
 10
-16.53662490844726
 20
2.642265319824218
 30
0.0
 40
3.0
100
AcDbArc
 50
329.7821664464529
 51
30.00000333930424
  0
ARC
  5
A4
330
1F
100
AcDbEntity
  8
0
  6
Continuous
 62
     7
100
AcDbCircle
 10
-7.638782501220702
 20
-4.25
 30
0.0
 40
2.0
100
AcDbArc
 50
59.99999734394111
 51
90.00000500895634
  0
ARC
  5
A5
330
1F
100
AcDbEntity
  8
0
  6
Continuous
 62
     7
100
AcDbCircle
 10
5.98004150390625
 20
-15.64226531982422
 30
0.0
 40
3.0
100
AcDbArc
 50
89.78216295556793
 51
150.0000066786085
  0
CIRCLE
  5
A6
330
1F
100
AcDbEntity
  8
0
  6
Continuous
 62
     2
100
AcDbCircle
 10
15.0
 20
0.0
 30
0.0
 40
1.5
  0
CIRCLE
  5
A7
330
1F
100
AcDbEntity
  8
0
  6
Continuous
 62
     7
100
AcDbCircle
 10
-11.99998092651367
 20
-0.0000076293945313
 30
0.0
 40
2.25
  0
CIRCLE
  5
A8
330
1F
100
AcDbEntity
  8
0
  6
Continuous
 62
     7
100
AcDbCircle
 10
5.999999495886825
 20
-10.3923037824068
 30
0.0
 40
2.25
  0
ARC
  5
A9
330
1F
100
AcDbEntity
  8
0
  6
Continuous
 62
     7
100
AcDbCircle
 10
-16.53662490844726
 20
-2.642265319824218
 30
0.0
 40
3.0
100
AcDbArc
 50
330.0000016696521
 51
30.21783173231427
  0
ARC
  5
AA
330
1F
100
AcDbEntity
  8
0
  6
Continuous
 62
     7
100
AcDbCircle
 10
10.55657958984375
 20
-13.0
 30
0.0
 40
3.0
100
AcDbArc
 50
89.99999134857798
 51
150.2178350716184
  0
ARC
  5
AB
330
1F
100
AcDbEntity
  8
0
  6
Continuous
 62
     7
100
AcDbCircle
 10
10.55657958984375
 20
13.0
 30
0.0
 40
3.0
100
AcDbArc
 50
209.7821631071487
 51
270.0000000000001
  0
ARC
  5
AC
330
1F
100
AcDbEntity
  8
0
  6
Continuous
 62
     7
100
AcDbCircle
 10
5.98004150390625
 20
15.64226531982422
 30
0.0
 40
3.0
100
AcDbArc
 50
209.9999983303479
 51
270.2178337024149
  0
CIRCLE
  5
AD
330
1F
100
AcDbEntity
  8
0
  6
Continuous
 62
     7
100
AcDbCircle
 10
6.000002603220097
 20
10.39230934637895
 30
0.0
 40
2.25
  0
ARC
  5
AE
330
1F
100
AcDbEntity
  8
0
  6
Continuous
 62
     7
100
AcDbCircle
 10
0.1387825012207031
 20
8.740379333496091
 30
0.0
 40
2.0
100
AcDbArc
 50
300.000000834826
 51
330.0000016696521
  0
ARC
  5
AF
330
1F
100
AcDbEntity
  8
0
  6
Continuous
 62
     7
100
AcDbCircle
 10
0.1387825012207031
 20
-8.740379333496091
 30
0.0
 40
2.0
100
AcDbArc
 50
30.00000333930424
 51
59.99999734394111
  0
ARC
  5
B0
330
1F
100
AcDbEntity
  8
0
  6
Continuous
 62
     7
100
AcDbCircle
 10
7.5
 20
4.490379333496092
 30
0.0
 40
2.0
100
AcDbArc
 50
149.9999966606958
 51
179.9999974955218
  0
ARC
  5
B1
330
1F
100
AcDbEntity
  8
0
  6
Continuous
 62
     7
100
AcDbCircle
 10
7.5
 20
-4.490379333496092
 30
0.0
 40
2.0
100
AcDbArc
 50
179.9999974955218
 51
209.9999983303479
  0
ARC
  5
B2
330
1F
100
AcDbEntity
  8
0
  6
Continuous
 62
     7
100
AcDbCircle
 10
-7.638782501220702
 20
4.25
 30
0.0
 40
2.0
100
AcDbArc
 50
270.0
 51
300.000000834826
  0
CIRCLE
  5
B3
330
1F
100
AcDbEntity
  8
0
  6
Continuous
 62
     7
100
AcDbCircle
 10
-4.999999575251422
 20
8.660253026698239
 30
0.0
 40
1.5
  0
CIRCLE
  5
B4
330
1F
100
AcDbEntity
  8
0
  6
Continuous
 62
     7
100
AcDbCircle
 10
-7.499999575251423
 20
12.99037996790231
 30
0.0
 40
1.200000047683715
  0
CIRCLE
  5
B5
330
1F
100
AcDbEntity
  8
0
  6
Continuous
 62
     2
100
AcDbCircle
 10
-7.499999575251423
 20
12.99037996790231
 30
0.0
 40
1.5
  0
CIRCLE
  5
B6
330
1F
100
AcDbEntity
  8
0
  6
Continuous
 62
     7
100
AcDbCircle
 10
-7.500001110587945
 20
-12.99038262718311
 30
0.0
 40
1.200000047683715
  0
CIRCLE
  5
B7
330
1F
100
AcDbEntity
  8
0
  6
Continuous
 62
     2
100
AcDbCircle
 10
-7.500001110587945
 20
-12.99038262718311
 30
0.0
 40
1.5
  0
CIRCLE
  5
B8
330
1F
100
AcDbEntity
  8
0
  6
Continuous
 62
     7
100
AcDbCircle
 10
-5.000000156913627
 20
-8.660254034166705
 30
0.0
 40
1.5
  0
ARC
  5
B9
330
1F
100
AcDbEntity
  8
0
  6
Continuous
 62
     7
100
AcDbCircle
 10
5.999999495886825
 20
-10.3923037824068
 30
0.0
 40
2.5
100
AcDbArc
 50
55.84192844139909
 51
184.1580693326046
  0
CIRCLE
  5
BA
330
1F
100
AcDbEntity
  8
0
  6
Continuous
 62
     7
100
AcDbCircle
 10
-17.49998092651367
 20
0.0
 30
0.0
 40
1.5
  0
CIRCLE
  5
BB
330
1F
100
AcDbEntity
  8
0
  6
Continuous
 62
     7
100
AcDbCircle
 10
8.749991295678128
 20
-15.1554293379106
 30
0.0
 40
1.5
  0
LINE
  5
BC
330
1F
100
AcDbEntity
  8
0
  6
Continuous
 62
     7
100
AcDbLine
 10
-6.040885478967552
 20
2.863144883130205
 30
0.0
 11
-14.49088242720974
 21
17.49896865860047
 31
0.0
  0
LINE
  5
BD
330
1F
100
AcDbEntity
  8
0
  6
Continuous
 62
     7
100
AcDbLine
 10
3.381965117707395
 20
-14.14226562266562
 30
0.0
 11
-2.24845957100625
 21
-23.89444707667341
 31
0.0
  0
LINE
  5
BE
330
1F
100
AcDbEntity
  8
0
  6
Continuous
 62
     7
100
AcDbLine
 10
22.39999389648437
 20
-7.999991373592767
 30
0.0
 11
22.39999389648437
 21
8.000001244810967
 31
0.0
  0
LINE
  5
BF
330
1F
100
AcDbEntity
  8
0
  6
Continuous
 62
     7
100
AcDbLine
 10
5.5
 20
3.79998779296875
 30
0.0
 11
22.39999389648437
 21
3.79998779296875
 31
0.0
  0
LINE
  5
C0
330
1F
100
AcDbEntity
  8
0
  6
Continuous
 62
     7
100
AcDbLine
 10
5.5
 20
-3.5
 30
0.0
 11
20.19998168945313
 21
-3.5
 31
0.0
  0
LINE
  5
C1
330
1F
100
AcDbEntity
  8
0
  6
Continuous
 62
     7
100
AcDbLine
 10
5.5
 20
3.5
 30
0.0
 11
20.19998168945313
 21
3.5
 31
0.0
  0
LINE
  5
C2
330
1F
100
AcDbEntity
  8
0
  6
Continuous
 62
     7
100
AcDbLine
 10
-13.93854325258144
 20
4.142265082079575
 30
0.0
 11
-19.5689844844344
 21
13.89447518964465
 31
0.0
  0
LINE
  5
C3
330
1F
100
AcDbEntity
  8
0
  6
Continuous
 62
     2
100
AcDbLine
 10
15.0
 20
-2.082504272460937
 30
0.0
 11
15.0
 21
2.029998779296875
 31
0.0
  0
LINE
  5
C4
330
1F
100
AcDbEntity
  8
0
  6
Continuous
 62
     7
100
AcDbLine
 10
3.608440624389628
 20
10.74999894428297
 30
0.0
 11
-3.860989017666198
 21
23.68743035568065
 31
0.0
  0
LINE
  5
C5
330
1F
100
AcDbEntity
  8
0
  6
Continuous
 62
     7
100
AcDbLine
 10
-4.271793973297776
 20
23.39896223423359
 30
0.0
 11
-3.588779080525042
 21
23.21594892268929
 31
0.0
  0
LINE
  5
C6
330
1F
100
AcDbEntity
  8
0
  6
Continuous
 62
     7
100
AcDbLine
 10
5.5
 20
-4.490379333496092
 30
0.0
 11
5.5
 21
4.490379333496092
 31
0.0
  0
LINE
  5
C7
330
1F
100
AcDbEntity
  8
0
  6
CENTER
 62
     2
100
AcDbLine
 10
-20.49998097846807
 20
0.0
 30
0.0
 11
28.5675048828125
 21
0.0
 31
0.0
  0
LINE
  5
C8
330
1F
100
AcDbEntity
  8
0
  6
Continuous
 62
     7
100
AcDbLine
 10
0.5409011947757421
 20
6.663141259167806
 30
0.0
 11
-7.909095753466442
 21
21.29896503463807
 31
0.0
  0
LINE
  5
C9
330
1F
100
AcDbEntity
  8
0
  6
Continuous
 62
     7
100
AcDbLine
 10
-6.040897308748284
 20
-2.863138295286029
 30
0.0
 11
-14.49089568750196
 21
-17.49896454847482
 31
0.0
  0
LINE
  5
CA
330
1F
100
AcDbEntity
  8
0
  6
Continuous
 62
     7
100
AcDbLine
 10
3.608436763677643
 20
-10.74999190504703
 30
0.0
 11
-3.860981797535472
 21
-23.68740412386252
 31
0.0
  0
LINE
  5
CB
330
1F
100
AcDbEntity
  8
0
  6
Continuous
 62
     7
100
AcDbLine
 10
20.19998168945313
 20
-3.5
 30
0.0
 11
20.19998168945313
 21
3.5
 31
0.0
  0
LINE
  5
CC
330
1F
100
AcDbEntity
  8
0
  6
Continuous
 62
     7
100
AcDbLine
 10
6.29998779296875
 20
-3.5
 30
0.0
 11
6.29998779296875
 21
3.5
 31
0.0
  0
LINE
  5
CD
330
1F
100
AcDbEntity
  8
0
  6
Continuous
 62
     7
100
AcDbLine
 10
-18.31120470831566
 20
14.71595192979691
 30
0.0
 11
-18.12819124283048
 21
15.39896739708473
 31
0.0
  0
LINE
  5
CE
330
1F
100
AcDbEntity
  8
0
  6
Continuous
 62
     7
100
AcDbLine
 10
-6.638783732703272
 20
2.517948159192215
 30
0.0
 11
1.138786234012711
 21
7.008330353711258
 31
0.0
  0
LINE
  5
CF
330
1F
100
AcDbEntity
  8
0
  6
Continuous
 62
     7
100
AcDbLine
 10
4.051443301206744
 20
-11.51730551459968
 30
0.0
 11
1.870836459165728
 21
-7.74038374064139
 31
0.0
  0
LINE
  5
D0
330
1F
100
AcDbEntity
  8
0
  6
Continuous
 62
     7
100
AcDbLine
 10
-11.11399070037363
 20
-2.250000000000002
 30
0.0
 11
-18.58341848563667
 21
-15.18742819533827
 31
0.0
  0
LINE
  5
D1
330
1F
100
AcDbEntity
  8
0
  6
Continuous
 62
     7
100
AcDbLine
 10
-18.1281914578913
 20
-15.39897081862707
 30
0.0
 11
-18.31120761560071
 21
-14.71594514652576
 31
0.0
  0
LINE
  5
D2
330
1F
100
AcDbEntity
  8
0
  6
Continuous
 62
     7
100
AcDbLine
 10
-3.588789496728607
 20
-23.21595323789766
 30
0.0
 11
-4.271796414633128
 21
-23.39896437043571
 31
0.0
  0
LINE
  5
D3
330
1F
100
AcDbEntity
  8
0
  6
CENTER
 62
     2
100
AcDbLine
 10
10.24998303082278
 20
-17.75349118748392
 30
0.0
 11
-14.28375201665767
 21
24.74018365149915
 31
0.0
  0
LINE
  5
D4
330
1F
100
AcDbEntity
  8
0
  6
Continuous
 62
     7
100
AcDbLine
 10
21.90000281283596
 20
8.499992370605466
 30
0.0
 11
22.39999389648437
 21
8.000001244810967
 31
0.0
  0
LINE
  5
D5
330
1F
100
AcDbEntity
  8
0
  6
CENTER
 62
     2
100
AcDbLine
 10
10.2500000860052
 20
17.75352072792587
 30
0.0
 11
-14.28375305547986
 21
-24.74018545079193
 31
0.0
  0
LINE
  5
D6
330
1F
100
AcDbEntity
  8
0
  6
Continuous
 62
     7
100
AcDbLine
 10
5.5
 20
-3.800003051757812
 30
0.0
 11
22.39999389648437
 21
-3.800003051757812
 31
0.0
  0
LINE
  5
D7
330
1F
100
AcDbEntity
  8
0
  6
Continuous
 62
     7
100
AcDbLine
 10
22.39999389648437
 20
-7.999991373592767
 30
0.0
 11
21.89998522792956
 21
-8.500000000000001
 31
0.0
  0
LINE
  5
D8
330
1F
100
AcDbEntity
  8
0
  6
Continuous
 62
     7
100
AcDbLine
 10
7.505553494934459
 20
-8.5
 30
0.0
 11
22.44437568746345
 21
-8.5
 31
0.0
  0
LINE
  5
D9
330
1F
100
AcDbEntity
  8
0
  6
Continuous
 62
     7
100
AcDbLine
 10
0.54088771318267
 20
-6.663133717649321
 30
0.0
 11
-7.909110665570992
 21
-21.29895997083811
 31
0.0
  0
LINE
  5
DA
330
1F
100
AcDbEntity
  8
0
  6
Continuous
 62
     7
100
AcDbLine
 10
0.5049100223412069
 20
6.725479797329525
 30
0.0
 11
3.479403849383488
 21
10.97349719062705
 31
0.0
  0
LINE
  5
DB
330
1F
100
AcDbEntity
  8
0
  6
Continuous
 62
     7
100
AcDbLine
 10
-6.076869271856978
 20
2.925470639545091
 30
0.0
 11
-11.24301664785649
 21
2.47349131136047
 31
0.0
  0
LINE
  5
DC
330
1F
100
AcDbEntity
  8
0
  6
Continuous
 62
     7
100
AcDbLine
 10
5.571961977870671
 20
3.79998779296875
 30
0.0
 11
7.763610076943023
 21
8.499992370605466
 31
0.0
  0
LINE
  5
DD
330
1F
100
AcDbEntity
  8
0
  6
Continuous
 62
     7
100
AcDbLine
 10
5.571971190187412
 20
-3.800003051757812
 30
0.0
 11
7.763615731614718
 21
-8.5
 31
0.0
  0
LINE
  5
DE
330
1F
100
AcDbEntity
  8
0
  6
Continuous
 62
     7
100
AcDbLine
 10
19.39999389648437
 20
-3.5
 30
0.0
 11
19.39999389648437
 21
3.5
 31
0.0
  0
LINE
  5
DF
330
1F
100
AcDbEntity
  8
0
  6
Continuous
 62
     7
100
AcDbLine
 10
-13.93854329837495
 20
-4.142268601348432
 30
0.0
 11
-19.56898222538429
 21
-13.89447471680733
 31
0.0
  0
LINE
  5
E0
330
1F
100
AcDbEntity
  8
0
  6
Continuous
 62
     7
100
AcDbLine
 10
7.50555107615875
 20
8.499992370605466
 30
0.0
 11
22.44437857682071
 21
8.499992370605466
 31
0.0
  0
LINE
  5
E1
330
1F
100
AcDbEntity
  8
0
  6
Continuous
 62
     7
100
AcDbLine
 10
-11.11398387676508
 20
2.25
 30
0.0
 11
-18.58341691588045
 21
15.18743729527727
 31
0.0
  0
LINE
  5
E2
330
1F
100
AcDbEntity
  8
0
  6
Continuous
 62
     7
100
AcDbLine
 10
10.55657958984375
 20
10.0
 30
0.0
 11
21.81742422927143
 21
10.0
 31
0.0
  0
LINE
  5
E3
330
1F
100
AcDbEntity
  8
0
  6
Continuous
 62
     7
100
AcDbLine
 10
-6.638780696172942
 20
-2.51795015441688
 30
0.0
 11
1.138784315106021
 21
-7.008329487912987
 31
0.0
  0
LINE
  5
E4
330
1F
100
AcDbEntity
  8
0
  6
Continuous
 62
     7
100
AcDbLine
 10
10.55657958984375
 20
-10.0
 30
0.0
 11
21.81742422927143
 21
-10.0
 31
0.0
  0
LINE
  5
E5
330
1F
100
AcDbEntity
  8
0
  6
Continuous
 62
     7
100
AcDbLine
 10
3.381965338141013
 20
14.14226555891673
 30
0.0
 11
-2.248475125445394
 21
23.89447433580517
 31
0.0
  0
LINE
  5
E6
330
1F
100
AcDbEntity
  8
0
  6
Continuous
 62
     7
100
AcDbLine
 10
7.948558933008371
 20
9.267304473049307
 30
0.0
 11
5.767950183618722
 21
5.490379395466333
 31
0.0
  0
LINE
  5
E7
330
1F
100
AcDbEntity
  8
0
  6
Continuous
 62
     7
100
AcDbLine
 10
-6.076889295918817
 20
-2.925464440718542
 30
0.0
 11
-11.24302069936985
 21
-2.473486509950836
 31
0.0
  0
LINE
  5
E8
330
1F
100
AcDbEntity
  8
0
  6
Continuous
 62
     7
100
AcDbLine
 10
-12.00000381469726
 20
2.25
 30
0.0
 11
-7.638782501220702
 21
2.25
 31
0.0
  0
LINE
  5
E9
330
1F
100
AcDbEntity
  8
0
  6
Continuous
 62
     7
100
AcDbLine
 10
-11.99412155648072
 20
-2.25
 30
0.0
 11
-7.638782501220702
 21
-2.25
 31
0.0
  0
LINE
  5
EA
330
1F
100
AcDbEntity
  8
0
  6
Continuous
 62
     7
100
AcDbLine
 10
4.052861909321832
 20
11.51975917593475
 30
0.0
 11
1.870835936535057
 21
7.740379395466333
 31
0.0
  0
LINE
  5
EB
330
1F
100
AcDbEntity
  8
0
  6
Continuous
 62
     7
100
AcDbLine
 10
7.948557548290408
 20
-9.267305514599682
 30
0.0
 11
5.767950706249392
 21
-5.490383740641391
 31
0.0
  0
LINE
  5
EC
330
1F
100
AcDbEntity
  8
0
  6
Continuous
 62
     7
100
AcDbLine
 10
0.504906027816233
 20
-6.725455823727369
 30
0.0
 11
3.479405286838698
 21
-10.9734809746965
 31
0.0
  0
LINE
  5
ED
330
1F
100
AcDbEntity
  8
0
  6
Continuous
 62
     7
100
AcDbLine
 10
-4.271793973297776
 20
23.39896223423358
 30
0.0
 11
-18.12819124283048
 21
15.39896739708473
 31
0.0
  0
LINE
  5
EE
330
1F
100
AcDbEntity
  8
0
  6
Continuous
 62
     7
100
AcDbLine
 10
0.2810909354037534
 20
6.513139733288906
 30
0.0
 11
-7.068899909322793
 21
19.24369708303039
 31
0.0
  0
LINE
  5
EF
330
1F
100
AcDbEntity
  8
0
  6
Continuous
 62
     7
100
AcDbLine
 10
-5.781088434094286
 20
3.013138779614589
 30
0.0
 11
-13.13107927882083
 21
15.74369612935608
 31
0.0
  0
LINE
  5
F0
330
1F
100
AcDbEntity
  8
0
  6
Continuous
 62
     2
100
AcDbLine
 10
-5.719237003521682
 20
14.01850373650629
 30
0.0
 11
-9.280769055561775
 21
11.96225221062738
 31
0.0
  0
LINE
  5
F1
330
1F
100
AcDbEntity
  8
0
  6
Continuous
 62
     7
100
AcDbLine
 10
-7.068899909322793
 20
19.24369708303039
 30
0.0
 11
-13.13107927882083
 21
15.74369612935608
 31
0.0
  0
LINE
  5
F2
330
1F
100
AcDbEntity
  8
0
  6
Continuous
 62
     7
100
AcDbLine
 10
-6.668906012838418
 20
18.55088734403673
 30
0.0
 11
-12.73108538233646
 21
15.05088639036241
 31
0.0
  0
LINE
  5
F3
330
1F
100
AcDbEntity
  8
0
  6
Continuous
 62
     7
100
AcDbLine
 10
-12.73108542812999
 20
-15.05088990963127
 30
0.0
 11
-6.668907710444301
 21
-18.55088990963126
 31
0.0
  0
LINE
  5
F4
330
1F
100
AcDbEntity
  8
0
  6
Continuous
 62
     2
100
AcDbLine
 10
-9.280767136607993
 20
-11.96225686424366
 30
0.0
 11
-5.719235084567896
 21
-14.01850839012256
 31
0.0
  0
LINE
  5
F5
330
1F
100
AcDbEntity
  8
0
  6
Continuous
 62
     7
100
AcDbLine
 10
-13.13107932461436
 20
-15.74369964862494
 30
0.0
 11
-7.068901606928676
 21
-19.24369964862494
 31
0.0
  0
LINE
  5
F6
330
1F
100
AcDbEntity
  8
0
  6
Continuous
 62
     7
100
AcDbLine
 10
-5.781087049376324
 20
-3.013139821164918
 30
0.0
 11
-13.13107932461436
 21
-15.74369964862493
 31
0.0
  0
LINE
  5
F7
330
1F
100
AcDbEntity
  8
0
  6
Continuous
 62
     7
100
AcDbLine
 10
0.2810906683093606
 20
-6.513139821164933
 30
0.0
 11
-7.068901606928676
 21
-19.24369964862495
 31
0.0
  0
LINE
  5
F8
330
1F
100
AcDbEntity
  8
0
  6
Continuous
 62
     7
100
AcDbLine
 10
-18.1281914578913
 20
-15.39897081862707
 30
0.0
 11
-4.271800070609969
 21
-23.39896225965645
 31
0.0
  0
LINE
  5
F9
330
1F
100
AcDbEntity
  8
0
  6
Continuous
 62
     7
100
AcDbLine
 10
-0.1189029610806074
 20
7.205949472282567
 30
0.0
 11
-6.181082330578647
 21
3.705948518608251
 31
0.0
  0
LINE
  5
FA
330
1F
100
AcDbEntity
  8
0
  6
Continuous
 62
     7
100
AcDbLine
 10
-6.181080945860699
 20
-3.705949560158604
 30
0.0
 11
-0.118903228174986
 21
-7.205949560158612
 31
0.0
  0
LINE
  5
FB
330
1F
100
AcDbEntity
  8
0
  6
Continuous
 62
     2
100
AcDbLine
 10
10.0
 20
2.029998779296875
 30
0.0
 11
10.0
 21
-2.082504272460937
 31
0.0
  0
LINE
  5
FC
330
1F
100
AcDbEntity
  8
0
  6
Continuous
 62
     2
100
AcDbLine
 10
-6.780769840717312
 20
7.632129669189452
 30
0.0
 11
-3.219237788677218
 21
9.688381195068359
 31
0.0
  0
LINE
  5
FD
330
1F
100
AcDbEntity
  8
0
  6
Continuous
 62
     2
100
AcDbLine
 10
-3.219234130893581
 20
-9.688379797106156
 30
0.0
 11
-6.780766182933675
 21
-7.632128271227249
 31
0.0
  0
CIRCLE
  5
FE
330
1F
100
AcDbEntity
  8
0
  6
Continuous
 62
     7
100
AcDbCircle
 10
5.999979715036503
 20
10.39231697577348
 30
0.0
 40
1.154700323196721
  0
CIRCLE
  5
FF
330
1F
100
AcDbEntity
  8
0
  6
Continuous
 62
     7
100
AcDbCircle
 10
-12.00000381469726
 20
0.0
 30
0.0
 40
1.154700323196721
  0
CIRCLE
  5
100
330
1F
100
AcDbEntity
  8
0
  6
Continuous
 62
     7
100
AcDbCircle
 10
5.999976607703231
 20
-10.39229615301227
 30
0.0
 40
1.154700323196721
  0
ARC
  5
101
330
1F
100
AcDbEntity
  8
0
  6
Continuous
 62
     7
100
AcDbCircle
 10
-0.0000000519718242
 20
0.0000000300059533
 30
0.0
 40
20.5
100
AcDbArc
 50
29.1964043135627
 51
90.80359350935228
  0
ARC
  5
102
330
1F
100
AcDbEntity
  8
0
  6
Continuous
 62
     7
100
AcDbCircle
 10
-0.0000153107608867
 20
0.0000305475840783
 30
0.0
 40
20.5
100
AcDbArc
 50
269.1965002026031
 51
330.8034977867006
  0
ARC
  5
103
330
1F
100
AcDbEntity
  8
0
  6
Continuous
 62
     7
100
AcDbCircle
 10
0.0000190215145039
 20
0.0000267328868127
 30
0.0
 40
20.5
100
AcDbArc
 50
149.1965001528714
 51
210.8035909441654
  0
ARC
  5
104
330
1F
100
AcDbEntity
  8
0
  6
Continuous
 62
     2
100
AcDbCircle
 10
-0.0000000519718384
 20
-0.0000000300059533
 30
0.0
 40
17.5
100
AcDbArc
 50
43.57361095611388
 51
76.42645203366005
  0
ARC
  5
105
330
1F
100
AcDbEntity
  8
0
  6
Continuous
 62
     2
100
AcDbCircle
 10
0.0000190215144897
 20
0.0000266728749061
 30
0.0
 40
17.5
100
AcDbArc
 50
163.5736111076945
 51
196.4264521852406
  0
ARC
  5
106
330
1F
100
AcDbEntity
  8
0
  6
Continuous
 62
     2
100
AcDbCircle
 10
-0.0000153107609009
 20
0.0000304875721717
 30
0.0
 40
17.5
100
AcDbArc
 50
283.573609324357
 51
316.4264521094504
  0
ARC
  5
107
330
1F
100
AcDbEntity
  8
0
  6
Continuous
 62
     7
100
AcDbCircle
 10
0.0
 20
0.0
 30
0.0
 40
24.0
100
AcDbArc
 50
335.375681647836
 51
24.62431835216407
  0
ARC
  5
108
330
1F
100
AcDbEntity
  8
0
  6
Continuous
 62
     7
100
AcDbCircle
 10
-0.0000190734863281
 20
0.000030517578125
 30
0.0
 40
24.0
100
AcDbArc
 50
95.3756767925506
 51
144.624315294348
  0
ARC
  5
109
330
1F
100
AcDbEntity
  8
0
  6
Continuous
 62
     7
100
AcDbCircle
 10
-0.0000381469726563
 20
0.0
 30
0.0
 40
24.0
100
AcDbArc
 50
215.3757726733984
 51
264.6244062407212
  0
CIRCLE
  5
10A
330
1F
100
AcDbEntity
  8
0
  6
Continuous
 62
     7
100
AcDbCircle
 10
8.750000039827526
 20
15.15544448322134
 30
0.0
 40
1.5
  0
LINE
  5
10B
330
1F
100
AcDbEntity
  8
0
  6
Continuous
 62
     7
100
AcDbLine
 10
5.999979715036503
 20
11.54701729897021
 30
0.0
 11
4.999979901390033
 21
10.96966713737184
 31
0.0
  0
LINE
  5
10C
330
1F
100
AcDbEntity
  8
0
  6
Continuous
 62
     7
100
AcDbLine
 10
4.999979901390033
 20
10.96966713737184
 30
0.0
 11
4.999979901390033
 21
9.814966814175123
 31
0.0
  0
LINE
  5
10D
330
1F
100
AcDbEntity
  8
0
  6
Continuous
 62
     7
100
AcDbLine
 10
4.999979901390033
 20
9.814966814175123
 30
0.0
 11
5.999979715036503
 21
9.237616652576759
 31
0.0
  0
LINE
  5
10E
330
1F
100
AcDbEntity
  8
0
  6
Continuous
 62
     7
100
AcDbLine
 10
5.999979715036503
 20
9.237616652576759
 30
0.0
 11
6.99997952868297
 21
9.814966814175123
 31
0.0
  0
LINE
  5
10F
330
1F
100
AcDbEntity
  8
0
  6
Continuous
 62
     7
100
AcDbLine
 10
6.99997952868297
 20
9.814966814175123
 30
0.0
 11
6.99997952868297
 21
10.96966713737184
 31
0.0
  0
LINE
  5
110
330
1F
100
AcDbEntity
  8
0
  6
Continuous
 62
     7
100
AcDbLine
 10
6.99997952868297
 20
10.96966713737184
 30
0.0
 11
5.999979715036503
 21
11.54701729897021
 31
0.0
  0
LINE
  5
111
330
1F
100
AcDbEntity
  8
0
  6
Continuous
 62
     7
100
AcDbLine
 10
-12.00000381469726
 20
1.154700323196721
 30
0.0
 11
-13.00000362834373
 21
0.5773501615983605
 31
0.0
  0
LINE
  5
112
330
1F
100
AcDbEntity
  8
0
  6
Continuous
 62
     7
100
AcDbLine
 10
-11.0000040010508
 20
0.5773501615983589
 30
0.0
 11
-12.00000381469726
 21
1.154700323196721
 31
0.0
  0
LINE
  5
113
330
1F
100
AcDbEntity
  8
0
  6
Continuous
 62
     7
100
AcDbLine
 10
-13.00000362834373
 20
0.5773501615983605
 30
0.0
 11
-13.00000362834373
 21
-0.5773501615983605
 31
0.0
  0
LINE
  5
114
330
1F
100
AcDbEntity
  8
0
  6
Continuous
 62
     7
100
AcDbLine
 10
-13.00000362834373
 20
-0.5773501615983605
 30
0.0
 11
-12.00000381469726
 21
-1.154700323196721
 31
0.0
  0
LINE
  5
115
330
1F
100
AcDbEntity
  8
0
  6
Continuous
 62
     7
100
AcDbLine
 10
-12.00000381469726
 20
-1.154700323196721
 30
0.0
 11
-11.0000040010508
 21
-0.5773501615983623
 31
0.0
  0
LINE
  5
116
330
1F
100
AcDbEntity
  8
0
  6
Continuous
 62
     7
100
AcDbLine
 10
-11.0000040010508
 20
-0.5773501615983623
 30
0.0
 11
-11.0000040010508
 21
0.5773501615983589
 31
0.0
  0
LINE
  5
117
330
1F
100
AcDbEntity
  8
0
  6
Continuous
 62
     7
100
AcDbLine
 10
5.999976607703231
 20
-9.237595829815543
 30
0.0
 11
4.999976794056762
 21
-9.814945991413907
 31
0.0
  0
LINE
  5
118
330
1F
100
AcDbEntity
  8
0
  6
Continuous
 62
     7
100
AcDbLine
 10
6.999976421349701
 20
-9.81494599141391
 30
0.0
 11
5.999976607703231
 21
-9.237595829815543
 31
0.0
  0
LINE
  5
119
330
1F
100
AcDbEntity
  8
0
  6
Continuous
 62
     7
100
AcDbLine
 10
4.999976794056762
 20
-9.814945991413907
 30
0.0
 11
4.999976794056762
 21
-10.96964631461063
 31
0.0
  0
LINE
  5
11A
330
1F
100
AcDbEntity
  8
0
  6
Continuous
 62
     7
100
AcDbLine
 10
4.999976794056762
 20
-10.96964631461063
 30
0.0
 11
5.999976607703231
 21
-11.54699647620899
 31
0.0
  0
LINE
  5
11B
330
1F
100
AcDbEntity
  8
0
  6
Continuous
 62
     7
100
AcDbLine
 10
5.999976607703231
 20
-11.54699647620899
 30
0.0
 11
6.999976421349701
 21
-10.96964631461063
 31
0.0
  0
LINE
  5
11C
330
1F
100
AcDbEntity
  8
0
  6
Continuous
 62
     7
100
AcDbLine
 10
6.999976421349701
 20
-10.96964631461063
 30
0.0
 11
6.999976421349701
 21
-9.81494599141391
 31
0.0
  0
ENDBLK
  5
11D
330
1F
100
AcDbEntity
  8
0
100
AcDbBlockEnd
  0
BLOCK
  5
11E
330
20
100
AcDbEntity
  8
0
100
AcDbBlockBegin
  2
NHE1D-16-3
 70
     0
 10
0.0
 20
0.0
 30
0.0
  3
NHE1D-16-3
  1

  0
CIRCLE
  5
11F
330
20
100
AcDbEntity
  8
0
  6
Continuous
 62
     7
100
AcDbCircle
 10
17.5
 20
0.0
 30
0.0
 40
1.5
  0
ARC
  5
120
330
20
100
AcDbEntity
  8
0
  6
Continuous
 62
     7
100
AcDbCircle
 10
0.0000228881835938
 20
0.0000114440917969
 30
0.0
 40
24.0
100
AcDbArc
 50
35.37570372556276
 51
84.62434560383282
  0
ARC
  5
121
330
20
100
AcDbEntity
  8
0
  6
Continuous
 62
     7
100
AcDbCircle
 10
0.0
 20
-0.0000190734863281
 30
0.0
 40
24.0
100
AcDbArc
 50
275.3757128499753
 51
324.6243488472902
  0
ARC
  5
122
330
20
100
AcDbEntity
  8
0
  6
Continuous
 62
     7
100
AcDbCircle
 10
-0.0000152587890625
 20
0.0000114440917969
 30
0.0
 40
24.0
100
AcDbArc
 50
155.3757117017082
 51
204.6243484060436
  0
ARC
  5
123
330
20
100
AcDbEntity
  8
0
  6
Continuous
 62
     7
100
AcDbCircle
 10
0.0
 20
0.0
 30
0.0
 40
20.5
100
AcDbArc
 50
86.8146201167608
 51
153.1854281432441
  0
CIRCLE
  5
124
330
20
100
AcDbEntity
  8
0
  6
Continuous
 62
     7
100
AcDbCircle
 10
-19.49998474121093
 20
-6.499996185302733
 30
0.0
 40
2.25
  0
CIRCLE
  5
125
330
20
100
AcDbEntity
  8
0
  6
Continuous
 62
     7
100
AcDbCircle
 10
-19.49998474121093
 20
-6.499996185302733
 30
0.0
 40
2.5
  0
CIRCLE
  5
126
330
20
100
AcDbEntity
  8
0
  6
CENTER
 62
     2
100
AcDbCircle
 10
0.0
 20
0.0
 30
0.0
 40
17.5
  0
CIRCLE
  5
127
330
20
100
AcDbEntity
  8
0
  6
Continuous
 62
     7
100
AcDbCircle
 10
-8.749998350729837
 20
15.15544551843412
 30
0.0
 40
1.5
  0
CIRCLE
  5
128
330
20
100
AcDbEntity
  8
0
  6
Continuous
 62
     7
100
AcDbCircle
 10
-8.749998350729851
 20
-15.15544551843412
 30
0.0
 40
1.5
  0
CIRCLE
  5
129
330
20
100
AcDbEntity
  8
0
  6
Continuous
 62
     2
100
AcDbCircle
 10
17.5
 20
0.0
 30
0.0
 40
2.0
  0
CIRCLE
  5
12A
330
20
100
AcDbEntity
  8
0
  6
Continuous
 62
     2
100
AcDbCircle
 10
-8.749998350729837
 20
15.15544551843412
 30
0.0
 40
2.0
  0
CIRCLE
  5
12B
330
20
100
AcDbEntity
  8
0
  6
Continuous
 62
     2
100
AcDbCircle
 10
-8.749998350729851
 20
-15.15544551843412
 30
0.0
 40
2.0
  0
CIRCLE
  5
12C
330
20
100
AcDbEntity
  8
0
  6
Continuous
 62
     7
100
AcDbCircle
 10
0.0
 20
0.0
 30
0.0
 40
3.0
  0
CIRCLE
  5
12D
330
20
100
AcDbEntity
  8
0
  6
Continuous
 62
     7
100
AcDbCircle
 10
0.0
 20
0.0
 30
0.0
 40
8.5
  0
ARC
  5
12E
330
20
100
AcDbEntity
  8
0
  6
Continuous
 62
     7
100
AcDbCircle
 10
0.0
 20
0.0
 30
0.0
 40
20.5
100
AcDbArc
 50
206.8145718567559
 51
273.1853798832392
  0
CIRCLE
  5
12F
330
20
100
AcDbEntity
  8
0
  6
Continuous
 62
     7
100
AcDbCircle
 10
-19.49998474121093
 20
6.499992370605467
 30
0.0
 40
2.5
  0
CIRCLE
  5
130
330
20
100
AcDbEntity
  8
0
  6
Continuous
 62
     7
100
AcDbCircle
 10
-19.49998474121093
 20
6.499992370605467
 30
0.0
 40
2.25
  0
CIRCLE
  5
131
330
20
100
AcDbEntity
  8
0
  6
Continuous
 62
     7
100
AcDbCircle
 10
4.120834350585936
 20
-20.13748550415039
 30
0.0
 40
2.5
  0
CIRCLE
  5
132
330
20
100
AcDbEntity
  8
0
  6
Continuous
 62
     7
100
AcDbCircle
 10
4.120834350585936
 20
-20.13748550415039
 30
0.0
 40
2.25
  0
CIRCLE
  5
133
330
20
100
AcDbEntity
  8
0
  6
Continuous
 62
     7
100
AcDbCircle
 10
15.37915802001953
 20
-13.63748931884765
 30
0.0
 40
2.5
  0
CIRCLE
  5
134
330
20
100
AcDbEntity
  8
0
  6
Continuous
 62
     7
100
AcDbCircle
 10
15.37915802001953
 20
-13.63748931884765
 30
0.0
 40
2.25
  0
CIRCLE
  5
135
330
20
100
AcDbEntity
  8
0
  6
Continuous
 62
     7
100
AcDbCircle
 10
4.120834350585936
 20
20.13748168945312
 30
0.0
 40
2.5
  0
CIRCLE
  5
136
330
20
100
AcDbEntity
  8
0
  6
Continuous
 62
     7
100
AcDbCircle
 10
4.120834350585936
 20
20.13748168945312
 30
0.0
 40
2.25
  0
CIRCLE
  5
137
330
20
100
AcDbEntity
  8
0
  6
Continuous
 62
     7
100
AcDbCircle
 10
15.37915802001953
 20
13.63748931884765
 30
0.0
 40
2.5
  0
CIRCLE
  5
138
330
20
100
AcDbEntity
  8
0
  6
Continuous
 62
     7
100
AcDbCircle
 10
15.37915802001953
 20
13.63748931884765
 30
0.0
 40
2.25
  0
ARC
  5
139
330
20
100
AcDbEntity
  8
0
  6
Continuous
 62
     7
100
AcDbCircle
 10
0.0
 20
0.0
 30
0.0
 40
20.5
100
AcDbArc
 50
326.8145742013805
 51
33.18542598327975
  0
ARC
  5
13A
330
20
100
AcDbEntity
  8
0
  6
Continuous
 62
     7
100
AcDbCircle
 10
7.5
 20
-3.345520361328123
 30
0.0
 40
1.0
100
AcDbArc
 50
52.55583610298023
 51
239.6857560449173
  0
ARC
  5
13B
330
20
100
AcDbEntity
  8
0
  6
Continuous
 62
     7
100
AcDbCircle
 10
7.5
 20
-3.345520361328123
 30
0.0
 40
0.5
100
AcDbArc
 50
32.25207091311348
 51
279.667554949709
  0
ARC
  5
13C
330
20
100
AcDbEntity
  8
0
  6
Continuous
 62
     7
100
AcDbCircle
 10
7.5
 20
3.345519677734375
 30
0.0
 40
1.0
100
AcDbArc
 50
120.3142439550826
 51
307.444176406994
  0
ARC
  5
13D
330
20
100
AcDbEntity
  8
0
  6
Continuous
 62
     7
100
AcDbCircle
 10
7.5
 20
3.345519677734375
 30
0.0
 40
0.5
100
AcDbArc
 50
80.33240103778053
 51
327.7479643881918
  0
ARC
  5
13E
330
20
100
AcDbEntity
  8
0
  6
Continuous
 62
     7
100
AcDbCircle
 10
0.7875137329101563
 20
-0.000000341796875
 30
0.0
 40
7.5
100
AcDbArc
 50
34.13688922912797
 51
325.863110770872
  0
ARC
  5
13F
330
20
100
AcDbEntity
  8
0
  6
Continuous
 62
     7
100
AcDbCircle
 10
15.37914276123047
 20
-13.63748168945312
 30
0.0
 40
3.0
100
AcDbArc
 50
53.66821822953387
 51
223.2014659579362
  0
ARC
  5
140
330
20
100
AcDbEntity
  8
0
  6
Continuous
 62
     7
100
AcDbCircle
 10
-0.0000152587890625
 20
0.0
 30
0.0
 40
20.5
100
AcDbArc
 50
49.94467481011838
 51
70.05530755187486
  0
ARC
  5
141
330
20
100
AcDbEntity
  8
0
  6
Continuous
 62
     7
100
AcDbCircle
 10
4.120819091796875
 20
20.13748168945312
 30
0.0
 40
3.0
100
AcDbArc
 50
173.6684413674529
 51
343.2014276324096
  0
ARC
  5
142
330
20
100
AcDbEntity
  8
0
  6
Continuous
 62
     7
100
AcDbCircle
 10
-19.50000762939453
 20
-6.5
 30
0.0
 40
3.0
100
AcDbArc
 50
293.6688497237475
 51
103.2011781609379
  0
ARC
  5
143
330
20
100
AcDbEntity
  8
0
  6
Continuous
 62
     7
100
AcDbCircle
 10
4.120819091796875
 20
-20.13748168945312
 30
0.0
 40
3.0
100
AcDbArc
 50
16.79857236759042
 51
186.3315586325471
  0
ARC
  5
144
330
20
100
AcDbEntity
  8
0
  6
Continuous
 62
     7
100
AcDbCircle
 10
-0.0000152587890625
 20
0.0
 30
0.0
 40
20.5
100
AcDbArc
 50
289.9446924481251
 51
310.0553289411757
  0
ARC
  5
145
330
20
100
AcDbEntity
  8
0
  6
Continuous
 62
     7
100
AcDbCircle
 10
15.37914276123047
 20
13.63748168945312
 30
0.0
 40
3.0
100
AcDbArc
 50
136.7985340420638
 51
306.3317817704661
  0
ARC
  5
146
330
20
100
AcDbEntity
  8
0
  6
Continuous
 62
     7
100
AcDbCircle
 10
-19.50000762939453
 20
6.5
 30
0.0
 40
3.0
100
AcDbArc
 50
256.7988218390621
 51
66.33115027625246
  0
ARC
  5
147
330
20
100
AcDbEntity
  8
0
  6
Continuous
 62
     7
100
AcDbCircle
 10
-0.0000076293945313
 20
0.0
 30
0.0
 40
20.5
100
AcDbArc
 50
169.9446827841322
 51
190.0553172158678
  0
CIRCLE
  5
148
330
20
100
AcDbEntity
  8
0
  6
Continuous
 62
     7
100
AcDbCircle
 10
6.000019490797398
 20
10.39233433710104
 30
0.0
 40
2.5
  0
CIRCLE
  5
149
330
20
100
AcDbEntity
  8
0
  6
Continuous
 62
     7
100
AcDbCircle
 10
6.000019490797412
 20
-10.39233433710104
 30
0.0
 40
2.5
  0
ARC
  5
14A
330
20
100
AcDbEntity
  8
0
  6
Continuous
 62
     2
100
AcDbCircle
 10
0.0
 20
0.0
 30
0.0
 40
12.00003528594971
100
AcDbArc
 50
38.38627352678596
 51
81.61383044412298
  0
ARC
  5
14B
330
20
100
AcDbEntity
  8
0
  6
Continuous
 62
     2
100
AcDbCircle
 10
0.0
 20
0.0
 30
0.0
 40
12.00003528594971
100
AcDbArc
 50
278.3861626120023
 51
321.6137246519812
  0
ARC
  5
14C
330
20
100
AcDbEntity
  8
0
  6
Continuous
 62
     7
100
AcDbCircle
 10
-11.0
 20
0.0
 30
0.0
 40
1.0
100
AcDbArc
 50
270.0
 51
90.00000500895634
  0
ARC
  5
14D
330
20
100
AcDbEntity
  8
0
  6
Continuous
 62
     7
100
AcDbCircle
 10
-13.0
 20
0.0
 30
0.0
 40
1.0
100
AcDbArc
 50
89.99999499104367
 51
270.0
  0
LINE
  5
14E
330
20
100
AcDbEntity
  8
0
  6
CENTER
 62
     2
100
AcDbLine
 10
10.50000059245158
 20
18.18653009837382
 30
0.0
 11
-10.49999940754841
 21
-18.18653620774037
 31
0.0
  0
LINE
  5
14F
330
20
100
AcDbEntity
  8
0
  6
CENTER
 62
     2
100
AcDbLine
 10
-21.0
 20
0.0
 30
0.0
 11
21.0
 21
0.0
 31
0.0
  0
LINE
  5
150
330
20
100
AcDbEntity
  8
0
  6
CENTER
 62
     2
100
AcDbLine
 10
10.50000306178523
 20
-18.18653437538507
 30
0.0
 11
-10.49999789188908
 21
18.18653358254147
 31
0.0
  0
LINE
  5
151
330
20
100
AcDbEntity
  8
0
  6
Continuous
 62
     7
100
AcDbLine
 10
-17.89553016817328
 20
-10.0
 30
0.0
 11
-21.81743424266598
 21
-10.0
 31
0.0
  0
LINE
  5
152
330
20
100
AcDbEntity
  8
0
  6
Continuous
 62
     7
100
AcDbLine
 10
0.2875130534139316
 20
20.49797914817553
 30
0.0
 11
2.248469626900259
 21
23.89445550392927
 31
0.0
  0
LINE
  5
153
330
20
100
AcDbEntity
  8
0
  6
Continuous
 62
     7
100
AcDbLine
 10
-17.89553016817328
 20
10.0
 30
0.0
 11
-21.81744473344773
 21
10.0
 31
0.0
  0
LINE
  5
154
330
20
100
AcDbEntity
  8
0
  6
Continuous
 62
     7
100
AcDbLine
 10
17.60802032151589
 20
-10.49798172779332
 30
0.0
 11
19.56897354766096
 21
-13.89445228578201
 31
0.0
  0
LINE
  5
155
330
20
100
AcDbEntity
  8
0
  6
Continuous
 62
     7
100
AcDbLine
 10
0.2875136968836927
 20
-20.49798370264999
 30
0.0
 11
2.248471089228686
 21
-23.89446147670852
 31
0.0
  0
LINE
  5
156
330
20
100
AcDbEntity
  8
0
  6
Continuous
 62
     7
100
AcDbLine
 10
17.60802133049849
 20
10.49798003545017
 30
0.0
 11
19.56898120641381
 21
13.89446211117862
 31
0.0
  0
LINE
  5
157
330
20
100
AcDbEntity
  8
0
  6
Continuous
 62
     7
100
AcDbLine
 10
5.334940159168596
 20
14.24041010734482
 30
0.0
 11
9.665067100372668
 21
11.74041010734482
 31
0.0
  0
LINE
  5
158
330
20
100
AcDbEntity
  8
0
  6
Continuous
 62
     7
100
AcDbLine
 10
6.114361026410504
 20
13.79041125175396
 30
0.0
 11
5.574827228311646
 21
12.85591131781876
 31
0.0
  0
LINE
  5
159
330
20
100
AcDbEntity
  8
0
  6
Continuous
 62
     7
100
AcDbLine
 10
10.41504039749179
 20
13.03940193896049
 30
0.0
 11
9.665067100372654
 21
11.7404101073448
 31
0.0
  0
LINE
  5
15A
330
20
100
AcDbEntity
  8
0
  6
Continuous
 62
     7
100
AcDbLine
 10
6.084913456287722
 20
15.53940193896049
 30
0.0
 11
5.33494015916858
 21
14.24041010734478
 31
0.0
  0
LINE
  5
15B
330
20
100
AcDbEntity
  8
0
  6
Continuous
 62
     7
100
AcDbLine
 10
8.885642929506046
 20
12.19041087028426
 30
0.0
 11
8.346121996932909
 21
11.25593322009285
 31
0.0
  0
LINE
  5
15C
330
20
100
AcDbEntity
  8
0
  6
Continuous
 62
     7
100
AcDbLine
 10
6.114386853187156
 20
-13.79036024286851
 30
0.0
 11
5.574888622272424
 21
-12.85592191310218
 31
0.0
  0
LINE
  5
15D
330
20
100
AcDbEntity
  8
0
  6
Continuous
 62
     7
100
AcDbLine
 10
10.41509336975104
 20
-13.03939031803492
 30
0.0
 11
9.665096230773995
 21
-11.74035719111071
 31
0.0
  0
LINE
  5
15E
330
20
100
AcDbEntity
  8
0
  6
Continuous
 62
     7
100
AcDbLine
 10
9.665096230773995
 20
-11.74035719111071
 30
0.0
 11
5.334969289569925
 21
-14.24035719111071
 31
0.0
  0
LINE
  5
15F
330
20
100
AcDbEntity
  8
0
  6
Continuous
 62
     7
100
AcDbLine
 10
6.084966428546977
 20
-15.53939031803491
 30
0.0
 11
5.334969289569912
 21
-14.24035719111068
 31
0.0
  0
LINE
  5
160
330
20
100
AcDbEntity
  8
0
  6
Continuous
 62
     7
100
AcDbLine
 10
8.885672059907406
 20
-12.19035795405017
 30
0.0
 11
8.346145232654137
 21
-11.25587009397347
 31
0.0
  0
LINE
  5
161
330
20
100
AcDbEntity
  8
0
  6
Continuous
 62
     7
100
AcDbLine
 10
-2.285687570920515
 20
20.37217789850019
 30
0.0
 11
18.78567187079251
 21
8.206615158694521
 31
0.0
  0
LINE
  5
162
330
20
100
AcDbEntity
  8
0
  6
Continuous
 62
     7
100
AcDbLine
 10
-16.49998474121093
 20
-12.16554575593738
 30
0.0
 11
-16.49998474121093
 21
12.16554575593738
 31
0.0
  0
LINE
  5
163
330
20
100
AcDbEntity
  8
0
  6
Continuous
 62
     7
100
AcDbLine
 10
18.78566058297105
 20
-8.206640997473192
 30
0.0
 11
-2.285670391277363
 21
-20.37217982598912
 31
0.0
  0
LINE
  5
164
330
20
100
AcDbEntity
  8
0
  6
Continuous
 62
     2
100
AcDbLine
 10
-12.0
 20
3.0
 30
0.0
 11
-12.0
 21
-3.0
 31
0.0
  0
LINE
  5
165
330
20
100
AcDbEntity
  8
0
  6
Continuous
 62
     7
100
AcDbLine
 10
-11.0
 20
1.0
 30
0.0
 11
-13.0
 21
1.0
 31
0.0
  0
LINE
  5
166
330
20
100
AcDbEntity
  8
0
  6
Continuous
 62
     7
100
AcDbLine
 10
-11.0
 20
-1.0
 30
0.0
 11
-13.0
 21
-1.0
 31
0.0
  0
LINE
  5
167
330
20
100
AcDbEntity
  8
0
  6
Continuous
 62
     2
100
AcDbLine
 10
-13.0
 20
3.0
 30
0.0
 11
-13.0
 21
-3.0
 31
0.0
  0
LINE
  5
168
330
20
100
AcDbEntity
  8
0
  6
Continuous
 62
     2
100
AcDbLine
 10
-11.0
 20
3.0
 30
0.0
 11
-11.0
 21
-3.0
 31
0.0
  0
CIRCLE
  5
169
330
20
100
AcDbEntity
  8
0
  6
Continuous
 62
     7
100
AcDbCircle
 10
-19.50000762939453
 20
6.5
 30
0.0
 40
1.154700323196721
  0
LINE
  5
16A
330
20
100
AcDbEntity
  8
0
  6
Continuous
 62
     7
100
AcDbLine
 10
-19.50000762939453
 20
7.654700323196721
 30
0.0
 11
-20.500007443041
 21
7.077350161598361
 31
0.0
  0
LINE
  5
16B
330
20
100
AcDbEntity
  8
0
  6
Continuous
 62
     7
100
AcDbLine
 10
-20.500007443041
 20
7.077350161598361
 30
0.0
 11
-20.500007443041
 21
5.922649838401639
 31
0.0
  0
LINE
  5
16C
330
20
100
AcDbEntity
  8
0
  6
Continuous
 62
     7
100
AcDbLine
 10
-20.500007443041
 20
5.922649838401639
 30
0.0
 11
-19.50000762939453
 21
5.345299676803278
 31
0.0
  0
LINE
  5
16D
330
20
100
AcDbEntity
  8
0
  6
Continuous
 62
     7
100
AcDbLine
 10
-19.50000762939453
 20
5.345299676803278
 30
0.0
 11
-18.50000781574807
 21
5.922649838401638
 31
0.0
  0
LINE
  5
16E
330
20
100
AcDbEntity
  8
0
  6
Continuous
 62
     7
100
AcDbLine
 10
-18.50000781574807
 20
5.922649838401638
 30
0.0
 11
-18.50000781574807
 21
7.077350161598357
 31
0.0
  0
LINE
  5
16F
330
20
100
AcDbEntity
  8
0
  6
Continuous
 62
     7
100
AcDbLine
 10
-18.50000781574807
 20
7.077350161598357
 30
0.0
 11
-19.50000762939453
 21
7.654700323196721
 31
0.0
  0
LINE
  5
170
330
20
100
AcDbEntity
  8
0
  6
Continuous
 62
     7
100
AcDbLine
 10
-18.50000781574807
 20
-5.922638394309843
 30
0.0
 11
-19.50000762939453
 21
-5.345288232711481
 31
0.0
  0
LINE
  5
171
330
20
100
AcDbEntity
  8
0
  6
Continuous
 62
     7
100
AcDbLine
 10
-18.50000781574807
 20
-7.077338717506563
 30
0.0
 11
-18.50000781574807
 21
-5.922638394309843
 31
0.0
  0
LINE
  5
172
330
20
100
AcDbEntity
  8
0
  6
Continuous
 62
     7
100
AcDbLine
 10
-19.50000762939453
 20
-7.654688879104925
 30
0.0
 11
-18.50000781574807
 21
-7.077338717506563
 31
0.0
  0
LINE
  5
173
330
20
100
AcDbEntity
  8
0
  6
Continuous
 62
     7
100
AcDbLine
 10
-20.500007443041
 20
-7.077338717506562
 30
0.0
 11
-19.50000762939453
 21
-7.654688879104925
 31
0.0
  0
LINE
  5
174
330
20
100
AcDbEntity
  8
0
  6
Continuous
 62
     7
100
AcDbLine
 10
-20.500007443041
 20
-5.922638394309841
 30
0.0
 11
-20.500007443041
 21
-7.077338717506562
 31
0.0
  0
LINE
  5
175
330
20
100
AcDbEntity
  8
0
  6
Continuous
 62
     7
100
AcDbLine
 10
-19.50000762939453
 20
-5.345288232711481
 30
0.0
 11
-20.500007443041
 21
-5.922638394309841
 31
0.0
  0
CIRCLE
  5
176
330
20
100
AcDbEntity
  8
0
  6
Continuous
 62
     7
100
AcDbCircle
 10
-19.50000762939453
 20
-6.499988555908202
 30
0.0
 40
1.154700323196721
  0
LINE
  5
177
330
20
100
AcDbEntity
  8
0
  6
Continuous
 62
     7
100
AcDbLine
 10
5.120811276048812
 20
20.71483948044602
 30
0.0
 11
4.120811462402342
 21
21.29218964204437
 31
0.0
  0
LINE
  5
178
330
20
100
AcDbEntity
  8
0
  6
Continuous
 62
     7
100
AcDbLine
 10
5.120811276048812
 20
19.56013915724929
 30
0.0
 11
5.120811276048812
 21
20.71483948044602
 31
0.0
  0
LINE
  5
179
330
20
100
AcDbEntity
  8
0
  6
Continuous
 62
     7
100
AcDbLine
 10
4.120811462402342
 20
18.98278899565093
 30
0.0
 11
5.120811276048812
 21
19.56013915724929
 31
0.0
  0
LINE
  5
17A
330
20
100
AcDbEntity
  8
0
  6
Continuous
 62
     7
100
AcDbLine
 10
3.120811648755875
 20
19.56013915724929
 30
0.0
 11
4.120811462402342
 21
18.98278899565093
 31
0.0
  0
LINE
  5
17B
330
20
100
AcDbEntity
  8
0
  6
Continuous
 62
     7
100
AcDbLine
 10
3.120811648755875
 20
20.71483948044602
 30
0.0
 11
3.120811648755875
 21
19.56013915724929
 31
0.0
  0
LINE
  5
17C
330
20
100
AcDbEntity
  8
0
  6
Continuous
 62
     7
100
AcDbLine
 10
4.120811462402342
 20
21.29218964204437
 30
0.0
 11
3.120811648755875
 21
20.71483948044602
 31
0.0
  0
CIRCLE
  5
17D
330
20
100
AcDbEntity
  8
0
  6
Continuous
 62
     7
100
AcDbCircle
 10
4.120811462402342
 20
20.13748931884766
 30
0.0
 40
1.154700323196721
  0
LINE
  5
17E
330
20
100
AcDbEntity
  8
0
  6
Continuous
 62
     7
100
AcDbLine
 10
16.3791349454824
 20
-13.06013152785476
 30
0.0
 11
15.37913513183594
 21
-12.4827813662564
 31
0.0
  0
LINE
  5
17F
330
20
100
AcDbEntity
  8
0
  6
Continuous
 62
     7
100
AcDbLine
 10
16.3791349454824
 20
-14.21483185105149
 30
0.0
 11
16.3791349454824
 21
-13.06013152785476
 31
0.0
  0
LINE
  5
180
330
20
100
AcDbEntity
  8
0
  6
Continuous
 62
     7
100
AcDbLine
 10
15.37913513183594
 20
-14.79218201264984
 30
0.0
 11
16.3791349454824
 21
-14.21483185105149
 31
0.0
  0
LINE
  5
181
330
20
100
AcDbEntity
  8
0
  6
Continuous
 62
     7
100
AcDbLine
 10
14.37913531818946
 20
-14.21483185105148
 30
0.0
 11
15.37913513183594
 21
-14.79218201264984
 31
0.0
  0
LINE
  5
182
330
20
100
AcDbEntity
  8
0
  6
Continuous
 62
     7
100
AcDbLine
 10
14.37913531818946
 20
-13.06013152785476
 30
0.0
 11
14.37913531818946
 21
-14.21483185105148
 31
0.0
  0
LINE
  5
183
330
20
100
AcDbEntity
  8
0
  6
Continuous
 62
     7
100
AcDbLine
 10
15.37913513183594
 20
-12.4827813662564
 30
0.0
 11
14.37913531818946
 21
-13.06013152785476
 31
0.0
  0
CIRCLE
  5
184
330
20
100
AcDbEntity
  8
0
  6
Continuous
 62
     7
100
AcDbCircle
 10
15.37913513183594
 20
-13.63748168945312
 30
0.0
 40
1.154700323196721
  0
LINE
  5
185
330
20
100
AcDbEntity
  8
0
  6
Continuous
 62
     7
100
AcDbLine
 10
16.3791349454824
 20
14.21484710984055
 30
0.0
 11
15.37913513183594
 21
14.79219727143891
 31
0.0
  0
LINE
  5
186
330
20
100
AcDbEntity
  8
0
  6
Continuous
 62
     7
100
AcDbLine
 10
16.3791349454824
 20
13.06014678664382
 30
0.0
 11
16.3791349454824
 21
14.21484710984055
 31
0.0
  0
LINE
  5
187
330
20
100
AcDbEntity
  8
0
  6
Continuous
 62
     7
100
AcDbLine
 10
15.37913513183594
 20
12.48279662504546
 30
0.0
 11
16.3791349454824
 21
13.06014678664382
 31
0.0
  0
LINE
  5
188
330
20
100
AcDbEntity
  8
0
  6
Continuous
 62
     7
100
AcDbLine
 10
14.37913531818946
 20
13.06014678664382
 30
0.0
 11
15.37913513183594
 21
12.48279662504546
 31
0.0
  0
LINE
  5
189
330
20
100
AcDbEntity
  8
0
  6
Continuous
 62
     7
100
AcDbLine
 10
14.37913531818946
 20
14.21484710984055
 30
0.0
 11
14.37913531818946
 21
13.06014678664382
 31
0.0
  0
LINE
  5
18A
330
20
100
AcDbEntity
  8
0
  6
Continuous
 62
     7
100
AcDbLine
 10
15.37913513183594
 20
14.79219727143891
 30
0.0
 11
14.37913531818946
 21
14.21484710984055
 31
0.0
  0
CIRCLE
  5
18B
330
20
100
AcDbEntity
  8
0
  6
Continuous
 62
     7
100
AcDbCircle
 10
15.37913513183594
 20
13.63749694824219
 30
0.0
 40
1.154700323196721
  0
LINE
  5
18C
330
20
100
AcDbEntity
  8
0
  6
Continuous
 62
     7
100
AcDbLine
 10
5.120811276048812
 20
-19.56012771315749
 30
0.0
 11
4.120811462402342
 21
-18.98277755155913
 31
0.0
  0
LINE
  5
18D
330
20
100
AcDbEntity
  8
0
  6
Continuous
 62
     7
100
AcDbLine
 10
5.120811276048812
 20
-20.71482803635423
 30
0.0
 11
5.120811276048812
 21
-19.56012771315749
 31
0.0
  0
LINE
  5
18E
330
20
100
AcDbEntity
  8
0
  6
Continuous
 62
     7
100
AcDbLine
 10
4.120811462402342
 20
-21.29217819795258
 30
0.0
 11
5.120811276048812
 21
-20.71482803635423
 31
0.0
  0
LINE
  5
18F
330
20
100
AcDbEntity
  8
0
  6
Continuous
 62
     7
100
AcDbLine
 10
3.120811648755875
 20
-20.71482803635422
 30
0.0
 11
4.120811462402342
 21
-21.29217819795258
 31
0.0
  0
LINE
  5
190
330
20
100
AcDbEntity
  8
0
  6
Continuous
 62
     7
100
AcDbLine
 10
3.120811648755875
 20
-19.56012771315749
 30
0.0
 11
3.120811648755875
 21
-20.71482803635422
 31
0.0
  0
LINE
  5
191
330
20
100
AcDbEntity
  8
0
  6
Continuous
 62
     7
100
AcDbLine
 10
4.120811462402342
 20
-18.98277755155913
 30
0.0
 11
3.120811648755875
 21
-19.56012771315749
 31
0.0
  0
CIRCLE
  5
192
330
20
100
AcDbEntity
  8
0
  6
Continuous
 62
     7
100
AcDbCircle
 10
4.120811462402342
 20
-20.13747787475586
 30
0.0
 40
1.154700323196721
  0
CIRCLE
  5
193
330
20
100
AcDbEntity
  8
0
  6
Continuous
 62
     7
100
AcDbCircle
 10
0.0000023560738356
 20
0.0000000000000142
 30
0.0
 40
6.5
  0
ENDBLK
  5
194
330
20
100
AcDbEntity
  8
0
100
AcDbBlockEnd
  0
BLOCK
  5
195
330
21
100
AcDbEntity
  8
0
100
AcDbBlockBegin
  2
NHE1D-16-4
 70
     0
 10
0.0
 20
0.0
 30
0.0
  3
NHE1D-16-4
  1

  0
ELLIPSE
  5
196
330
21
100
AcDbEntity
  8
0
  6
Continuous
 62
     7
100
AcDbEllipse
 10
16.00001525878906
 20
-2.935842514038084
 30
0.0
 11
1.25
 21
0.0
 31
0.0
210
0.0
220
0.0
230
1.0
 40
0.5204727172851564
 41
0.0
 42
6.283185307179584
  0
ELLIPSE
  5
197
330
21
100
AcDbEntity
  8
0
  6
Continuous
 62
     7
100
AcDbEllipse
 10
24.00001525878908
 20
8.249992370605466
 30
0.0
 11
2.5
 21
0.0
 31
0.0
210
0.0
220
0.0
230
1.0
 40
0.8660385131835937
 41
1.570796326794896
 42
4.720201425342883
  0
ELLIPSE
  5
198
330
21
100
AcDbEntity
  8
0
  6
Continuous
 62
     7
100
AcDbEllipse
 10
24.00001525878908
 20
7.499996185302733
 30
0.0
 11
2.5
 21
0.0
 31
0.0
210
0.0
220
0.0
230
1.0
 40
0.8660385131835937
 41
1.570796326794896
 42
2.967512912722881
  0
ELLIPSE
  5
199
330
21
100
AcDbEntity
  8
0
  6
Continuous
 62
     7
100
AcDbEllipse
 10
24.00001525878908
 20
7.499996185302733
 30
0.0
 11
1.600000381469725
 21
0.0
 31
0.0
210
0.0
220
0.0
230
0.9999999999999998
 40
0.8660457453618656
 41
1.570796326794897
 42
4.703124567887288
  0
ELLIPSE
  5
19A
330
21
100
AcDbEntity
  8
0
  6
Continuous
 62
     7
100
AcDbEllipse
 10
24.00001525878908
 20
6.960468292236327
 30
0.0
 11
1.600000381469725
 21
0.0
 31
0.0
210
0.0
220
0.0
230
0.9999999999999998
 40
0.8660457453618656
 41
1.570796326794896
 42
2.945660800120558
  0
ARC
  5
19B
330
21
100
AcDbEntity
  8
0
  6
Continuous
 62
     7
100
AcDbCircle
 10
3.500007629394531
 20
7.722217559814452
 30
0.0
 40
1.0
100
AcDbArc
 50
180.000053958268
 51
0.0000589672243628
  0
ARC
  5
19C
330
21
100
AcDbEntity
  8
0
  6
Continuous
 62
     7
100
AcDbCircle
 10
3.500007629394531
 20
14.72219848632812
 30
0.0
 40
1.0
100
AcDbArc
 50
0.0000589672243628
 51
180.0000229950457
  0
CIRCLE
  5
19D
330
21
100
AcDbEntity
  8
0
  6
Continuous
 62
     7
100
AcDbCircle
 10
3.500007629394531
 20
11.6310806274414
 30
0.0
 40
1.0
  0
ARC
  5
19E
330
21
100
AcDbEntity
  8
0
  6
Continuous
 62
     7
100
AcDbCircle
 10
3.500007629394531
 20
7.631080627441406
 30
0.0
 40
1.0
100
AcDbArc
 50
5.228978588219324
 51
174.7710214117807
  0
ARC
  5
19F
330
21
100
AcDbEntity
  8
0
  6
Continuous
 62
     7
100
AcDbCircle
 10
3.500007629394531
 20
13.1310806274414
 30
0.0
 40
1.0
100
AcDbArc
 50
0.0000589672243628
 51
180.0000229950457
  0
CIRCLE
  5
1A0
330
21
100
AcDbEntity
  8
0
  6
Continuous
 62
     7
100
AcDbCircle
 10
16.00001525878906
 20
-11.50000381469726
 30
0.0
 40
1.25
  0
LINE
  5
1A1
330
21
100
AcDbEntity
  8
0
  6
Continuous
 62
     7
100
AcDbLine
 10
48.00000381469727
 20
-16.4999885559082
 30
0.0
 11
48.00000381469727
 21
20.19999694824219
 31
0.0
  0
LINE
  5
1A2
330
21
100
AcDbEntity
  8
0
  6
Continuous
 62
     7
100
AcDbLine
 10
8.000003814697263
 20
-24.0
 30
0.0
 11
13.00000381469726
 21
-24.0
 31
0.0
  0
LINE
  5
1A3
330
21
100
AcDbEntity
  8
0
  6
Continuous
 62
     7
100
AcDbLine
 10
8.000003814697263
 20
-24.0
 30
0.0
 11
8.000003814697263
 21
-22.44000053405761
 31
0.0
  0
LINE
  5
1A4
330
21
100
AcDbEntity
  8
0
  6
Continuous
 62
     7
100
AcDbLine
 10
14.00000381469726
 20
-23.0
 30
0.0
 11
14.00000381469726
 21
-20.50001525878907
 31
0.0
  0
LINE
  5
1A5
330
21
100
AcDbEntity
  8
0
  6
Continuous
 62
     7
100
AcDbLine
 10
6.000003814697264
 20
-22.39999961853027
 30
0.0
 11
6.000003814697264
 21
3.860988616943359
 31
0.0
  0
LINE
  5
1A6
330
21
100
AcDbEntity
  8
0
  6
Continuous
 62
     2
100
AcDbLine
 10
-0.9701385498046876
 20
-15.0
 30
0.0
 11
3.508277893066406
 21
-15.0
 31
0.0
  0
LINE
  5
1A7
330
21
100
AcDbEntity
  8
0
  6
Continuous
 62
     7
100
AcDbLine
 10
0.0
 20
-19.39999771118164
 30
0.0
 11
1.5
 21
-19.39999771118164
 31
0.0
  0
LINE
  5
1A8
330
21
100
AcDbEntity
  8
0
  6
Continuous
 62
     7
100
AcDbLine
 10
1.0
 20
-20.19999313354492
 30
0.0
 11
1.5
 21
-20.19999313354492
 31
0.0
  0
LINE
  5
1A9
330
21
100
AcDbEntity
  8
0
  6
Continuous
 62
     7
100
AcDbLine
 10
1.5
 20
18.58341217041016
 30
0.0
 11
1.5
 21
13.1310806274414
 31
0.0
  0
LINE
  5
1AA
330
21
100
AcDbEntity
  8
0
  6
Continuous
 62
     7
100
AcDbLine
 10
1.5
 20
-22.39999961853027
 30
0.0
 11
6.000003814697264
 21
-22.39999961853027
 31
0.0
  0
LINE
  5
1AB
330
21
100
AcDbEntity
  8
0
  6
Continuous
 62
     7
100
AcDbLine
 10
0.0
 20
-19.39999389648437
 30
0.0
 11
0.0
 21
-6.29998779296875
 31
0.0
  0
LINE
  5
1AC
330
21
100
AcDbEntity
  8
0
  6
Continuous
 62
     7
100
AcDbLine
 10
6.000003814697264
 20
-22.44000053405761
 30
0.0
 11
8.000003814697263
 21
-22.44000053405761
 31
0.0
  0
LINE
  5
1AD
330
21
100
AcDbEntity
  8
0
  6
Continuous
 62
     7
100
AcDbLine
 10
20.00000381469726
 20
-20.50001525878907
 30
0.0
 11
20.00000381469726
 21
-0.5825004577636719
 31
0.0
  0
LINE
  5
1AE
330
21
100
AcDbEntity
  8
0
  6
Continuous
 62
     7
100
AcDbLine
 10
20.00000381469726
 20
20.5
 30
0.0
 11
47.7000045776367
 21
20.5
 31
0.0
  0
LINE
  5
1AF
330
21
100
AcDbEntity
  8
0
  6
Continuous
 62
     7
100
AcDbLine
 10
13.00000381469726
 20
2.248466491699218
 30
0.0
 11
6.000003814697264
 21
2.248466491699218
 31
0.0
  0
LINE
  5
1B0
330
21
100
AcDbEntity
  8
0
  6
Continuous
 62
     7
100
AcDbLine
 10
13.00000381469726
 20
19.56897735595703
 30
0.0
 11
6.000003814697264
 21
19.56897735595703
 31
0.0
  0
LINE
  5
1B1
330
21
100
AcDbEntity
  8
0
  6
Continuous
 62
     7
100
AcDbLine
 10
8.000003814697263
 20
3.860988616943359
 30
0.0
 11
1.5
 21
3.860988616943359
 31
0.0
  0
LINE
  5
1B2
330
21
100
AcDbEntity
  8
0
  6
Continuous
 62
     7
100
AcDbLine
 10
8.000003814697263
 20
18.58341217041016
 30
0.0
 11
1.5
 21
18.58341217041016
 31
0.0
  0
LINE
  5
1B3
330
21
100
AcDbEntity
  8
0
  6
Continuous
 62
     7
100
AcDbLine
 10
8.000003814697263
 20
3.860988616943359
 30
0.0
 11
8.000003814697263
 21
18.58341217041016
 31
0.0
  0
LINE
  5
1B4
330
21
100
AcDbEntity
  8
0
  6
Continuous
 62
     7
100
AcDbLine
 10
6.000003814697264
 20
18.58341217041016
 30
0.0
 11
6.000003814697264
 21
19.56897735595703
 31
0.0
  0
LINE
  5
1B5
330
21
100
AcDbEntity
  8
0
  6
Continuous
 62
     7
100
AcDbLine
 10
4.500015258789063
 20
14.72219848632812
 30
0.0
 11
6.000015258789062
 21
14.72219848632812
 31
0.0
  0
LINE
  5
1B6
330
21
100
AcDbEntity
  8
0
  6
Continuous
 62
     7
100
AcDbLine
 10
4.500015258789063
 20
7.722217559814452
 30
0.0
 11
6.000015258789062
 21
7.722217559814452
 31
0.0
  0
LINE
  5
1B7
330
21
100
AcDbEntity
  8
0
  6
Continuous
 62
     7
100
AcDbLine
 10
1.5
 20
14.72219848632812
 30
0.0
 11
2.50000762939453
 21
14.72219848632812
 31
0.0
  0
LINE
  5
1B8
330
21
100
AcDbEntity
  8
0
  6
Continuous
 62
     7
100
AcDbLine
 10
1.5
 20
7.722217559814452
 30
0.0
 11
2.500015258789062
 21
7.722217559814452
 31
0.0
  0
LINE
  5
1B9
330
21
100
AcDbEntity
  8
0
  6
Continuous
 62
     7
100
AcDbLine
 10
6.000003814697264
 20
14.72219848632812
 30
0.0
 11
6.000003814697264
 21
7.722217559814452
 31
0.0
  0
LINE
  5
1BA
330
21
100
AcDbEntity
  8
0
  6
Continuous
 62
     7
100
AcDbLine
 10
1.0
 20
13.1310806274414
 30
0.0
 11
2.50000762939453
 21
13.1310806274414
 31
0.0
  0
LINE
  5
1BB
330
21
100
AcDbEntity
  8
0
  6
Continuous
 62
     7
100
AcDbLine
 10
4.500015258789063
 20
13.1310806274414
 30
0.0
 11
6.000015258789062
 21
13.1310806274414
 31
0.0
  0
LINE
  5
1BC
330
21
100
AcDbEntity
  8
0
  6
Continuous
 62
     7
100
AcDbLine
 10
4.500014362308519
 20
14.72220267361712
 30
0.0
 11
4.500014362308519
 21
13.13107718533587
 31
0.0
  0
LINE
  5
1BD
330
21
100
AcDbEntity
  8
0
  6
Continuous
 62
     7
100
AcDbLine
 10
2.500005274040248
 20
13.13107607160876
 30
0.0
 11
2.500005274040248
 21
14.72220155989001
 31
0.0
  0
LINE
  5
1BE
330
21
100
AcDbEntity
  8
0
  6
Continuous
 62
     7
100
AcDbLine
 10
1.5
 20
7.722217559814452
 30
0.0
 11
1.5
 21
-22.39999961853027
 31
0.0
  0
LINE
  5
1BF
330
21
100
AcDbEntity
  8
0
  6
Continuous
 62
     7
100
AcDbLine
 10
1.0
 20
7.068901062011718
 30
0.0
 11
1.0
 21
13.1310806274414
 31
0.0
  0
LINE
  5
1C0
330
21
100
AcDbEntity
  8
0
  6
Continuous
 62
     7
100
AcDbLine
 10
2.0
 20
-8.0
 30
0.0
 11
2.0
 21
-4.0
 31
0.0
  0
LINE
  5
1C1
330
21
100
AcDbEntity
  8
0
  6
Continuous
 62
     7
100
AcDbLine
 10
4.500003814697264
 20
-8.25
 30
0.0
 11
4.500003814697264
 21
-3.479408264160154
 31
0.0
  0
LINE
  5
1C2
330
21
100
AcDbEntity
  8
0
  6
Continuous
 62
     7
100
AcDbLine
 10
4.500003814697264
 20
-3.75
 30
0.0
 11
2.25
 21
-3.75
 31
0.0
  0
LINE
  5
1C3
330
21
100
AcDbEntity
  8
0
  6
Continuous
 62
     7
100
AcDbLine
 10
1.999999734602623
 20
-7.999999734602622
 30
0.0
 11
2.25
 21
-8.25
 31
0.0
  0
LINE
  5
1C4
330
21
100
AcDbEntity
  8
0
  6
Continuous
 62
     7
100
AcDbLine
 10
6.000003814697264
 20
-8.25
 30
0.0
 11
2.25
 21
-8.25
 31
0.0
  0
LINE
  5
1C5
330
21
100
AcDbEntity
  8
0
  6
Continuous
 62
     7
100
AcDbLine
 10
1.999999734602623
 20
-4.000000265397375
 30
0.0
 11
2.25
 21
-3.75
 31
0.0
  0
LINE
  5
1C6
330
21
100
AcDbEntity
  8
0
  6
Continuous
 62
     7
100
AcDbLine
 10
6.000003814697264
 20
-3.479408264160154
 30
0.0
 11
1.5
 21
-3.479408264160154
 31
0.0
  0
LINE
  5
1C7
330
21
100
AcDbEntity
  8
0
  6
Continuous
 62
     7
100
AcDbLine
 10
2.250000000000211
 20
-8.249999999999971
 30
0.0
 11
2.250000000000211
 21
-3.749999999999971
 31
0.0
  0
LINE
  5
1C8
330
21
100
AcDbEntity
  8
0
  6
Continuous
 62
     7
100
AcDbLine
 10
1.5
 20
-6.29998779296875
 30
0.0
 11
0.0
 21
-6.29998779296875
 31
0.0
  0
LINE
  5
1C9
330
21
100
AcDbEntity
  8
0
  6
Continuous
 62
     7
100
AcDbLine
 10
1.5
 20
-5.5
 30
0.0
 11
1.0
 21
-5.5
 31
0.0
  0
LINE
  5
1CA
330
21
100
AcDbEntity
  8
0
  6
Continuous
 62
     7
100
AcDbLine
 10
1.0
 20
-20.19999313354492
 30
0.0
 11
1.0
 21
-19.39999771118164
 31
0.0
  0
LINE
  5
1CB
330
21
100
AcDbEntity
  8
0
  6
Continuous
 62
     7
100
AcDbLine
 10
1.0
 20
-6.29998779296875
 30
0.0
 11
1.0
 21
-5.5
 31
0.0
  0
LINE
  5
1CC
330
21
100
AcDbEntity
  8
0
  6
Continuous
 62
     7
100
AcDbLine
 10
1.5
 20
-0.2810897827148438
 30
0.0
 11
1.0
 21
-0.2810897827148438
 31
0.0
  0
LINE
  5
1CD
330
21
100
AcDbEntity
  8
0
  6
Continuous
 62
     7
100
AcDbLine
 10
1.5
 20
0.1189041137695313
 30
0.0
 11
0.0
 21
0.1189041137695313
 31
0.0
  0
LINE
  5
1CE
330
21
100
AcDbEntity
  8
0
  6
Continuous
 62
     7
100
AcDbLine
 10
1.5
 20
6.668907165527342
 30
0.0
 11
0.0
 21
6.668907165527342
 31
0.0
  0
LINE
  5
1CF
330
21
100
AcDbEntity
  8
0
  6
Continuous
 62
     7
100
AcDbLine
 10
1.5
 20
7.068901062011718
 30
0.0
 11
1.0
 21
7.068901062011718
 31
0.0
  0
LINE
  5
1D0
330
21
100
AcDbEntity
  8
0
  6
Continuous
 62
     7
100
AcDbLine
 10
0.0
 20
0.1189041137695313
 30
0.0
 11
0.0
 21
12.73108673095703
 31
0.0
  0
LINE
  5
1D1
330
21
100
AcDbEntity
  8
0
  6
Continuous
 62
     7
100
AcDbLine
 10
1.0
 20
-0.2810897827148438
 30
0.0
 11
1.0
 21
0.1189041137695313
 31
0.0
  0
LINE
  5
1D2
330
21
100
AcDbEntity
  8
0
  6
Continuous
 62
     7
100
AcDbLine
 10
1.0
 20
12.73108673095703
 30
0.0
 11
0.0
 21
12.73108673095703
 31
0.0
  0
LINE
  5
1D3
330
21
100
AcDbEntity
  8
0
  6
Continuous
 62
     7
100
AcDbLine
 10
14.00000381469726
 20
-0.5825004577636719
 30
0.0
 11
14.00000381469726
 21
18.56897735595703
 31
0.0
  0
LINE
  5
1D4
330
21
100
AcDbEntity
  8
0
  6
Continuous
 62
     7
100
AcDbLine
 10
14.00000381469726
 20
-21.81744384765625
 30
0.0
 11
6.000003814697264
 21
-21.81744384765625
 31
0.0
  0
LINE
  5
1D5
330
21
100
AcDbEntity
  8
0
  6
Continuous
 62
     7
100
AcDbLine
 10
14.00000409948575
 20
-23.00000010008375
 30
0.0
 11
13.00000438659538
 21
-23.99999981297412
 31
0.0
  0
LINE
  5
1D6
330
21
100
AcDbEntity
  8
0
  6
Continuous
 62
     7
100
AcDbLine
 10
13.00000381469726
 20
-24.0
 30
0.0
 11
13.00000381469726
 21
-21.81744384765625
 31
0.0
  0
LINE
  5
1D7
330
21
100
AcDbEntity
  8
0
  6
Continuous
 62
     7
100
AcDbLine
 10
14.00000381469726
 20
18.56897735595703
 30
0.0
 11
13.00000381469726
 21
19.56897735595703
 31
0.0
  0
LINE
  5
1D8
330
21
100
AcDbEntity
  8
0
  6
Continuous
 62
     7
100
AcDbLine
 10
13.00000381469726
 20
2.248466491699218
 30
0.0
 11
13.00000381469726
 21
19.56897735595703
 31
0.0
  0
LINE
  5
1D9
330
21
100
AcDbEntity
  8
0
  6
Continuous
 62
     7
100
AcDbLine
 10
20.00000381469726
 20
-0.5825004577636719
 30
0.0
 11
14.00000381469726
 21
-0.5825004577636719
 31
0.0
  0
LINE
  5
1DA
330
21
100
AcDbEntity
  8
0
  6
Continuous
 62
     7
100
AcDbLine
 10
13.00000573529451
 20
2.248464911459449
 30
0.0
 11
14.00000679688401
 21
1.248463849869948
 31
0.0
  0
LINE
  5
1DB
330
21
100
AcDbEntity
  8
0
  6
Continuous
 62
     7
100
AcDbLine
 10
20.00000381469726
 20
16.73799896240234
 30
0.0
 11
14.00000381469726
 21
16.73799896240234
 31
0.0
  0
LINE
  5
1DC
330
21
100
AcDbEntity
  8
0
  6
Continuous
 62
     7
100
AcDbLine
 10
20.00000381469726
 20
16.73799896240234
 30
0.0
 11
20.00000381469726
 21
20.5
 31
0.0
  0
LINE
  5
1DD
330
21
100
AcDbEntity
  8
0
  6
Continuous
 62
     7
100
AcDbLine
 10
-1.699996948242186
 20
-8.5
 30
0.0
 11
-2.0
 21
-8.80000305175781
 31
0.0
  0
LINE
  5
1DE
330
21
100
AcDbEntity
  8
0
  6
Continuous
 62
     7
100
AcDbLine
 10
-1.699996948242186
 20
-8.5
 30
0.0
 11
0.0
 21
-8.5
 31
0.0
  0
LINE
  5
1DF
330
21
100
AcDbEntity
  8
0
  6
Continuous
 62
     7
100
AcDbLine
 10
-1.699996948242186
 20
-11.5
 30
0.0
 11
0.0
 21
-11.5
 31
0.0
  0
LINE
  5
1E0
330
21
100
AcDbEntity
  8
0
  6
Continuous
 62
     7
100
AcDbLine
 10
-1.699996948242186
 20
-11.5
 30
0.0
 11
-2.0
 21
-11.19999694824219
 31
0.0
  0
LINE
  5
1E1
330
21
100
AcDbEntity
  8
0
  6
Continuous
 62
     7
100
AcDbLine
 10
-1.699996948242186
 20
-11.5
 30
0.0
 11
-1.699996948242186
 21
-8.5
 31
0.0
  0
LINE
  5
1E2
330
21
100
AcDbEntity
  8
0
  6
Continuous
 62
     7
100
AcDbLine
 10
-2.0
 20
-8.80000305175781
 30
0.0
 11
-2.0
 21
-11.19999694824219
 31
0.0
  0
LINE
  5
1E3
330
21
100
AcDbEntity
  8
0
  6
Continuous
 62
     7
100
AcDbLine
 10
-1.699996948242186
 20
6.5
 30
0.0
 11
-2.0
 21
6.199996948242187
 31
0.0
  0
LINE
  5
1E4
330
21
100
AcDbEntity
  8
0
  6
Continuous
 62
     7
100
AcDbLine
 10
-1.699996948242186
 20
3.5
 30
0.0
 11
-2.0
 21
3.800003051757812
 31
0.0
  0
LINE
  5
1E5
330
21
100
AcDbEntity
  8
0
  6
Continuous
 62
     7
100
AcDbLine
 10
-2.0
 20
6.199996948242187
 30
0.0
 11
-2.0
 21
3.800003051757812
 31
0.0
  0
LINE
  5
1E6
330
21
100
AcDbEntity
  8
0
  6
Continuous
 62
     7
100
AcDbLine
 10
-1.699996948242186
 20
3.5
 30
0.0
 11
-1.699996948242186
 21
6.5
 31
0.0
  0
LINE
  5
1E7
330
21
100
AcDbEntity
  8
0
  6
Continuous
 62
     7
100
AcDbLine
 10
-1.699996948242186
 20
3.5
 30
0.0
 11
0.0
 21
3.5
 31
0.0
  0
LINE
  5
1E8
330
21
100
AcDbEntity
  8
0
  6
Continuous
 62
     7
100
AcDbLine
 10
-1.699996948242186
 20
6.5
 30
0.0
 11
0.0
 21
6.5
 31
0.0
  0
LINE
  5
1E9
330
21
100
AcDbEntity
  8
0
  6
Continuous
 62
     2
100
AcDbLine
 10
16.00001525878906
 20
-14.75000381469726
 30
0.0
 11
16.00001525878906
 21
-8.250003814697263
 31
0.0
  0
LINE
  5
1EA
330
21
100
AcDbEntity
  8
0
  6
Continuous
 62
     2
100
AcDbLine
 10
19.25001525878906
 20
-11.50000381469726
 30
0.0
 11
12.75001525878906
 21
-11.50000381469726
 31
0.0
  0
LINE
  5
1EB
330
21
100
AcDbEntity
  8
0
  6
Continuous
 62
     2
100
AcDbLine
 10
19.25001525878906
 20
-2.935844421386718
 30
0.0
 11
12.75001525878906
 21
-2.935844421386718
 31
0.0
  0
LINE
  5
1EC
330
21
100
AcDbEntity
  8
0
  6
Continuous
 62
     2
100
AcDbLine
 10
16.00001525878906
 20
-5.586433410644531
 30
0.0
 11
16.00001525878906
 21
-0.2852516174316406
 31
0.0
  0
LINE
  5
1ED
330
21
100
AcDbEntity
  8
0
  6
Continuous
 62
     7
100
AcDbLine
 10
21.50001525878908
 20
-20.50001525878907
 30
0.0
 11
14.00000381469726
 21
-20.50001525878907
 31
0.0
  0
LINE
  5
1EE
330
21
100
AcDbEntity
  8
0
  6
Continuous
 62
     7
100
AcDbLine
 10
48.00000582155178
 20
20.19999963507245
 30
0.0
 11
47.70000523333511
 21
20.50000022328913
 31
0.0
  0
LINE
  5
1EF
330
21
100
AcDbEntity
  8
0
  6
Continuous
 62
     7
100
AcDbLine
 10
21.50001525878908
 20
-18.29566192626953
 30
0.0
 11
20.00000381469726
 21
-18.29566192626953
 31
0.0
  0
LINE
  5
1F0
330
21
100
AcDbEntity
  8
0
  6
Continuous
 62
     7
100
AcDbLine
 10
21.50001525878908
 20
-20.18512725830078
 30
0.0
 11
20.00000381469726
 21
-20.18512725830078
 31
0.0
  0
LINE
  5
1F1
330
21
100
AcDbEntity
  8
0
  6
Continuous
 62
     7
100
AcDbLine
 10
21.50001525878908
 20
1.139110565185545
 30
0.0
 11
14.00000381469726
 21
1.139110565185545
 31
0.0
  0
LINE
  5
1F2
330
21
100
AcDbEntity
  8
0
  6
Continuous
 62
     7
100
AcDbLine
 10
21.50001525878908
 20
6.992790222167967
 30
0.0
 11
14.00000381469726
 21
6.992790222167967
 31
0.0
  0
LINE
  5
1F3
330
21
100
AcDbEntity
  8
0
  6
Continuous
 62
     7
100
AcDbLine
 10
21.50001525878908
 20
13.19228363037109
 30
0.0
 11
14.00000381469726
 21
13.19228363037109
 31
0.0
  0
LINE
  5
1F4
330
21
100
AcDbEntity
  8
0
  6
Continuous
 62
     7
100
AcDbLine
 10
21.50001525878908
 20
17.15651702880859
 30
0.0
 11
20.00000381469726
 21
17.15651702880859
 31
0.0
  0
LINE
  5
1F5
330
21
100
AcDbEntity
  8
0
  6
Continuous
 62
     7
100
AcDbLine
 10
47.7000045776367
 20
18.78567504882812
 30
0.0
 11
47.7000045776367
 21
20.5
 31
0.0
  0
LINE
  5
1F6
330
21
100
AcDbEntity
  8
0
  6
Continuous
 62
     7
100
AcDbLine
 10
47.7000045776367
 20
-16.4999885559082
 30
0.0
 11
47.7000045776367
 21
-2.285690307617187
 31
0.0
  0
LINE
  5
1F7
330
21
100
AcDbEntity
  8
0
  6
Continuous
 62
     7
100
AcDbLine
 10
21.50001525878908
 20
-2.285690307617187
 30
0.0
 11
21.50001525878908
 21
18.78567504882812
 31
0.0
  0
LINE
  5
1F8
330
21
100
AcDbEntity
  8
0
  6
Continuous
 62
     7
100
AcDbLine
 10
48.00000381469727
 20
-2.285690307617187
 30
0.0
 11
21.50001525878908
 21
-2.285690307617187
 31
0.0
  0
LINE
  5
1F9
330
21
100
AcDbEntity
  8
0
  6
Continuous
 62
     7
100
AcDbLine
 10
48.00000381469727
 20
18.78567504882812
 30
0.0
 11
21.50001525878908
 21
18.78567504882812
 31
0.0
  0
LINE
  5
1FA
330
21
100
AcDbEntity
  8
0
  6
Continuous
 62
     7
100
AcDbLine
 10
48.00000381469727
 20
-16.4999885559082
 30
0.0
 11
21.50001525878908
 21
-16.4999885559082
 31
0.0
  0
LINE
  5
1FB
330
21
100
AcDbEntity
  8
0
  6
Continuous
 62
     7
100
AcDbLine
 10
21.50001525878908
 20
-20.50001525878907
 30
0.0
 11
21.50001525878908
 21
-16.4999885559082
 31
0.0
  0
LINE
  5
1FC
330
21
100
AcDbEntity
  8
0
  6
Continuous
 62
     7
100
AcDbLine
 10
48.00000381469727
 20
10.41508865356445
 30
0.0
 11
24.00001525878908
 21
10.41508865356445
 31
0.0
  0
LINE
  5
1FD
330
21
100
AcDbEntity
  8
0
  6
Continuous
 62
     7
100
AcDbLine
 10
48.00000381469727
 20
6.084964752197264
 30
0.0
 11
24.00001525878908
 21
6.084964752197264
 31
0.0
  0
LINE
  5
1FE
330
21
100
AcDbEntity
  8
0
  6
Continuous
 62
     7
100
AcDbLine
 10
48.00000381469727
 20
9.665092468261716
 30
0.0
 11
24.00001525878908
 21
9.665092468261716
 31
0.0
  0
LINE
  5
1FF
330
21
100
AcDbEntity
  8
0
  6
Continuous
 62
     7
100
AcDbLine
 10
48.00000381469727
 20
8.885669708251953
 30
0.0
 11
24.00001525878908
 21
8.885669708251953
 31
0.0
  0
LINE
  5
200
330
21
100
AcDbEntity
  8
0
  6
Continuous
 62
     7
100
AcDbLine
 10
48.00000381469727
 20
6.114383697509764
 30
0.0
 11
23.98519325256348
 21
6.114383697509764
 31
0.0
  0
LINE
  5
201
330
21
100
AcDbEntity
  8
0
  6
Continuous
 62
     7
100
AcDbLine
 10
48.00000381469727
 20
8.346141815185545
 30
0.0
 11
24.00001525878908
 21
8.346141815185545
 31
0.0
  0
LINE
  5
202
330
21
100
AcDbEntity
  8
0
  6
Continuous
 62
     2
100
AcDbLine
 10
-3.746566772460937
 20
-10.0
 30
0.0
 11
5.751480102539062
 21
-9.999996185302734
 31
0.0
  0
LINE
  5
203
330
21
100
AcDbEntity
  8
0
  6
Continuous
 62
     2
100
AcDbLine
 10
-3.746566772460937
 20
5.0
 30
0.0
 11
1.5
 21
5.0
 31
0.0
  0
LINE
  5
204
330
21
100
AcDbEntity
  8
0
  6
CENTER
 62
     2
100
AcDbLine
 10
-3.746566772460937
 20
0.0
 30
0.0
 11
51.00000381469727
 21
0.0
 31
0.0
  0
ENDBLK
  5
205
330
21
100
AcDbEntity
  8
0
100
AcDbBlockEnd
  0
BLOCK
  5
206
330
22
100
AcDbEntity
  8
0
100
AcDbBlockBegin
  2
NHE1D-16-5
 70
     0
 10
0.0
 20
0.0
 30
0.0
  3
NHE1D-16-5
  1

  0
LINE
  5
207
330
22
100
AcDbEntity
  8
0
  6
Continuous
 62
     7
100
AcDbLine
 10
15.50000000476837
 20
-3.799999522346452
 30
0.0
 11
19.25346420800161
 21
-3.799999522346452
 31
0.0
  0
LINE
  5
208
330
22
100
AcDbEntity
  8
0
  6
Continuous
 62
     7
100
AcDbLine
 10
15.50000000476837
 20
-1.199999522346445
 30
0.0
 11
17.75230947359051
 21
-1.199999522346445
 31
0.0
  0
LINE
  5
209
330
22
100
AcDbEntity
  8
0
  6
Continuous
 62
     7
100
AcDbLine
 10
0.0
 20
0.0
 30
0.0
 11
15.50000000476837
 21
0.0
 31
0.0
  0
LINE
  5
20A
330
22
100
AcDbEntity
  8
0
  6
Continuous
 62
     7
100
AcDbLine
 10
0.0
 20
-0.5499999965940106
 30
0.0
 11
15.50000000476837
 21
-0.5499999965940106
 31
0.0
  0
LINE
  5
20B
330
22
100
AcDbEntity
  8
0
  6
Continuous
 62
     7
100
AcDbLine
 10
0.0
 20
-1.100000002724782
 30
0.0
 11
15.50000000476837
 21
-1.100000002724782
 31
0.0
  0
LINE
  5
20C
330
22
100
AcDbEntity
  8
0
  6
Continuous
 62
     7
100
AcDbLine
 10
0.0
 20
-2.600000002724784
 30
0.0
 11
4.0
 21
-2.600000002724784
 31
0.0
  0
LINE
  5
20D
330
22
100
AcDbEntity
  8
0
  6
Continuous
 62
     7
100
AcDbLine
 10
0.0
 20
-1.800000002724772
 30
0.0
 11
4.300000003405954
 21
-1.800000002724772
 31
0.0
  0
LINE
  5
20E
330
22
100
AcDbEntity
  8
0
  6
Continuous
 62
     7
100
AcDbLine
 10
4.300000003405954
 20
-4.59999952234645
 30
0.0
 11
15.5
 21
-4.59999952234645
 31
0.0
  0
LINE
  5
20F
330
22
100
AcDbEntity
  8
0
  6
Continuous
 62
     7
100
AcDbLine
 10
15.50000000476837
 20
-4.59999952234645
 30
0.0
 11
15.50000000476837
 21
0.0
 31
0.0
  0
LINE
  5
210
330
22
100
AcDbEntity
  8
0
  6
Continuous
 62
     7
100
AcDbLine
 10
4.300000004768376
 20
-1.800000002724772
 30
0.0
 11
4.300000004768376
 21
-4.59999952234645
 31
0.0
  0
LINE
  5
211
330
22
100
AcDbEntity
  8
0
  6
Continuous
 62
     7
100
AcDbLine
 10
3.251428576196928
 20
-2.599864002724785
 30
0.0
 11
3.251428576196928
 21
-3.899864002724783
 31
0.0
  0
LINE
  5
212
330
22
100
AcDbEntity
  8
0
  6
Continuous
 62
     7
100
AcDbLine
 10
3.251428576196928
 20
-3.899864002724783
 30
0.0
 11
2.751428576196929
 21
-4.399864002724783
 31
0.0
  0
LINE
  5
213
330
22
100
AcDbEntity
  8
0
  6
Continuous
 62
     7
100
AcDbLine
 10
1.251428576196927
 20
-4.399864002724783
 30
0.0
 11
2.751428576196929
 21
-4.399864002724783
 31
0.0
  0
LINE
  5
214
330
22
100
AcDbEntity
  8
0
  6
Continuous
 62
     7
100
AcDbLine
 10
1.251428576196927
 20
-4.399864002724783
 30
0.0
 11
0.7514285761969292
 21
-3.899864002724783
 31
0.0
  0
LINE
  5
215
330
22
100
AcDbEntity
  8
0
  6
Continuous
 62
     2
100
AcDbLine
 10
0.7514285761969292
 20
-3.899864002724783
 30
0.0
 11
3.251428576196928
 21
-3.899864002724783
 31
0.0
  0
LINE
  5
216
330
22
100
AcDbEntity
  8
0
  6
Continuous
 62
     7
100
AcDbLine
 10
0.7514285761969292
 20
-2.599864002724785
 30
0.0
 11
0.7514285761969292
 21
-3.899864002724783
 31
0.0
  0
LINE
  5
217
330
22
100
AcDbEntity
  8
0
  6
Continuous
 62
     7
100
AcDbLine
 10
0.000000004768367
 20
-1.799864002724774
 30
0.0
 11
0.000000004768367
 21
-2.600000002724784
 31
0.0
  0
LINE
  5
218
330
22
100
AcDbEntity
  8
0
  6
Continuous
 62
     7
100
AcDbLine
 10
4.000000004768367
 20
-1.800000002724772
 30
0.0
 11
4.000000004768367
 21
-2.600000002724784
 31
0.0
  0
LINE
  5
219
330
22
100
AcDbEntity
  8
0
  6
Continuous
 62
     2
100
AcDbLine
 10
2.000000004768367
 20
1.286482308440184
 30
0.0
 11
2.000000004768367
 21
-5.067036249354087
 31
0.0
  0
LINE
  5
21A
330
22
100
AcDbEntity
  8
0
  6
Continuous
 62
     7
100
AcDbLine
 10
0.000000004768367
 20
-1.799864002724774
 30
0.0
 11
0.000000004768367
 21
0.0
 31
0.0
  0
LINE
  5
21B
330
22
100
AcDbEntity
  8
0
  6
Continuous
 62
     7
100
AcDbLine
 10
0.9514285761969174
 20
0.6001359972752312
 30
0.0
 11
3.051428576196939
 21
0.6001359972752312
 31
0.0
  0
LINE
  5
21C
330
22
100
AcDbEntity
  8
0
  6
Continuous
 62
     2
100
AcDbLine
 10
3.050000004768377
 20
-2.599864002724785
 30
0.0
 11
3.050000004768377
 21
-4.101292574153346
 31
0.0
  0
LINE
  5
21D
330
22
100
AcDbEntity
  8
0
  6
Continuous
 62
     2
100
AcDbLine
 10
0.9500000047683554
 20
-2.599864002724785
 30
0.0
 11
0.9500000047683554
 21
-4.098435431296208
 31
0.0
  0
LINE
  5
21E
330
22
100
AcDbEntity
  8
0
  6
Continuous
 62
     7
100
AcDbLine
 10
0.7514285761969292
 20
0.0
 30
0.0
 11
0.7514285761969292
 21
0.4001359972752141
 31
0.0
  0
LINE
  5
21F
330
22
100
AcDbEntity
  8
0
  6
Continuous
 62
     7
100
AcDbLine
 10
3.251428576196928
 20
0.4001359972752141
 30
0.0
 11
3.251428576196928
 21
0.0
 31
0.0
  0
LINE
  5
220
330
22
100
AcDbEntity
  8
0
  6
Continuous
 62
     7
100
AcDbLine
 10
0.7514285761969292
 20
0.4001359972752141
 30
0.0
 11
0.9514285761969174
 21
0.6001359972752312
 31
0.0
  0
LINE
  5
221
330
22
100
AcDbEntity
  8
0
  6
Continuous
 62
     7
100
AcDbLine
 10
3.051428576196939
 20
0.6001359972752312
 30
0.0
 11
3.251428576196928
 21
0.4001359972752141
 31
0.0
  0
LINE
  5
222
330
22
100
AcDbEntity
  8
0
  6
Continuous
 62
     7
100
AcDbLine
 10
0.7514285761969292
 20
0.4001359972752141
 30
0.0
 11
3.251428576196928
 21
0.4001359972752141
 31
0.0
  0
LINE
  5
223
330
22
100
AcDbEntity
  8
0
  6
Continuous
 62
     2
100
AcDbLine
 10
3.050000004768377
 20
0.6001359972752312
 30
0.0
 11
3.050000004768377
 21
0.0
 31
0.0
  0
LINE
  5
224
330
22
100
AcDbEntity
  8
0
  6
Continuous
 62
     2
100
AcDbLine
 10
0.9500000047683554
 20
0.6001359972752312
 30
0.0
 11
0.9500000047683554
 21
0.0
 31
0.0
  0
LINE
  5
225
330
22
100
AcDbEntity
  8
0
  6
Continuous
 62
     2
100
AcDbLine
 10
17.25000000476837
 20
-0.3299995223464407
 30
0.0
 11
19.75000000476837
 21
-4.659999522346453
 31
0.0
  0
ENDBLK
  5
226
330
22
100
AcDbEntity
  8
0
100
AcDbBlockEnd
  0
BLOCK
  5
227
330
23
100
AcDbEntity
  8
0
100
AcDbBlockBegin
  2
NHE1D-16-6
 70
     0
 10
0.0
 20
0.0
 30
0.0
  3
NHE1D-16-6
  1

  0
LINE
  5
228
330
23
100
AcDbEntity
  8
0
  6
Continuous
 62
     2
100
AcDbLine
 10
1.05000000000001
 20
0.0
 30
0.0
 11
1.05000000000001
 21
0.6001360000000063
 31
0.0
  0
LINE
  5
229
330
23
100
AcDbEntity
  8
0
  6
Continuous
 62
     2
100
AcDbLine
 10
-1.05000000000001
 20
0.0
 30
0.0
 11
-1.05000000000001
 21
0.6001360000000063
 31
0.0
  0
LINE
  5
22A
330
23
100
AcDbEntity
  8
0
  6
Continuous
 62
     2
100
AcDbLine
 10
1.05000000000001
 20
-4.097006857142856
 30
0.0
 11
1.05000000000001
 21
-2.600000000000008
 31
0.0
  0
LINE
  5
22B
330
23
100
AcDbEntity
  8
0
  6
Continuous
 62
     2
100
AcDbLine
 10
-1.05000000000001
 20
-4.097006857142856
 30
0.0
 11
-1.05000000000001
 21
-2.600000000000008
 31
0.0
  0
LINE
  5
22C
330
23
100
AcDbEntity
  8
0
  6
Continuous
 62
     7
100
AcDbLine
 10
-1.25
 20
0.4001359999999893
 30
0.0
 11
-1.05000000000001
 21
0.6001360000000063
 31
0.0
  0
LINE
  5
22D
330
23
100
AcDbEntity
  8
0
  6
Continuous
 62
     7
100
AcDbLine
 10
-1.25
 20
0.0
 30
0.0
 11
-1.25
 21
0.4001359999999893
 31
0.0
  0
LINE
  5
22E
330
23
100
AcDbEntity
  8
0
  6
Continuous
 62
     7
100
AcDbLine
 10
-2.05000000000001
 20
-1.100000000000008
 30
0.0
 11
-2.05000000000001
 21
-2.548435428571437
 31
0.0
  0
LINE
  5
22F
330
23
100
AcDbEntity
  8
0
  6
Continuous
 62
     7
100
AcDbLine
 10
-2.05000000000001
 20
-1.100000000000008
 30
0.0
 11
-1.50142857142856
 21
-0.5485714285714352
 31
0.0
  0
LINE
  5
230
330
23
100
AcDbEntity
  8
0
  6
Continuous
 62
     7
100
AcDbLine
 10
-1.25
 20
-2.600000000000008
 30
0.0
 11
-1.25
 21
-3.897006857142855
 31
0.0
  0
LINE
  5
231
330
23
100
AcDbEntity
  8
0
  6
Continuous
 62
     7
100
AcDbLine
 10
-1.5
 20
-0.5471354166666771
 30
0.0
 11
-1.5
 21
0.0000000027247751
 31
0.0
  0
LINE
  5
232
330
23
100
AcDbEntity
  8
0
  6
Continuous
 62
     7
100
AcDbLine
 10
1.05000000000001
 20
0.6001360000000063
 30
0.0
 11
1.25
 21
0.4001359999999893
 31
0.0
  0
LINE
  5
233
330
23
100
AcDbEntity
  8
0
  6
Continuous
 62
     7
100
AcDbLine
 10
1.25
 20
0.4001359999999893
 30
0.0
 11
1.25
 21
0.0
 31
0.0
  0
LINE
  5
234
330
23
100
AcDbEntity
  8
0
  6
Continuous
 62
     7
100
AcDbLine
 10
2.05000000000001
 20
-1.100000000000008
 30
0.0
 11
2.05000000000001
 21
-2.548435428571437
 31
0.0
  0
LINE
  5
235
330
23
100
AcDbEntity
  8
0
  6
Continuous
 62
     7
100
AcDbLine
 10
1.25
 20
-2.599864000000009
 30
0.0
 11
1.25
 21
-3.897006857142855
 31
0.0
  0
LINE
  5
236
330
23
100
AcDbEntity
  8
0
  6
Continuous
 62
     7
100
AcDbLine
 10
1.5
 20
-0.5499999999999972
 30
0.0
 11
1.5
 21
0.0000000027247751
 31
0.0
  0
LINE
  5
237
330
23
100
AcDbEntity
  8
0
  6
Continuous
 62
     7
100
AcDbLine
 10
1.499999993869265
 20
-0.5499999938692355
 30
0.0
 11
2.05000000000001
 21
-1.100000000000008
 31
0.0
  0
LINE
  5
238
330
23
100
AcDbEntity
  8
0
  6
Continuous
 62
     7
100
AcDbLine
 10
-2.05000000000001
 20
-2.600000000000008
 30
0.0
 11
2.049390723326041
 21
-2.600000000000008
 31
0.0
  0
LINE
  5
239
330
23
100
AcDbEntity
  8
0
  6
Continuous
 62
     7
100
AcDbLine
 10
-2.05000000000001
 20
-1.799999999999996
 30
0.0
 11
2.05000000000001
 21
-1.799999999999996
 31
0.0
  0
LINE
  5
23A
330
23
100
AcDbEntity
  8
0
  6
Continuous
 62
     7
100
AcDbLine
 10
-1.25
 20
-3.897006857142855
 30
0.0
 11
1.25
 21
-3.897006857142855
 31
0.0
  0
LINE
  5
23B
330
23
100
AcDbEntity
  8
0
  6
Continuous
 62
     7
100
AcDbLine
 10
-1.50142857142856
 20
0.0
 30
0.0
 11
1.5
 21
0.0
 31
0.0
  0
LINE
  5
23C
330
23
100
AcDbEntity
  8
0
  6
Continuous
 62
     7
100
AcDbLine
 10
-1.25
 20
0.4001359999999893
 30
0.0
 11
1.25
 21
0.4001359999999893
 31
0.0
  0
LINE
  5
23D
330
23
100
AcDbEntity
  8
0
  6
Continuous
 62
     7
100
AcDbLine
 10
-1.05000000000001
 20
0.6001360000000063
 30
0.0
 11
1.05000000000001
 21
0.6001360000000063
 31
0.0
  0
LINE
  5
23E
330
23
100
AcDbEntity
  8
0
  6
Continuous
 62
     7
100
AcDbLine
 10
1.25
 20
-3.897006857142855
 30
0.0
 11
0.747142857142876
 21
-4.399864000000006
 31
0.0
  0
ARC
  5
23F
330
23
100
AcDbEntity
  8
0
  6
Continuous
 62
     7
100
AcDbCircle
 10
0.0
 20
-2.549998923398334
 30
0.0
 40
2.050000596223346
100
AcDbArc
 50
179.9563015362348
 51
359.9999998959213
  0
LINE
  5
240
330
23
100
AcDbEntity
  8
0
  6
Continuous
 62
     2
100
AcDbLine
 10
0.0
 20
-5.067036246629313
 30
0.0
 11
0.0
 21
1.286482311164958
 31
0.0
  0
LINE
  5
241
330
23
100
AcDbEntity
  8
0
  6
Continuous
 62
     7
100
AcDbLine
 10
-0.7471428571428193
 20
-4.399864000000006
 30
0.0
 11
-1.25
 21
-3.897006857142855
 31
0.0
  0
ENDBLK
  5
242
330
23
100
AcDbEntity
  8
0
100
AcDbBlockEnd
  0
BLOCK
  5
243
330
24
100
AcDbEntity
  8
0
100
AcDbBlockBegin
  2
NHE1D-16-7
 70
     0
 10
0.0
 20
0.0
 30
0.0
  3
NHE1D-16-7
  1

  0
LINE
  5
244
330
24
100
AcDbEntity
  8
0
  6
Continuous
 62
     2
100
AcDbLine
 10
0.0
 20
-5.067036246629313
 30
0.0
 11
0.0
 21
1.286482311164958
 31
0.0
  0
ARC
  5
245
330
24
100
AcDbEntity
  8
0
  6
Continuous
 62
     7
100
AcDbCircle
 10
0.0
 20
-2.549998923398334
 30
0.0
 40
2.050000596223346
100
AcDbArc
 50
180.0000001040787
 51
0.0436984637651909
  0
LINE
  5
246
330
24
100
AcDbEntity
  8
0
  6
Continuous
 62
     7
100
AcDbLine
 10
1.05000000000001
 20
0.6001360000000063
 30
0.0
 11
-1.05000000000001
 21
0.6001360000000063
 31
0.0
  0
LINE
  5
247
330
24
100
AcDbEntity
  8
0
  6
Continuous
 62
     7
100
AcDbLine
 10
1.25
 20
0.4001359999999893
 30
0.0
 11
-1.25
 21
0.4001359999999893
 31
0.0
  0
LINE
  5
248
330
24
100
AcDbEntity
  8
0
  6
Continuous
 62
     7
100
AcDbLine
 10
1.50142857142856
 20
0.0
 30
0.0
 11
-1.5
 21
0.0
 31
0.0
  0
LINE
  5
249
330
24
100
AcDbEntity
  8
0
  6
Continuous
 62
     7
100
AcDbLine
 10
-1.499999993869265
 20
-0.5499999938692355
 30
0.0
 11
-2.05000000000001
 21
-1.100000000000008
 31
0.0
  0
LINE
  5
24A
330
24
100
AcDbEntity
  8
0
  6
Continuous
 62
     7
100
AcDbLine
 10
-1.5
 20
-0.5499999999999972
 30
0.0
 11
-1.5
 21
0.0000000027247751
 31
0.0
  0
LINE
  5
24B
330
24
100
AcDbEntity
  8
0
  6
Continuous
 62
     7
100
AcDbLine
 10
-2.05000000000001
 20
-1.100000000000008
 30
0.0
 11
-2.05000000000001
 21
-2.548435428571437
 31
0.0
  0
LINE
  5
24C
330
24
100
AcDbEntity
  8
0
  6
Continuous
 62
     7
100
AcDbLine
 10
-1.25
 20
0.4001359999999893
 30
0.0
 11
-1.25
 21
0.0
 31
0.0
  0
LINE
  5
24D
330
24
100
AcDbEntity
  8
0
  6
Continuous
 62
     7
100
AcDbLine
 10
-1.05000000000001
 20
0.6001360000000063
 30
0.0
 11
-1.25
 21
0.4001359999999893
 31
0.0
  0
LINE
  5
24E
330
24
100
AcDbEntity
  8
0
  6
Continuous
 62
     7
100
AcDbLine
 10
1.5
 20
-0.5471354166666771
 30
0.0
 11
1.5
 21
0.0000000027247751
 31
0.0
  0
LINE
  5
24F
330
24
100
AcDbEntity
  8
0
  6
Continuous
 62
     7
100
AcDbLine
 10
2.05000000000001
 20
-1.100000000000008
 30
0.0
 11
1.50142857142856
 21
-0.5485714285714352
 31
0.0
  0
LINE
  5
250
330
24
100
AcDbEntity
  8
0
  6
Continuous
 62
     7
100
AcDbLine
 10
2.05000000000001
 20
-1.100000000000008
 30
0.0
 11
2.05000000000001
 21
-2.548435428571437
 31
0.0
  0
LINE
  5
251
330
24
100
AcDbEntity
  8
0
  6
Continuous
 62
     7
100
AcDbLine
 10
1.25
 20
0.0
 30
0.0
 11
1.25
 21
0.4001359999999893
 31
0.0
  0
LINE
  5
252
330
24
100
AcDbEntity
  8
0
  6
Continuous
 62
     7
100
AcDbLine
 10
1.25
 20
0.4001359999999893
 30
0.0
 11
1.05000000000001
 21
0.6001360000000063
 31
0.0
  0
LINE
  5
253
330
24
100
AcDbEntity
  8
0
  6
Continuous
 62
     2
100
AcDbLine
 10
1.05000000000001
 20
0.0
 30
0.0
 11
1.05000000000001
 21
0.6001360000000063
 31
0.0
  0
LINE
  5
254
330
24
100
AcDbEntity
  8
0
  6
Continuous
 62
     2
100
AcDbLine
 10
-1.05000000000001
 20
0.0
 30
0.0
 11
-1.05000000000001
 21
0.6001360000000063
 31
0.0
  0
CIRCLE
  5
255
330
24
100
AcDbEntity
  8
0
  6
Continuous
 62
     7
100
AcDbCircle
 10
0.0
 20
-2.499999519621651
 30
0.0
 40
1.3
  0
CIRCLE
  5
256
330
24
100
AcDbEntity
  8
0
  6
Continuous
 62
     7
100
AcDbCircle
 10
0.0
 20
-3.149999522346361
 30
0.0
 40
0.29
  0
CIRCLE
  5
257
330
24
100
AcDbEntity
  8
0
  6
Continuous
 62
     7
100
AcDbCircle
 10
0.0
 20
-1.849999516896943
 30
0.0
 40
0.29
  0
CIRCLE
  5
258
330
24
100
AcDbEntity
  8
0
  6
Continuous
 62
     7
100
AcDbCircle
 10
0.0
 20
-3.149999522346361
 30
0.0
 40
0.5
  0
CIRCLE
  5
259
330
24
100
AcDbEntity
  8
0
  6
Continuous
 62
     7
100
AcDbCircle
 10
0.0
 20
-1.849999516896943
 30
0.0
 40
0.5
  0
ENDBLK
  5
25A
330
24
100
AcDbEntity
  8
0
100
AcDbBlockEnd
  0
BLOCK
  5
25B
330
25
100
AcDbEntity
  8
0
100
AcDbBlockBegin
  2
NHE1D-16-8
 70
     0
 10
0.0
 20
0.0
 30
0.0
  3
NHE1D-16-8
  1

  0
LINE
  5
25C
330
25
100
AcDbEntity
  8
0
  6
Continuous
 62
     7
100
AcDbLine
 10
0.0
 20
-2.049999999999995
 30
0.0
 11
15.50000000476837
 21
-2.049999999999995
 31
0.0
  0
LINE
  5
25D
330
25
100
AcDbEntity
  8
0
  6
Continuous
 62
     7
100
AcDbLine
 10
0.0
 20
2.05000000000001
 30
0.0
 11
15.50000000476837
 21
2.05000000000001
 31
0.0
  0
LINE
  5
25E
330
25
100
AcDbEntity
  8
0
  6
Continuous
 62
     7
100
AcDbLine
 10
8.000000004768367
 20
-0.5999999999999944
 30
0.0
 11
9.600000004768386
 21
-0.5999999999999944
 31
0.0
  0
LINE
  5
25F
330
25
100
AcDbEntity
  8
0
  6
Continuous
 62
     7
100
AcDbLine
 10
8.000000004768367
 20
0.9000000000000055
 30
0.0
 11
9.600000004768386
 21
0.9000000000000055
 31
0.0
  0
LINE
  5
260
330
25
100
AcDbEntity
  8
0
  6
Continuous
 62
     7
100
AcDbLine
 10
1.310751318931579
 20
-1.042802072252555
 30
0.0
 11
3.042802112443098
 21
0.6892487212589913
 31
0.0
  0
LINE
  5
261
330
25
100
AcDbEntity
  8
0
  6
Continuous
 62
     7
100
AcDbLine
 10
0.9571978986753608
 20
-0.6892486978790089
 30
0.0
 11
2.689248702647375
 21
1.042802106093033
 31
0.0
  0
CIRCLE
  5
262
330
25
100
AcDbEntity
  8
0
  6
Continuous
 62
     2
100
AcDbCircle
 10
2.000000004768367
 20
0.0
 30
0.0
 40
1.05
  0
CIRCLE
  5
263
330
25
100
AcDbEntity
  8
0
  6
Continuous
 62
     7
100
AcDbCircle
 10
2.000000004768367
 20
0.0
 30
0.0
 40
1.25
  0
CIRCLE
  5
264
330
25
100
AcDbEntity
  8
0
  6
Continuous
 62
     7
100
AcDbCircle
 10
2.000000004768367
 20
0.0
 30
0.0
 40
1.399999999999999
  0
LINE
  5
265
330
25
100
AcDbEntity
  8
0
  6
Continuous
 62
     7
100
AcDbLine
 10
0.0
 20
-1.5
 30
0.0
 11
15.50000000476837
 21
-1.5
 31
0.0
  0
LINE
  5
266
330
25
100
AcDbEntity
  8
0
  6
Continuous
 62
     7
100
AcDbLine
 10
0.0
 20
1.5
 30
0.0
 11
15.50000000476837
 21
1.5
 31
0.0
  0
LINE
  5
267
330
25
100
AcDbEntity
  8
0
  6
Continuous
 62
     7
100
AcDbLine
 10
15.50000000476837
 20
-2.049999999999995
 30
0.0
 11
15.50000000476837
 21
2.05000000000001
 31
0.0
  0
LINE
  5
268
330
25
100
AcDbEntity
  8
0
  6
Continuous
 62
     7
100
AcDbLine
 10
0.0
 20
-2.049999999999995
 30
0.0
 11
0.0
 21
2.05000000000001
 31
0.0
  0
LINE
  5
269
330
25
100
AcDbEntity
  8
0
  6
Continuous
 62
     7
100
AcDbLine
 10
9.600000004768386
 20
-0.5999999999999944
 30
0.0
 11
9.600000004768386
 21
0.9000000000000055
 31
0.0
  0
LINE
  5
26A
330
25
100
AcDbEntity
  8
0
  6
Continuous
 62
     7
100
AcDbLine
 10
8.000000004768367
 20
-0.5999999999999944
 30
0.0
 11
8.000000004768367
 21
0.9000000000000055
 31
0.0
  0
LINE
  5
26B
330
25
100
AcDbEntity
  8
0
  6
Continuous
 62
     7
100
AcDbLine
 10
10.40000000476834
 20
-1.5
 30
0.0
 11
10.40000000476834
 21
1.5
 31
0.0
  0
LINE
  5
26C
330
25
100
AcDbEntity
  8
0
  6
Continuous
 62
     7
100
AcDbLine
 10
3.900000004768342
 20
-1.5
 30
0.0
 11
3.900000004768342
 21
1.5
 31
0.0
  0
LINE
  5
26D
330
25
100
AcDbEntity
  8
0
  6
Continuous
 62
     2
100
AcDbLine
 10
2.000000004768367
 20
2.942857142857149
 30
0.0
 11
2.000000004768367
 21
-3.299984673423466
 31
0.0
  0
LINE
  5
26E
330
25
100
AcDbEntity
  8
0
  6
Continuous
 62
     7
100
AcDbLine
 10
15.50000000476837
 20
1.30000000000001
 30
0.0
 11
17.75230947359051
 21
1.30000000000001
 31
0.0
  0
LINE
  5
26F
330
25
100
AcDbEntity
  8
0
  6
Continuous
 62
     7
100
AcDbLine
 10
15.50000000476837
 20
-1.299999999999996
 30
0.0
 11
19.25346420800161
 21
-1.299999999999996
 31
0.0
  0
LINE
  5
270
330
25
100
AcDbEntity
  8
0
  6
Continuous
 62
     2
100
AcDbLine
 10
17.25000000476837
 20
2.170000000000015
 30
0.0
 11
19.75000000476837
 21
-2.159999999999995
 31
0.0
  0
LINE
  5
271
330
25
100
AcDbEntity
  8
0
  6
Continuous
 62
     2
100
AcDbLine
 10
-1.410401753016856
 20
0.0
 30
0.0
 11
21.50288684079606
 21
0.0
 31
0.0
  0
ENDBLK
  5
272
330
25
100
AcDbEntity
  8
0
100
AcDbBlockEnd
  0
BLOCK
  5
273
330
26
100
AcDbEntity
  8
0
100
AcDbBlockBegin
  2
NHE1D-16-9
 70
     0
 10
0.0
 20
0.0
 30
0.0
  3
NHE1D-16-9
  1

  0
LINE
  5
274
330
26
100
AcDbEntity
  8
0
  6
Continuous
 62
     7
100
AcDbLine
 10
10.40000001021792
 20
1.497976233536533
 30
0.0
 11
15.00000000476837
 21
1.497976233536533
 31
0.0
  0
LINE
  5
275
330
26
100
AcDbEntity
  8
0
  6
Continuous
 62
     7
100
AcDbLine
 10
10.39999999318803
 20
0.9479762301305639
 30
0.0
 11
15.0
 21
0.9479762301305639
 31
0.0
  0
LINE
  5
276
330
26
100
AcDbEntity
  8
0
  6
Continuous
 62
     7
100
AcDbLine
 10
0.0
 20
-0.5500000000000114
 30
0.0
 11
15.00000000476837
 21
-0.5500000000000114
 31
0.0
  0
LINE
  5
277
330
26
100
AcDbEntity
  8
0
  6
Continuous
 62
     7
100
AcDbLine
 10
0.0
 20
-1.100000008256414
 30
0.0
 11
15.0
 21
-1.100000008256414
 31
0.0
  0
LINE
  5
278
330
26
100
AcDbEntity
  8
0
  6
Continuous
 62
     7
100
AcDbLine
 10
0.0
 20
-2.600000000000008
 30
0.0
 11
4.0
 21
-2.600000000000008
 31
0.0
  0
LINE
  5
279
330
26
100
AcDbEntity
  8
0
  6
Continuous
 62
     7
100
AcDbLine
 10
0.000000004768367
 20
-1.800000000000011
 30
0.0
 11
4.300000004768376
 21
-1.800000000000011
 31
0.0
  0
LINE
  5
27A
330
26
100
AcDbEntity
  8
0
  6
Continuous
 62
     7
100
AcDbLine
 10
0.0
 20
0.0
 30
0.0
 11
15.0
 21
0.0
 31
0.0
  0
LINE
  5
27B
330
26
100
AcDbEntity
  8
0
  6
Continuous
 62
     7
100
AcDbLine
 10
4.300000003405954
 20
-4.600000000000007
 30
0.0
 11
15.0
 21
-4.600000000000007
 31
0.0
  0
LINE
  5
27C
330
26
100
AcDbEntity
  8
0
  6
Continuous
 62
     7
100
AcDbLine
 10
13.80000000476838
 20
5.897976315961243
 30
0.0
 11
13.80000000476838
 21
9.645666847139079
 31
0.0
  0
LINE
  5
27D
330
26
100
AcDbEntity
  8
0
  6
Continuous
 62
     7
100
AcDbLine
 10
11.20000000476835
 20
5.897976315961243
 30
0.0
 11
11.20000000476835
 21
8.14451211272798
 31
0.0
  0
LINE
  5
27E
330
26
100
AcDbEntity
  8
0
  6
Continuous
 62
     7
100
AcDbLine
 10
15.00000000476837
 20
-4.600000000000007
 30
0.0
 11
15.00000000476837
 21
4.897976315961243
 31
0.0
  0
LINE
  5
27F
330
26
100
AcDbEntity
  8
0
  6
Continuous
 62
     7
100
AcDbLine
 10
4.300000004768376
 20
-1.800000000000011
 30
0.0
 11
4.300000004768376
 21
-4.600000000000007
 31
0.0
  0
LINE
  5
280
330
26
100
AcDbEntity
  8
0
  6
Continuous
 62
     7
100
AcDbLine
 10
3.251428576196928
 20
-2.602023684038754
 30
0.0
 11
3.251428576196928
 21
-3.902023684038751
 31
0.0
  0
LINE
  5
281
330
26
100
AcDbEntity
  8
0
  6
Continuous
 62
     7
100
AcDbLine
 10
3.251428576196928
 20
-3.902023684038751
 30
0.0
 11
2.751428576196929
 21
-4.402023684038751
 31
0.0
  0
LINE
  5
282
330
26
100
AcDbEntity
  8
0
  6
Continuous
 62
     7
100
AcDbLine
 10
1.251428576196927
 20
-4.402023684038751
 30
0.0
 11
2.751428576196929
 21
-4.402023684038751
 31
0.0
  0
LINE
  5
283
330
26
100
AcDbEntity
  8
0
  6
Continuous
 62
     7
100
AcDbLine
 10
1.251428576196927
 20
-4.402023684038751
 30
0.0
 11
0.7514285761969292
 21
-3.902023684038751
 31
0.0
  0
LINE
  5
284
330
26
100
AcDbEntity
  8
0
  6
Continuous
 62
     2
100
AcDbLine
 10
0.7514285761969292
 20
-3.902023684038751
 30
0.0
 11
3.251428576196928
 21
-3.902023684038751
 31
0.0
  0
LINE
  5
285
330
26
100
AcDbEntity
  8
0
  6
Continuous
 62
     7
100
AcDbLine
 10
0.7514285761969292
 20
-2.602023684038754
 30
0.0
 11
0.7514285761969292
 21
-3.902023684038751
 31
0.0
  0
LINE
  5
286
330
26
100
AcDbEntity
  8
0
  6
Continuous
 62
     7
100
AcDbLine
 10
0.000000004768367
 20
-1.802023684038758
 30
0.0
 11
0.000000004768367
 21
-2.602023684038754
 31
0.0
  0
LINE
  5
287
330
26
100
AcDbEntity
  8
0
  6
Continuous
 62
     7
100
AcDbLine
 10
4.000000004768367
 20
-1.802023684038758
 30
0.0
 11
4.000000004768367
 21
-2.602023684038754
 31
0.0
  0
LINE
  5
288
330
26
100
AcDbEntity
  8
0
  6
Continuous
 62
     2
100
AcDbLine
 10
2.000000004768367
 20
1.284322627126215
 30
0.0
 11
2.000000004768367
 21
-5.069195930668058
 31
0.0
  0
LINE
  5
289
330
26
100
AcDbEntity
  8
0
  6
Continuous
 62
     7
100
AcDbLine
 10
0.000000004768367
 20
-1.802023684038758
 30
0.0
 11
0.000000004768367
 21
0.0
 31
0.0
  0
LINE
  5
28A
330
26
100
AcDbEntity
  8
0
  6
Continuous
 62
     7
100
AcDbLine
 10
0.9514285761969743
 20
0.5979763159612475
 30
0.0
 11
3.051428576196939
 21
0.5979763159612475
 31
0.0
  0
LINE
  5
28B
330
26
100
AcDbEntity
  8
0
  6
Continuous
 62
     2
100
AcDbLine
 10
3.050000004768377
 20
-2.602023684038754
 30
0.0
 11
3.050000004768377
 21
-4.103452255467316
 31
0.0
  0
LINE
  5
28C
330
26
100
AcDbEntity
  8
0
  6
Continuous
 62
     2
100
AcDbLine
 10
0.9500000047683554
 20
-2.602023684038754
 30
0.0
 11
0.9500000047683554
 21
-4.100595112610178
 31
0.0
  0
LINE
  5
28D
330
26
100
AcDbEntity
  8
0
  6
Continuous
 62
     7
100
AcDbLine
 10
0.7514285761969292
 20
-0.0020236840387469
 30
0.0
 11
0.7514285761969292
 21
0.3979763159612446
 31
0.0
  0
LINE
  5
28E
330
26
100
AcDbEntity
  8
0
  6
Continuous
 62
     7
100
AcDbLine
 10
3.251428576196928
 20
0.3979763159612446
 30
0.0
 11
3.251428576196928
 21
-0.0020236840387469
 31
0.0
  0
LINE
  5
28F
330
26
100
AcDbEntity
  8
0
  6
Continuous
 62
     7
100
AcDbLine
 10
0.7514285761969292
 20
0.3979763159612446
 30
0.0
 11
0.9514285761969743
 21
0.5979763159612475
 31
0.0
  0
LINE
  5
290
330
26
100
AcDbEntity
  8
0
  6
Continuous
 62
     7
100
AcDbLine
 10
3.051428576196939
 20
0.5979763159612475
 30
0.0
 11
3.251428576196928
 21
0.3979763159612446
 31
0.0
  0
LINE
  5
291
330
26
100
AcDbEntity
  8
0
  6
Continuous
 62
     7
100
AcDbLine
 10
0.7514285761969292
 20
0.3979763159612446
 30
0.0
 11
3.251428576196928
 21
0.3979763159612446
 31
0.0
  0
LINE
  5
292
330
26
100
AcDbEntity
  8
0
  6
Continuous
 62
     2
100
AcDbLine
 10
3.050000004768377
 20
0.5979763159612475
 30
0.0
 11
3.050000004768377
 21
-0.0020236840387469
 31
0.0
  0
LINE
  5
293
330
26
100
AcDbEntity
  8
0
  6
Continuous
 62
     2
100
AcDbLine
 10
0.9500000047683554
 20
0.5979763159612475
 30
0.0
 11
0.9500000047683554
 21
-0.0020236840387469
 31
0.0
  0
LINE
  5
294
330
26
100
AcDbEntity
  8
0
  6
Continuous
 62
     7
100
AcDbLine
 10
15.00000000476837
 20
3.897976315961243
 30
0.0
 11
10.4000000047684
 21
3.897976315961243
 31
0.0
  0
LINE
  5
295
330
26
100
AcDbEntity
  8
0
  6
Continuous
 62
     7
100
AcDbLine
 10
10.4000000047684
 20
5.897976315961243
 30
0.0
 11
14.60000000476839
 21
5.897976315961243
 31
0.0
  0
LINE
  5
296
330
26
100
AcDbEntity
  8
0
  6
Continuous
 62
     7
100
AcDbLine
 10
10.4000000047684
 20
-0.0020236840387469
 30
0.0
 11
10.4000000047684
 21
5.897976315961243
 31
0.0
  0
LINE
  5
297
330
26
100
AcDbEntity
  8
0
  6
Continuous
 62
     7
100
AcDbLine
 10
14.60000000476839
 20
4.897976315961243
 30
0.0
 11
14.60000000476839
 21
5.897976315961243
 31
0.0
  0
LINE
  5
298
330
26
100
AcDbEntity
  8
0
  6
Continuous
 62
     7
100
AcDbLine
 10
12.94904434147304
 20
4.897976315961243
 30
0.0
 11
15.00000000476837
 21
4.897976315961243
 31
0.0
  0
LINE
  5
299
330
26
100
AcDbEntity
  8
0
  6
Continuous
 62
     7
100
AcDbLine
 10
12.94904434147304
 20
4.897976311874074
 30
0.0
 11
12.94904434147304
 21
5.897976311874074
 31
0.0
  0
LINE
  5
29A
330
26
100
AcDbEntity
  8
0
  6
Continuous
 62
     7
100
AcDbLine
 10
12.05095566806369
 20
1.497976229666193
 30
0.0
 11
12.05095566806369
 21
5.897976315961243
 31
0.0
  0
LINE
  5
29B
330
26
100
AcDbEntity
  8
0
  6
Continuous
 62
     7
100
AcDbLine
 10
10.40000001021792
 20
0.9479762348989313
 30
0.0
 11
12.05095566806369
 21
1.497976229666193
 31
0.0
  0
LINE
  5
29C
330
26
100
AcDbEntity
  8
0
  6
Continuous
 62
     2
100
AcDbLine
 10
10.34000000476834
 20
7.647976315961243
 30
0.0
 11
14.67000000476838
 21
10.14797631596124
 31
0.0
  0
ENDBLK
  5
29D
330
26
100
AcDbEntity
  8
0
100
AcDbBlockEnd
  0
BLOCK
  5
29E
330
27
100
AcDbEntity
  8
0
100
AcDbBlockBegin
  2
NHE1D-16-10
 70
     0
 10
0.0
 20
0.0
 30
0.0
  3
NHE1D-16-10
  1

  0
LINE
  5
29F
330
27
100
AcDbEntity
  8
0
  6
Continuous
 62
     2
100
AcDbLine
 10
-2.524999999999977
 20
-0.0000000014444481
 30
0.0
 11
-2.524999999999977
 21
0.5979763159612475
 31
0.0
  0
LINE
  5
2A0
330
27
100
AcDbEntity
  8
0
  6
Continuous
 62
     2
100
AcDbLine
 10
-0.4750000000000227
 20
-0.0000000014444481
 30
0.0
 11
-0.4750000000000227
 21
0.5979763159612475
 31
0.0
  0
LINE
  5
2A1
330
27
100
AcDbEntity
  8
0
  6
Continuous
 62
     2
100
AcDbLine
 10
-0.4750000000000227
 20
-4.124166541181607
 30
0.0
 11
-0.4750000000000227
 21
-2.600000000000008
 31
0.0
  0
LINE
  5
2A2
330
27
100
AcDbEntity
  8
0
  6
Continuous
 62
     2
100
AcDbLine
 10
-2.524999999999977
 20
-4.124166541181607
 30
0.0
 11
-2.524999999999977
 21
-2.600000000000008
 31
0.0
  0
LINE
  5
2A3
330
27
100
AcDbEntity
  8
0
  6
Continuous
 62
     2
100
AcDbLine
 10
-1.5
 20
-5.546406049129258
 30
0.0
 11
-1.5
 21
9.669348017065543
 31
0.0
  0
LINE
  5
2A4
330
27
100
AcDbEntity
  8
0
  6
Continuous
 62
     7
100
AcDbLine
 10
-0.2000000000000455
 20
5.897976229666184
 30
0.0
 11
-0.2000000000000455
 21
9.645666760844008
 31
0.0
  0
LINE
  5
2A5
330
27
100
AcDbEntity
  8
0
  6
Continuous
 62
     7
100
AcDbLine
 10
-2.800000000000011
 20
5.897976229666184
 30
0.0
 11
-2.800000000000011
 21
8.144512026432918
 31
0.0
  0
LINE
  5
2A6
330
27
100
AcDbEntity
  8
0
  6
Continuous
 62
     7
100
AcDbLine
 10
-3.4994048873898
 20
-2.600000000000008
 30
0.0
 11
0.5005951126101991
 21
-2.600000000000008
 31
0.0
  0
LINE
  5
2A7
330
27
100
AcDbEntity
  8
0
  6
Continuous
 62
     7
100
AcDbLine
 10
-3.550000000000011
 20
-1.800000000000011
 30
0.0
 11
0.5499999999999547
 21
-1.800000000000011
 31
0.0
  0
LINE
  5
2A8
330
27
100
AcDbEntity
  8
0
  6
Continuous
 62
     7
100
AcDbLine
 10
-3.000000001961551
 20
0.0
 30
0.0
 11
-0.0000000019615527
 21
0.0
 31
0.0
  0
LINE
  5
2A9
330
27
100
AcDbEntity
  8
0
  6
Continuous
 62
     7
100
AcDbLine
 10
0.0
 20
-0.5500000048504319
 30
0.0
 11
0.0
 21
0.9479762301305639
 31
0.0
  0
LINE
  5
2AA
330
27
100
AcDbEntity
  8
0
  6
Continuous
 62
     7
100
AcDbLine
 10
-3.0
 20
-0.5511933238986302
 30
0.0
 11
-3.0
 21
0.9479762301305639
 31
0.0
  0
LINE
  5
2AB
330
27
100
AcDbEntity
  8
0
  6
Continuous
 62
     7
100
AcDbLine
 10
-3.550000005367508
 20
1.497976233536533
 30
0.0
 11
-3.0
 21
0.9479762281690256
 31
0.0
  0
LINE
  5
2AC
330
27
100
AcDbEntity
  8
0
  6
Continuous
 62
     7
100
AcDbLine
 10
0.0
 20
0.9479762320920883
 30
0.0
 11
0.5500000014444595
 21
1.497976233536533
 31
0.0
  0
LINE
  5
2AD
330
27
100
AcDbEntity
  8
0
  6
Continuous
 62
     7
100
AcDbLine
 10
0.5499999999999547
 20
1.497976232092084
 30
0.0
 11
0.5499999999999547
 21
5.897976229666184
 31
0.0
  0
LINE
  5
2AE
330
27
100
AcDbEntity
  8
0
  6
Continuous
 62
     7
100
AcDbLine
 10
-3.550000000000011
 20
1.497976228169021
 30
0.0
 11
-3.550000000000011
 21
5.897976229666184
 31
0.0
  0
ARC
  5
2AF
330
27
100
AcDbEntity
  8
0
  6
Continuous
 62
     7
100
AcDbCircle
 10
-1.5
 20
-2.55000000000001
 30
0.0
 40
2.049999999999998
100
AcDbArc
 50
180.0
 51
0.0
  0
LINE
  5
2B0
330
27
100
AcDbEntity
  8
0
  6
Continuous
 62
     7
100
AcDbLine
 10
0.5499999999999547
 20
-2.641112856946989
 30
0.0
 11
0.5499999999999547
 21
-1.100000008256414
 31
0.0
  0
LINE
  5
2B1
330
27
100
AcDbEntity
  8
0
  6
Continuous
 62
     7
100
AcDbLine
 10
-3.550000000000011
 20
-2.550595112610181
 30
0.0
 11
-3.550000000000011
 21
-1.102023684038754
 31
0.0
  0
LINE
  5
2B2
330
27
100
AcDbEntity
  8
0
  6
Continuous
 62
     7
100
AcDbLine
 10
-2.247142857142875
 20
-4.402023684038751
 30
0.0
 11
-0.7528571428571241
 21
-4.402023684038751
 31
0.0
  0
LINE
  5
2B3
330
27
100
AcDbEntity
  8
0
  6
Continuous
 62
     7
100
AcDbLine
 10
-3.4994048873898
 20
-1.800000000000011
 30
0.0
 11
-3.4994048873898
 21
-2.602023684038754
 31
0.0
  0
LINE
  5
2B4
330
27
100
AcDbEntity
  8
0
  6
Continuous
 62
     7
100
AcDbLine
 10
0.5005951126101991
 20
-1.800000000000011
 30
0.0
 11
0.5005951126101991
 21
-2.602023684038754
 31
0.0
  0
LINE
  5
2B5
330
27
100
AcDbEntity
  8
0
  6
Continuous
 62
     7
100
AcDbLine
 10
-2.247142857142875
 20
-4.402023684038751
 30
0.0
 11
-2.75
 21
-3.899166541181613
 31
0.0
  0
LINE
  5
2B6
330
27
100
AcDbEntity
  8
0
  6
Continuous
 62
     7
100
AcDbLine
 10
-0.25
 20
-3.899166541181613
 30
0.0
 11
-0.7528571428571241
 21
-4.402023684038751
 31
0.0
  0
LINE
  5
2B7
330
27
100
AcDbEntity
  8
0
  6
Continuous
 62
     7
100
AcDbLine
 10
-2.75
 20
-3.899166541181613
 30
0.0
 11
-0.25
 21
-3.899166541181613
 31
0.0
  0
LINE
  5
2B8
330
27
100
AcDbEntity
  8
0
  6
Continuous
 62
     7
100
AcDbLine
 10
-2.75
 20
-2.600000000000008
 30
0.0
 11
-2.75
 21
-3.899166541181613
 31
0.0
  0
LINE
  5
2B9
330
27
100
AcDbEntity
  8
0
  6
Continuous
 62
     7
100
AcDbLine
 10
-0.25
 20
-2.600000000000008
 30
0.0
 11
-0.25
 21
-3.899166541181613
 31
0.0
  0
LINE
  5
2BA
330
27
100
AcDbEntity
  8
0
  6
Continuous
 62
     7
100
AcDbLine
 10
0.5499999999999547
 20
-1.100000000000008
 30
0.0
 11
0.0
 21
-0.5500000000000114
 31
0.0
  0
LINE
  5
2BB
330
27
100
AcDbEntity
  8
0
  6
Continuous
 62
     7
100
AcDbLine
 10
-3.547976315961249
 20
-1.102023684038754
 30
0.0
 11
-3.0
 21
-0.5511933247651939
 31
0.0
  0
LINE
  5
2BC
330
27
100
AcDbEntity
  8
0
  6
Continuous
 62
     7
100
AcDbLine
 10
-2.75
 20
0.0
 30
0.0
 11
-2.75
 21
0.3979763159612446
 31
0.0
  0
LINE
  5
2BD
330
27
100
AcDbEntity
  8
0
  6
Continuous
 62
     7
100
AcDbLine
 10
-0.25
 20
0.3979763159612446
 30
0.0
 11
-0.25
 21
0.0
 31
0.0
  0
LINE
  5
2BE
330
27
100
AcDbEntity
  8
0
  6
Continuous
 62
     7
100
AcDbLine
 10
-2.75
 20
0.3979763159612446
 30
0.0
 11
-0.25
 21
0.3979763159612446
 31
0.0
  0
LINE
  5
2BF
330
27
100
AcDbEntity
  8
0
  6
Continuous
 62
     7
100
AcDbLine
 10
-0.4500000000000455
 20
0.5979763159612475
 30
0.0
 11
-0.25
 21
0.3979763159612446
 31
0.0
  0
LINE
  5
2C0
330
27
100
AcDbEntity
  8
0
  6
Continuous
 62
     7
100
AcDbLine
 10
-2.75
 20
0.3979763159612446
 30
0.0
 11
-2.55000000000001
 21
0.5979763159612475
 31
0.0
  0
LINE
  5
2C1
330
27
100
AcDbEntity
  8
0
  6
Continuous
 62
     7
100
AcDbLine
 10
-2.55000000000001
 20
0.5979763159612475
 30
0.0
 11
-0.4500000000000455
 21
0.5979763159612475
 31
0.0
  0
LINE
  5
2C2
330
27
100
AcDbEntity
  8
0
  6
Continuous
 62
     7
100
AcDbLine
 10
-3.550000000000011
 20
3.897976229666183
 30
0.0
 11
0.5499999999999547
 21
3.897976229666183
 31
0.0
  0
LINE
  5
2C3
330
27
100
AcDbEntity
  8
0
  6
Continuous
 62
     7
100
AcDbLine
 10
-3.550000000000011
 20
5.897976229666184
 30
0.0
 11
0.5499999999999547
 21
5.897976229666184
 31
0.0
  0
LINE
  5
2C4
330
27
100
AcDbEntity
  8
0
  6
Continuous
 62
     2
100
AcDbLine
 10
-3.659999999999968
 20
7.647976229666182
 30
0.0
 11
0.6699999999999591
 21
10.14797622966618
 31
0.0
  0
ENDBLK
  5
2C5
330
27
100
AcDbEntity
  8
0
100
AcDbBlockEnd
  0
BLOCK
  5
2C6
330
28
100
AcDbEntity
  8
0
100
AcDbBlockBegin
  2
NHE1D-16-11
 70
     0
 10
0.0
 20
0.0
 30
0.0
  3
NHE1D-16-11
  1

  0
LINE
  5
2C7
330
28
100
AcDbEntity
  8
0
  6
Continuous
 62
     2
100
AcDbLine
 10
2.159999999999968
 20
7.647976229666182
 30
0.0
 11
-2.169999999999959
 21
10.14797622966618
 31
0.0
  0
LINE
  5
2C8
330
28
100
AcDbEntity
  8
0
  6
Continuous
 62
     7
100
AcDbLine
 10
2.05000000000001
 20
5.897976229666184
 30
0.0
 11
-2.049999999999954
 21
5.897976229666184
 31
0.0
  0
LINE
  5
2C9
330
28
100
AcDbEntity
  8
0
  6
Continuous
 62
     7
100
AcDbLine
 10
2.05000000000001
 20
3.897976229666183
 30
0.0
 11
-2.049999999999954
 21
3.897976229666183
 31
0.0
  0
LINE
  5
2CA
330
28
100
AcDbEntity
  8
0
  6
Continuous
 62
     7
100
AcDbLine
 10
2.047976315961249
 20
-1.102023684038754
 30
0.0
 11
1.5
 21
-0.5511933247651939
 31
0.0
  0
LINE
  5
2CB
330
28
100
AcDbEntity
  8
0
  6
Continuous
 62
     7
100
AcDbLine
 10
-2.049999999999954
 20
-1.100000000000008
 30
0.0
 11
-1.5
 21
-0.5500000000000114
 31
0.0
  0
LINE
  5
2CC
330
28
100
AcDbEntity
  8
0
  6
Continuous
 62
     7
100
AcDbLine
 10
2.05000000000001
 20
-2.550595112610181
 30
0.0
 11
2.05000000000001
 21
-1.102023684038754
 31
0.0
  0
LINE
  5
2CD
330
28
100
AcDbEntity
  8
0
  6
Continuous
 62
     7
100
AcDbLine
 10
-2.049999999999954
 20
-2.641112856946989
 30
0.0
 11
-2.049999999999954
 21
-1.100000008256414
 31
0.0
  0
ARC
  5
2CE
330
28
100
AcDbEntity
  8
0
  6
Continuous
 62
     7
100
AcDbCircle
 10
0.0
 20
-2.55000000000001
 30
0.0
 40
2.049999999999998
100
AcDbArc
 50
180.0
 51
0.0
  0
LINE
  5
2CF
330
28
100
AcDbEntity
  8
0
  6
Continuous
 62
     7
100
AcDbLine
 10
2.05000000000001
 20
1.497976228169021
 30
0.0
 11
2.05000000000001
 21
5.897976229666184
 31
0.0
  0
LINE
  5
2D0
330
28
100
AcDbEntity
  8
0
  6
Continuous
 62
     7
100
AcDbLine
 10
-2.049999999999954
 20
1.497976232092084
 30
0.0
 11
-2.049999999999954
 21
5.897976229666184
 31
0.0
  0
LINE
  5
2D1
330
28
100
AcDbEntity
  8
0
  6
Continuous
 62
     7
100
AcDbLine
 10
-1.5
 20
0.9479762320920883
 30
0.0
 11
-2.050000001444459
 21
1.497976233536533
 31
0.0
  0
LINE
  5
2D2
330
28
100
AcDbEntity
  8
0
  6
Continuous
 62
     7
100
AcDbLine
 10
2.050000005367508
 20
1.497976233536533
 30
0.0
 11
1.5
 21
0.9479762281690256
 31
0.0
  0
LINE
  5
2D3
330
28
100
AcDbEntity
  8
0
  6
Continuous
 62
     7
100
AcDbLine
 10
1.5
 20
-0.5511933238986302
 30
0.0
 11
1.5
 21
0.9479762301305639
 31
0.0
  0
LINE
  5
2D4
330
28
100
AcDbEntity
  8
0
  6
Continuous
 62
     7
100
AcDbLine
 10
-1.5
 20
-0.5500000048504319
 30
0.0
 11
-1.5
 21
0.9479762301305639
 31
0.0
  0
LINE
  5
2D5
330
28
100
AcDbEntity
  8
0
  6
Continuous
 62
     7
100
AcDbLine
 10
1.30000000000001
 20
5.897976229666184
 30
0.0
 11
1.30000000000001
 21
8.144512026432918
 31
0.0
  0
LINE
  5
2D6
330
28
100
AcDbEntity
  8
0
  6
Continuous
 62
     7
100
AcDbLine
 10
-1.299999999999954
 20
5.897976229666184
 30
0.0
 11
-1.299999999999954
 21
9.645666760844008
 31
0.0
  0
LINE
  5
2D7
330
28
100
AcDbEntity
  8
0
  6
Continuous
 62
     2
100
AcDbLine
 10
0.0
 20
-5.546406049129258
 30
0.0
 11
0.0
 21
9.669348017065543
 31
0.0
  0
ENDBLK
  5
2D8
330
28
100
AcDbEntity
  8
0
100
AcDbBlockEnd
  0
BLOCK
  5
2D9
330
29
100
AcDbEntity
  8
0
100
AcDbBlockBegin
  2
NHE1D-16-12
 70
     0
 10
0.0
 20
0.0
 30
0.0
  3
NHE1D-16-12
  1

  0
CIRCLE
  5
2DA
330
29
100
AcDbEntity
  8
0
  6
Continuous
 62
     7
100
AcDbCircle
 10
11.84999999727523
 20
0.0
 30
0.0
 40
0.29
  0
CIRCLE
  5
2DB
330
29
100
AcDbEntity
  8
0
  6
Continuous
 62
     7
100
AcDbCircle
 10
13.15000000272476
 20
0.0
 30
0.0
 40
0.29
  0
CIRCLE
  5
2DC
330
29
100
AcDbEntity
  8
0
  6
Continuous
 62
     7
100
AcDbCircle
 10
11.84999999727523
 20
0.0
 30
0.0
 40
0.5
  0
CIRCLE
  5
2DD
330
29
100
AcDbEntity
  8
0
  6
Continuous
 62
     7
100
AcDbCircle
 10
13.15000000272476
 20
0.0
 30
0.0
 40
0.5
  0
CIRCLE
  5
2DE
330
29
100
AcDbEntity
  8
0
  6
Continuous
 62
     7
100
AcDbCircle
 10
2.0
 20
0.0
 30
0.0
 40
1.25
  0
CIRCLE
  5
2DF
330
29
100
AcDbEntity
  8
0
  6
Continuous
 62
     2
100
AcDbCircle
 10
2.0
 20
0.0
 30
0.0
 40
1.05
  0
CIRCLE
  5
2E0
330
29
100
AcDbEntity
  8
0
  6
Continuous
 62
     7
100
AcDbCircle
 10
2.0
 20
0.0
 30
0.0
 40
1.399999999999999
  0
LINE
  5
2E1
330
29
100
AcDbEntity
  8
0
  6
Continuous
 62
     7
100
AcDbLine
 10
0.0
 20
-1.5
 30
0.0
 11
11.0303061543301
 21
-1.5
 31
0.0
  0
LINE
  5
2E2
330
29
100
AcDbEntity
  8
0
  6
Continuous
 62
     7
100
AcDbLine
 10
0.0
 20
-2.049999999999995
 30
0.0
 11
15.0
 21
-2.049999999999995
 31
0.0
  0
LINE
  5
2E3
330
29
100
AcDbEntity
  8
0
  6
Continuous
 62
     7
100
AcDbLine
 10
0.0
 20
2.049999999999995
 30
0.0
 11
15.0
 21
2.049999999999995
 31
0.0
  0
LINE
  5
2E4
330
29
100
AcDbEntity
  8
0
  6
Continuous
 62
     7
100
AcDbLine
 10
8.0
 20
-0.700000000000003
 30
0.0
 11
9.600000000000024
 21
-0.700000000000003
 31
0.0
  0
LINE
  5
2E5
330
29
100
AcDbEntity
  8
0
  6
Continuous
 62
     7
100
AcDbLine
 10
8.0
 20
0.9000000000000055
 30
0.0
 11
9.600000000000024
 21
0.9000000000000055
 31
0.0
  0
LINE
  5
2E6
330
29
100
AcDbEntity
  8
0
  6
Continuous
 62
     7
100
AcDbLine
 10
9.600000000000024
 20
-0.7000000068119478
 30
0.0
 11
9.600000000000024
 21
0.9000000000000055
 31
0.0
  0
LINE
  5
2E7
330
29
100
AcDbEntity
  8
0
  6
Continuous
 62
     7
100
AcDbLine
 10
8.0
 20
-0.7000000068119478
 30
0.0
 11
8.0
 21
0.9000000000000055
 31
0.0
  0
LINE
  5
2E8
330
29
100
AcDbEntity
  8
0
  6
Continuous
 62
     7
100
AcDbLine
 10
10.40000000000003
 20
-1.502857150350293
 30
0.0
 11
10.40000000000003
 21
1.500000006811957
 31
0.0
  0
LINE
  5
2E9
330
29
100
AcDbEntity
  8
0
  6
Continuous
 62
     7
100
AcDbLine
 10
3.900000000000033
 20
-1.502857150350293
 30
0.0
 11
3.900000000000033
 21
1.500000006811957
 31
0.0
  0
LINE
  5
2EA
330
29
100
AcDbEntity
  8
0
  6
Continuous
 62
     7
100
AcDbLine
 10
1.30857142857144
 20
-1.068571428571415
 30
0.0
 11
3.051993036971508
 21
0.6748501798286242
 31
0.0
  0
LINE
  5
2EB
330
29
100
AcDbEntity
  8
0
  6
Continuous
 62
     7
100
AcDbLine
 10
0.9571428571428556
 20
-0.7142857142857082
 30
0.0
 11
2.688571428571435
 21
1.019999999999996
 31
0.0
  0
LINE
  5
2EC
330
29
100
AcDbEntity
  8
0
  6
Continuous
 62
     2
100
AcDbLine
 10
2.0
 20
2.834285714285711
 30
0.0
 11
2.0
 21
-3.351413244852024
 31
0.0
  0
LINE
  5
2ED
330
29
100
AcDbEntity
  8
0
  6
Continuous
 62
     7
100
AcDbLine
 10
15.0
 20
2.049999999999995
 30
0.0
 11
15.0
 21
-2.049999999999995
 31
0.0
  0
LINE
  5
2EE
330
29
100
AcDbEntity
  8
0
  6
Continuous
 62
     7
100
AcDbLine
 10
0.0
 20
2.049999999999995
 30
0.0
 11
0.0
 21
-2.049999999999995
 31
0.0
  0
LINE
  5
2EF
330
29
100
AcDbEntity
  8
0
  6
Continuous
 62
     7
100
AcDbLine
 10
0.0
 20
1.5
 30
0.0
 11
11.0303061543301
 21
1.5
 31
0.0
  0
LINE
  5
2F0
330
29
100
AcDbEntity
  8
0
  6
Continuous
 62
     2
100
AcDbLine
 10
-1.324720577365495
 20
0.0
 30
0.0
 11
16.23761911485025
 21
0.0
 31
0.0
  0
ARC
  5
2F1
330
29
100
AcDbEntity
  8
0
  6
Continuous
 62
     7
100
AcDbCircle
 10
12.5
 20
0.0
 30
0.0
 40
2.1
100
AcDbArc
 50
102.7063418384295
 51
257.6530676325872
  0
ARC
  5
2F2
330
29
100
AcDbEntity
  8
0
  6
Continuous
 62
     7
100
AcDbCircle
 10
12.5
 20
0.0
 30
0.0
 40
2.1
100
AcDbArc
 50
282.3469323674128
 51
77.29365816157045
  0
CIRCLE
  5
2F3
330
29
100
AcDbEntity
  8
0
  6
Continuous
 62
     7
100
AcDbCircle
 10
12.5
 20
0.0
 30
0.0
 40
1.3
  0
ENDBLK
  5
2F4
330
29
100
AcDbEntity
  8
0
100
AcDbBlockEnd
  0
BLOCK
  5
2B
330
2A
100
AcDbEntity
  8
0
 62
     0
100
AcDbBlockBegin
  2
_OPEN30
 70
     2
 10
0.0
 20
0.0
 30
0.0
  3
_OPEN30
  1

  0
LINE
  5
2C
330
2A
100
AcDbEntity
  8
0
  6
ByBlock
 62
     0
100
AcDbLine
 10
-1.0
 20
0.267949
 30
0.0
 11
0.0
 21
0.0
 31
0.0
  0
LINE
  5
2D
330
2A
100
AcDbEntity
  8
0
  6
ByBlock
 62
     0
100
AcDbLine
 10
0.0
 20
0.0
 30
0.0
 11
-1.0
 21
-0.267949
 31
0.0
  0
LINE
  5
2E
330
2A
100
AcDbEntity
  8
0
  6
ByBlock
 62
     0
100
AcDbLine
 10
0.0
 20
0.0
 30
0.0
 11
-1.0
 21
0.0
 31
0.0
  0
ENDBLK
  5
2F
330
2A
100
AcDbEntity
  8
0
 62
     0
100
AcDbBlockEnd
  0
ENDSEC
  0
SECTION
  2
ENTITIES
  0
INSERT
  5
2FD
330
A
100
AcDbEntity
  8
0
  6
ByBlock
100
AcDbBlockReference
  2
NHE1D-16-4
 10
-40.0
 20
90.0
 30
0.0
  0
INSERT
  5
2FE
330
A
100
AcDbEntity
  8
0
  6
ByBlock
100
AcDbBlockReference
  2
NHE1D-16-3
 10
89.99999665089744
 20
0.000001719976094
 30
0.0
  0
INSERT
  5
300
330
A
100
AcDbEntity
  8
0
  6
ByBlock
100
AcDbBlockReference
  2
NHE1D-16-1
 10
-40.0
 20
0.0
 30
0.0
  0
MTEXT
  5
301
330
A
100
AcDbEntity
  8
0
  6
Continuous
 62
   255
100
AcDbMText
 10
-191.4334593338748
 20
128.8500061035156
 30
0.0
 40
4.5
 41
0.0
 71
     4
 72
     5
  1
\W1.089;\A1;3 FINGERS GRIPPERS
 73
     1
 44
1.0
1001
ACAD
1000
MTEXTBEGIN
1070
    73
1070
     1
1070
    44
1040
1.0
1070
    74
1070
     0
1000
MTEXTEND
  0
MTEXT
  5
302
330
A
100
AcDbEntity
  8
0
  6
Continuous
 62
   255
100
AcDbMText
 10
-168.9318145449496
 20
121.3500061035156
 30
0.0
 40
4.5
 41
0.0
 71
     4
 72
     5
  1
\W1.091;\A1;NHE1D-16
 73
     1
 44
1.0
1001
ACAD
1000
MTEXTBEGIN
1070
    73
1070
     1
1070
    44
1040
1.0
1070
    74
1070
     0
1000
MTEXTEND
  0
MTEXT
  5
309
330
A
100
AcDbEntity
  8
0
  6
Continuous
 62
     7
100
AcDbMText
 10
-185.6710526348295
 20
107.6000061035156
 30
0.0
 40
4.5
 41
0.0
 71
     4
 72
     5
  1
\W1.105;\A1;MODEL:NHE1D-16
 73
     1
 44
1.0
1001
ACAD
1000
MTEXTBEGIN
1070
    73
1070
     1
1070
    44
1040
1.0
1070
    74
1070
     0
1000
MTEXTEND
  0
LINE
  5
30A
330
A
100
AcDbEntity
  8
0
  6
Continuous
 62
     7
100
AcDbLine
 10
-194.25
 20
132.6000061035156
 30
0.0
 11
194.8000030517578
 21
132.6000061035156
 31
0.0
  0
LINE
  5
30B
330
A
100
AcDbEntity
  8
0
  6
Continuous
 62
     7
100
AcDbLine
 10
194.8000030517578
 20
132.6000061035156
 30
0.0
 11
194.8000030517578
 21
-133.5
 31
0.0
  0
LINE
  5
30C
330
A
100
AcDbEntity
  8
0
  6
Continuous
 62
     7
100
AcDbLine
 10
-194.25
 20
132.6000061035156
 30
0.0
 11
-194.25
 21
-133.5
 31
0.0
  0
LINE
  5
30D
330
A
100
AcDbEntity
  8
0
  6
Continuous
 62
     7
100
AcDbLine
 10
-194.25
 20
-133.5
 30
0.0
 11
194.8000030517578
 21
-133.5
 31
0.0
  0
LINE
  5
30E
330
A
100
AcDbEntity
  8
0
  6
Continuous
 62
     7
100
AcDbLine
 10
109.8000030517578
 20
-118.5
 30
0.0
 11
109.8000030517578
 21
-133.5
 31
0.0
  0
LINE
  5
30F
330
A
100
AcDbEntity
  8
0
  6
Continuous
 62
     7
100
AcDbLine
 10
109.8000030517578
 20
-118.5
 30
0.0
 11
194.8000030517578
 21
-118.5
 31
0.0
  0
LINE
  5
310
330
A
100
AcDbEntity
  8
0
  6
Continuous
 62
     7
100
AcDbLine
 10
109.8000030517578
 20
132.6000061035156
 30
0.0
 11
109.8000030517578
 21
117.6000061035155
 31
0.0
  0
LINE
  5
311
330
A
100
AcDbEntity
  8
0
  6
Continuous
 62
     7
100
AcDbLine
 10
109.8000030517578
 20
117.6000061035155
 30
0.0
 11
194.8000030517578
 21
117.6000061035155
 31
0.0
  0
LINE
  5
312
330
A
100
AcDbEntity
  8
0
  6
Continuous
 62
     7
100
AcDbLine
 10
-194.25
 20
117.6000061035155
 30
0.0
 11
-109.25
 21
117.6000061035155
 31
0.0
  0
LINE
  5
313
330
A
100
AcDbEntity
  8
0
  6
Continuous
 62
     7
100
AcDbLine
 10
-109.25
 20
132.6000061035156
 30
0.0
 11
-109.25
 21
117.6000061035155
 31
0.0
  0
MTEXT
  5
314
330
A
100
AcDbEntity
  8
0
  6
Continuous
 62
     7
100
AcDbMText
 10
135.2836132057677
 20
125.1000061035156
 30
0.0
 40
4.5
 41
0.0
 71
     4
 72
     5
  1
\W1.311;\A1;Ver. 1.0
 73
     1
 44
1.0
1001
ACAD
1000
MTEXTBEGIN
1070
    73
1070
     1
1070
    44
1040
1.0
1070
    74
1070
     0
1000
MTEXTEND
  0
MTEXT
  5
315
330
A
100
AcDbEntity
  8
0
  6
Continuous
 62
     7
100
AcDbMText
 10
115.5267199617605
 20
-126.0
 30
0.0
 40
6.300000190734862
 41
0.0
 71
     4
 72
     5
  1
\W1.121;\A1;KOGANEI CORP.
 73
     1
 44
1.0
1001
ACAD
1000
MTEXTBEGIN
1070
    73
1070
     1
1070
    44
1040
1.0
1070
    74
1070
     0
1000
MTEXTEND
  0
CIRCLE
  5
328
102
{ACAD_REACTORS
330
3C0
102
}
330
A
100
AcDbEntity
  8
0
  6
Continuous
 62
     7
100
AcDbCircle
 10
-109.9999999307042
 20
0.0
 30
0.0
 40
3.0
  0
CIRCLE
  5
329
102
{ACAD_REACTORS
330
3C0
102
}
330
A
100
AcDbEntity
  8
0
  6
Continuous
 62
     7
100
AcDbCircle
 10
-99.99999993070421
 20
0.0
 30
0.0
 40
1.5
  0
CIRCLE
  5
32A
102
{ACAD_REACTORS
330
3C0
102
}
330
A
100
AcDbEntity
  8
0
  6
Continuous
 62
     7
100
AcDbCircle
 10
-94.99999993070421
 20
0.0
 30
0.0
 40
1.200000047683715
  0
ARC
  5
32B
102
{ACAD_REACTORS
330
3C0
102
}
330
A
100
AcDbEntity
  8
0
  6
Continuous
 62
     7
100
AcDbCircle
 10
-126.5366248391514
 20
2.642265319824218
 30
0.0
 40
3.0
100
AcDbArc
 50
329.7821664464529
 51
30.00000333930416
  0
ARC
  5
32C
102
{ACAD_REACTORS
330
3C0
102
}
330
A
100
AcDbEntity
  8
0
  6
Continuous
 62
     7
100
AcDbCircle
 10
-117.6387824319249
 20
-4.25
 30
0.0
 40
2.0
100
AcDbArc
 50
59.99999734394098
 51
90.00000500895614
  0
ARC
  5
32D
102
{ACAD_REACTORS
330
3C0
102
}
330
A
100
AcDbEntity
  8
0
  6
Continuous
 62
     7
100
AcDbCircle
 10
-104.0199584267979
 20
-15.64226531982422
 30
0.0
 40
3.0
100
AcDbArc
 50
89.78216295556824
 51
150.0000066786085
  0
CIRCLE
  5
32E
102
{ACAD_REACTORS
330
3C0
102
}
330
A
100
AcDbEntity
  8
0
  6
Continuous
 62
     2
100
AcDbCircle
 10
-94.99999993070421
 20
0.0
 30
0.0
 40
1.5
  0
CIRCLE
  5
32F
102
{ACAD_REACTORS
330
3C0
102
}
330
A
100
AcDbEntity
  8
0
  6
Continuous
 62
     7
100
AcDbCircle
 10
-121.9999808572179
 20
-0.0000076293945313
 30
0.0
 40
2.25
  0
CIRCLE
  5
330
102
{ACAD_REACTORS
330
3C0
102
}
330
A
100
AcDbEntity
  8
0
  6
Continuous
 62
     7
100
AcDbCircle
 10
-104.0000004348174
 20
-10.3923037824068
 30
0.0
 40
2.25
  0
ARC
  5
331
102
{ACAD_REACTORS
330
3C0
102
}
330
A
100
AcDbEntity
  8
0
  6
Continuous
 62
     7
100
AcDbCircle
 10
-126.5366248391514
 20
-2.642265319824218
 30
0.0
 40
3.0
100
AcDbArc
 50
330.0000016696523
 51
30.21783173231435
  0
ARC
  5
332
102
{ACAD_REACTORS
330
3C0
102
}
330
A
100
AcDbEntity
  8
0
  6
Continuous
 62
     7
100
AcDbCircle
 10
-99.44342034086046
 20
-13.0
 30
0.0
 40
3.0
100
AcDbArc
 50
89.9999913485778
 51
150.2178350716184
  0
ARC
  5
333
102
{ACAD_REACTORS
330
3C0
102
}
330
A
100
AcDbEntity
  8
0
  6
Continuous
 62
     7
100
AcDbCircle
 10
-99.44342034086046
 20
13.0
 30
0.0
 40
3.0
100
AcDbArc
 50
209.7821631071489
 51
270.0
  0
ARC
  5
334
102
{ACAD_REACTORS
330
3C0
102
}
330
A
100
AcDbEntity
  8
0
  6
Continuous
 62
     7
100
AcDbCircle
 10
-104.0199584267979
 20
15.64226531982422
 30
0.0
 40
3.0
100
AcDbArc
 50
209.9999983303477
 51
270.2178337024147
  0
CIRCLE
  5
335
102
{ACAD_REACTORS
330
3C0
102
}
330
A
100
AcDbEntity
  8
0
  6
Continuous
 62
     7
100
AcDbCircle
 10
-103.9999973274841
 20
10.39230934637895
 30
0.0
 40
2.25
  0
ARC
  5
336
102
{ACAD_REACTORS
330
3C0
102
}
330
A
100
AcDbEntity
  8
0
  6
Continuous
 62
     7
100
AcDbCircle
 10
-109.8612174294835
 20
8.740379333496091
 30
0.0
 40
2.0
100
AcDbArc
 50
300.0000008348258
 51
330.0000016696523
  0
ARC
  5
337
102
{ACAD_REACTORS
330
3C0
102
}
330
A
100
AcDbEntity
  8
0
  6
Continuous
 62
     7
100
AcDbCircle
 10
-109.8612174294835
 20
-8.740379333496091
 30
0.0
 40
2.0
100
AcDbArc
 50
30.00000333930416
 51
59.99999734394098
  0
ARC
  5
338
102
{ACAD_REACTORS
330
3C0
102
}
330
A
100
AcDbEntity
  8
0
  6
Continuous
 62
     7
100
AcDbCircle
 10
-102.4999999307042
 20
4.490379333496092
 30
0.0
 40
2.0
100
AcDbArc
 50
149.9999966606958
 51
179.9999974955218
  0
ARC
  5
339
102
{ACAD_REACTORS
330
3C0
102
}
330
A
100
AcDbEntity
  8
0
  6
Continuous
 62
     7
100
AcDbCircle
 10
-102.4999999307042
 20
-4.490379333496092
 30
0.0
 40
2.0
100
AcDbArc
 50
179.9999974955218
 51
209.9999983303477
  0
ARC
  5
33A
102
{ACAD_REACTORS
330
3C0
102
}
330
A
100
AcDbEntity
  8
0
  6
Continuous
 62
     7
100
AcDbCircle
 10
-117.6387824319249
 20
4.25
 30
0.0
 40
2.0
100
AcDbArc
 50
270.0
 51
300.0000008348258
  0
CIRCLE
  5
33B
102
{ACAD_REACTORS
330
3C0
102
}
330
A
100
AcDbEntity
  8
0
  6
Continuous
 62
     7
100
AcDbCircle
 10
-114.9999995059556
 20
8.660253026698239
 30
0.0
 40
1.5
  0
CIRCLE
  5
33C
102
{ACAD_REACTORS
330
3C0
102
}
330
A
100
AcDbEntity
  8
0
  6
Continuous
 62
     7
100
AcDbCircle
 10
-117.4999995059556
 20
12.99037996790231
 30
0.0
 40
1.200000047683715
  0
CIRCLE
  5
33D
102
{ACAD_REACTORS
330
3C0
102
}
330
A
100
AcDbEntity
  8
0
  6
Continuous
 62
     2
100
AcDbCircle
 10
-117.4999995059556
 20
12.99037996790231
 30
0.0
 40
1.5
  0
CIRCLE
  5
33E
102
{ACAD_REACTORS
330
3C0
102
}
330
A
100
AcDbEntity
  8
0
  6
Continuous
 62
     7
100
AcDbCircle
 10
-117.5000010412921
 20
-12.99038262718311
 30
0.0
 40
1.200000047683715
  0
CIRCLE
  5
33F
102
{ACAD_REACTORS
330
3C0
102
}
330
A
100
AcDbEntity
  8
0
  6
Continuous
 62
     2
100
AcDbCircle
 10
-117.5000010412921
 20
-12.99038262718311
 30
0.0
 40
1.5
  0
CIRCLE
  5
340
102
{ACAD_REACTORS
330
3C0
102
}
330
A
100
AcDbEntity
  8
0
  6
Continuous
 62
     7
100
AcDbCircle
 10
-115.0000000876178
 20
-8.660254034166705
 30
0.0
 40
1.5
  0
ARC
  5
341
102
{ACAD_REACTORS
330
3C0
102
}
330
A
100
AcDbEntity
  8
0
  6
Continuous
 62
     7
100
AcDbCircle
 10
-104.0000004348174
 20
-10.3923037824068
 30
0.0
 40
2.5
100
AcDbArc
 50
55.84192844139924
 51
184.1580693326046
  0
LINE
  5
344
102
{ACAD_REACTORS
330
3C0
102
}
330
A
100
AcDbEntity
  8
0
  6
Continuous
 62
     7
100
AcDbLine
 10
-116.0408854096717
 20
2.863144883130205
 30
0.0
 11
-124.4908823579139
 21
17.49896865860047
 31
0.0
  0
LINE
  5
345
102
{ACAD_REACTORS
330
3C0
102
}
330
A
100
AcDbEntity
  8
0
  6
Continuous
 62
     7
100
AcDbLine
 10
-106.6180348129968
 20
-14.14226562266562
 30
0.0
 11
-112.2484595017104
 21
-23.89444707667341
 31
0.0
  0
LINE
  5
346
102
{ACAD_REACTORS
330
3C0
102
}
330
A
100
AcDbEntity
  8
0
  6
Continuous
 62
     7
100
AcDbLine
 10
-87.60000603421984
 20
-7.999991373592767
 30
0.0
 11
-87.60000603421984
 21
8.000001244810967
 31
0.0
  0
LINE
  5
347
102
{ACAD_REACTORS
330
3C0
102
}
330
A
100
AcDbEntity
  8
0
  6
Continuous
 62
     7
100
AcDbLine
 10
-104.4999999307042
 20
3.79998779296875
 30
0.0
 11
-87.60000603421984
 21
3.79998779296875
 31
0.0
  0
LINE
  5
348
102
{ACAD_REACTORS
330
3C0
102
}
330
A
100
AcDbEntity
  8
0
  6
Continuous
 62
     7
100
AcDbLine
 10
-104.4999999307042
 20
-3.5
 30
0.0
 11
-89.80001824125109
 21
-3.5
 31
0.0
  0
LINE
  5
349
102
{ACAD_REACTORS
330
3C0
102
}
330
A
100
AcDbEntity
  8
0
  6
Continuous
 62
     7
100
AcDbLine
 10
-104.4999999307042
 20
3.5
 30
0.0
 11
-89.80001824125109
 21
3.5
 31
0.0
  0
LINE
  5
34A
102
{ACAD_REACTORS
330
3C0
102
}
330
A
100
AcDbEntity
  8
0
  6
Continuous
 62
     7
100
AcDbLine
 10
-123.9385431832856
 20
4.142265082079575
 30
0.0
 11
-129.5689844151386
 21
13.89447518964465
 31
0.0
  0
LINE
  5
34B
102
{ACAD_REACTORS
330
3C0
102
}
330
A
100
AcDbEntity
  8
0
  6
Continuous
 62
     2
100
AcDbLine
 10
-94.99999993070421
 20
-2.082504272460937
 30
0.0
 11
-94.99999993070421
 21
2.029998779296875
 31
0.0
  0
LINE
  5
34C
102
{ACAD_REACTORS
330
3C0
102
}
330
A
100
AcDbEntity
  8
0
  6
Continuous
 62
     7
100
AcDbLine
 10
-106.3915593063146
 20
10.74999894428297
 30
0.0
 11
-113.8609889483704
 21
23.68743035568065
 31
0.0
  0
LINE
  5
34D
102
{ACAD_REACTORS
330
3C0
102
}
330
A
100
AcDbEntity
  8
0
  6
Continuous
 62
     7
100
AcDbLine
 10
-114.271793904002
 20
23.39896223423359
 30
0.0
 11
-113.5887790112292
 21
23.21594892268929
 31
0.0
  0
LINE
  5
34E
102
{ACAD_REACTORS
330
3C0
102
}
330
A
100
AcDbEntity
  8
0
  6
Continuous
 62
     7
100
AcDbLine
 10
-104.4999999307042
 20
-4.490379333496092
 30
0.0
 11
-104.4999999307042
 21
4.490379333496092
 31
0.0
  0
LINE
  5
34F
102
{ACAD_REACTORS
330
3C0
102
}
330
A
100
AcDbEntity
  8
0
  6
CENTER
 62
     2
100
AcDbLine
 10
-130.4999809091722
 20
0.0
 30
0.0
 11
-81.43249504789171
 21
0.0
 31
0.0
  0
LINE
  5
350
102
{ACAD_REACTORS
330
3C0
102
}
330
A
100
AcDbEntity
  8
0
  6
Continuous
 62
     7
100
AcDbLine
 10
-109.4590987359284
 20
6.663141259167806
 30
0.0
 11
-117.9090956841706
 21
21.29896503463807
 31
0.0
  0
LINE
  5
351
102
{ACAD_REACTORS
330
3C0
102
}
330
A
100
AcDbEntity
  8
0
  6
Continuous
 62
     7
100
AcDbLine
 10
-116.0408972394525
 20
-2.863138295286029
 30
0.0
 11
-124.4908956182061
 21
-17.49896454847482
 31
0.0
  0
LINE
  5
352
102
{ACAD_REACTORS
330
3C0
102
}
330
A
100
AcDbEntity
  8
0
  6
Continuous
 62
     7
100
AcDbLine
 10
-106.3915631670265
 20
-10.74999190504703
 30
0.0
 11
-113.8609817282397
 21
-23.68740412386252
 31
0.0
  0
LINE
  5
353
102
{ACAD_REACTORS
330
3C0
102
}
330
A
100
AcDbEntity
  8
0
  6
Continuous
 62
     7
100
AcDbLine
 10
-89.80001824125109
 20
-3.5
 30
0.0
 11
-89.80001824125109
 21
3.5
 31
0.0
  0
LINE
  5
354
102
{ACAD_REACTORS
330
3C0
102
}
330
A
100
AcDbEntity
  8
0
  6
Continuous
 62
     7
100
AcDbLine
 10
-103.7000121377354
 20
-3.5
 30
0.0
 11
-103.7000121377354
 21
3.5
 31
0.0
  0
LINE
  5
355
102
{ACAD_REACTORS
330
3C0
102
}
330
A
100
AcDbEntity
  8
0
  6
Continuous
 62
     7
100
AcDbLine
 10
-128.3112046390199
 20
14.71595192979691
 30
0.0
 11
-128.1281911735346
 21
15.39896739708473
 31
0.0
  0
LINE
  5
356
102
{ACAD_REACTORS
330
3C0
102
}
330
A
100
AcDbEntity
  8
0
  6
Continuous
 62
     7
100
AcDbLine
 10
-116.6387836634074
 20
2.517948159192215
 30
0.0
 11
-108.8612136966915
 21
7.008330353711258
 31
0.0
  0
LINE
  5
357
102
{ACAD_REACTORS
330
3C0
102
}
330
A
100
AcDbEntity
  8
0
  6
Continuous
 62
     7
100
AcDbLine
 10
-105.9485566294974
 20
-11.51730551459968
 30
0.0
 11
-108.1291634715384
 21
-7.74038374064139
 31
0.0
  0
LINE
  5
358
102
{ACAD_REACTORS
330
3C0
102
}
330
A
100
AcDbEntity
  8
0
  6
Continuous
 62
     7
100
AcDbLine
 10
-121.1139906310778
 20
-2.250000000000002
 30
0.0
 11
-128.5834184163409
 21
-15.18742819533827
 31
0.0
  0
LINE
  5
359
102
{ACAD_REACTORS
330
3C0
102
}
330
A
100
AcDbEntity
  8
0
  6
Continuous
 62
     7
100
AcDbLine
 10
-128.1281913885955
 20
-15.39897081862707
 30
0.0
 11
-128.3112075463049
 21
-14.71594514652576
 31
0.0
  0
LINE
  5
35A
102
{ACAD_REACTORS
330
3C0
102
}
330
A
100
AcDbEntity
  8
0
  6
Continuous
 62
     7
100
AcDbLine
 10
-113.5887894274328
 20
-23.21595323789766
 30
0.0
 11
-114.2717963453373
 21
-23.39896437043571
 31
0.0
  0
LINE
  5
35B
102
{ACAD_REACTORS
330
3C0
102
}
330
A
100
AcDbEntity
  8
0
  6
CENTER
 62
     2
100
AcDbLine
 10
-99.75001689988145
 20
-17.75349118748392
 30
0.0
 11
-124.2837519473618
 21
24.74018365149915
 31
0.0
  0
LINE
  5
35C
102
{ACAD_REACTORS
330
3C0
102
}
330
A
100
AcDbEntity
  8
0
  6
Continuous
 62
     7
100
AcDbLine
 10
-88.09999711786822
 20
8.499992370605466
 30
0.0
 11
-87.60000603421984
 21
8.000001244810967
 31
0.0
  0
LINE
  5
35D
102
{ACAD_REACTORS
330
3C0
102
}
330
A
100
AcDbEntity
  8
0
  6
CENTER
 62
     2
100
AcDbLine
 10
-99.74999984469901
 20
17.75352072792587
 30
0.0
 11
-124.2837529861841
 21
-24.74018545079193
 31
0.0
  0
LINE
  5
35E
102
{ACAD_REACTORS
330
3C0
102
}
330
A
100
AcDbEntity
  8
0
  6
Continuous
 62
     7
100
AcDbLine
 10
-104.4999999307042
 20
-3.800003051757812
 30
0.0
 11
-87.60000603421984
 21
-3.800003051757812
 31
0.0
  0
LINE
  5
35F
102
{ACAD_REACTORS
330
3C0
102
}
330
A
100
AcDbEntity
  8
0
  6
Continuous
 62
     7
100
AcDbLine
 10
-87.60000603421984
 20
-7.999991373592767
 30
0.0
 11
-88.10001470277464
 21
-8.500000000000001
 31
0.0
  0
LINE
  5
360
102
{ACAD_REACTORS
330
3C0
102
}
330
A
100
AcDbEntity
  8
0
  6
Continuous
 62
     7
100
AcDbLine
 10
-102.4944464357697
 20
-8.5
 30
0.0
 11
-87.55562424324075
 21
-8.5
 31
0.0
  0
LINE
  5
361
102
{ACAD_REACTORS
330
3C0
102
}
330
A
100
AcDbEntity
  8
0
  6
Continuous
 62
     7
100
AcDbLine
 10
-109.4591122175215
 20
-6.663133717649321
 30
0.0
 11
-117.9091105962752
 21
-21.29895997083811
 31
0.0
  0
LINE
  5
362
102
{ACAD_REACTORS
330
3C0
102
}
330
A
100
AcDbEntity
  8
0
  6
Continuous
 62
     7
100
AcDbLine
 10
-109.495089908363
 20
6.725479797329525
 30
0.0
 11
-106.5205960813207
 21
10.97349719062705
 31
0.0
  0
LINE
  5
363
102
{ACAD_REACTORS
330
3C0
102
}
330
A
100
AcDbEntity
  8
0
  6
Continuous
 62
     7
100
AcDbLine
 10
-116.0768692025612
 20
2.925470639545091
 30
0.0
 11
-121.2430165785607
 21
2.47349131136047
 31
0.0
  0
LINE
  5
364
102
{ACAD_REACTORS
330
3C0
102
}
330
A
100
AcDbEntity
  8
0
  6
Continuous
 62
     7
100
AcDbLine
 10
-104.4280379528335
 20
3.79998779296875
 30
0.0
 11
-102.2363898537612
 21
8.499992370605466
 31
0.0
  0
LINE
  5
365
102
{ACAD_REACTORS
330
3C0
102
}
330
A
100
AcDbEntity
  8
0
  6
Continuous
 62
     7
100
AcDbLine
 10
-104.4280287405168
 20
-3.800003051757812
 30
0.0
 11
-102.2363841990895
 21
-8.5
 31
0.0
  0
LINE
  5
366
102
{ACAD_REACTORS
330
3C0
102
}
330
A
100
AcDbEntity
  8
0
  6
Continuous
 62
     7
100
AcDbLine
 10
-90.60000603421983
 20
-3.5
 30
0.0
 11
-90.60000603421983
 21
3.5
 31
0.0
  0
LINE
  5
367
102
{ACAD_REACTORS
330
3C0
102
}
330
A
100
AcDbEntity
  8
0
  6
Continuous
 62
     7
100
AcDbLine
 10
-123.9385432290791
 20
-4.142268601348432
 30
0.0
 11
-129.5689821560885
 21
-13.89447471680733
 31
0.0
  0
LINE
  5
368
102
{ACAD_REACTORS
330
3C0
102
}
330
A
100
AcDbEntity
  8
0
  6
Continuous
 62
     7
100
AcDbLine
 10
-102.4944488545454
 20
8.499992370605466
 30
0.0
 11
-87.5556213538835
 21
8.499992370605466
 31
0.0
  0
LINE
  5
369
102
{ACAD_REACTORS
330
3C0
102
}
330
A
100
AcDbEntity
  8
0
  6
Continuous
 62
     7
100
AcDbLine
 10
-121.1139838074693
 20
2.25
 30
0.0
 11
-128.5834168465846
 21
15.18743729527727
 31
0.0
  0
LINE
  5
36A
102
{ACAD_REACTORS
330
3C0
102
}
330
A
100
AcDbEntity
  8
0
  6
Continuous
 62
     7
100
AcDbLine
 10
-99.44342034086046
 20
10.0
 30
0.0
 11
-88.18257570143279
 21
10.0
 31
0.0
  0
LINE
  5
36B
102
{ACAD_REACTORS
330
3C0
102
}
330
A
100
AcDbEntity
  8
0
  6
Continuous
 62
     7
100
AcDbLine
 10
-116.6387806268771
 20
-2.51795015441688
 30
0.0
 11
-108.8612156155982
 21
-7.008329487912987
 31
0.0
  0
LINE
  5
36C
102
{ACAD_REACTORS
330
3C0
102
}
330
A
100
AcDbEntity
  8
0
  6
Continuous
 62
     7
100
AcDbLine
 10
-99.44342034086046
 20
-10.0
 30
0.0
 11
-88.18257570143279
 21
-10.0
 31
0.0
  0
LINE
  5
36D
102
{ACAD_REACTORS
330
3C0
102
}
330
A
100
AcDbEntity
  8
0
  6
Continuous
 62
     7
100
AcDbLine
 10
-106.6180345925632
 20
14.14226555891673
 30
0.0
 11
-112.2484750561496
 21
23.89447433580517
 31
0.0
  0
LINE
  5
36E
102
{ACAD_REACTORS
330
3C0
102
}
330
A
100
AcDbEntity
  8
0
  6
Continuous
 62
     7
100
AcDbLine
 10
-102.0514409976958
 20
9.267304473049307
 30
0.0
 11
-104.2320497470855
 21
5.490379395466333
 31
0.0
  0
LINE
  5
36F
102
{ACAD_REACTORS
330
3C0
102
}
330
A
100
AcDbEntity
  8
0
  6
Continuous
 62
     7
100
AcDbLine
 10
-116.076889226623
 20
-2.925464440718542
 30
0.0
 11
-121.243020630074
 21
-2.473486509950836
 31
0.0
  0
LINE
  5
370
102
{ACAD_REACTORS
330
3C0
102
}
330
A
100
AcDbEntity
  8
0
  6
Continuous
 62
     7
100
AcDbLine
 10
-122.0000037454014
 20
2.25
 30
0.0
 11
-117.6387824319249
 21
2.25
 31
0.0
  0
LINE
  5
371
102
{ACAD_REACTORS
330
3C0
102
}
330
A
100
AcDbEntity
  8
0
  6
Continuous
 62
     7
100
AcDbLine
 10
-121.9941214871849
 20
-2.25
 30
0.0
 11
-117.6387824319249
 21
-2.25
 31
0.0
  0
LINE
  5
372
102
{ACAD_REACTORS
330
3C0
102
}
330
A
100
AcDbEntity
  8
0
  6
Continuous
 62
     7
100
AcDbLine
 10
-105.9471380213824
 20
11.51975917593475
 30
0.0
 11
-108.1291639941691
 21
7.740379395466333
 31
0.0
  0
LINE
  5
373
102
{ACAD_REACTORS
330
3C0
102
}
330
A
100
AcDbEntity
  8
0
  6
Continuous
 62
     7
100
AcDbLine
 10
-102.0514423824138
 20
-9.267305514599682
 30
0.0
 11
-104.2320492244548
 21
-5.490383740641391
 31
0.0
  0
LINE
  5
374
102
{ACAD_REACTORS
330
3C0
102
}
330
A
100
AcDbEntity
  8
0
  6
Continuous
 62
     7
100
AcDbLine
 10
-109.495093902888
 20
-6.725455823727369
 30
0.0
 11
-106.5205946438655
 21
-10.9734809746965
 31
0.0
  0
LINE
  5
375
102
{ACAD_REACTORS
330
3C0
102
}
330
A
100
AcDbEntity
  8
0
  6
Continuous
 62
     7
100
AcDbLine
 10
-114.271793904002
 20
23.39896223423358
 30
0.0
 11
-128.1281911735346
 21
15.39896739708473
 31
0.0
  0
LINE
  5
376
102
{ACAD_REACTORS
330
3C0
102
}
330
A
100
AcDbEntity
  8
0
  6
Continuous
 62
     7
100
AcDbLine
 10
-109.7189089953004
 20
6.513139733288906
 30
0.0
 11
-117.068899840027
 21
19.24369708303039
 31
0.0
  0
LINE
  5
377
102
{ACAD_REACTORS
330
3C0
102
}
330
A
100
AcDbEntity
  8
0
  6
Continuous
 62
     7
100
AcDbLine
 10
-115.7810883647985
 20
3.013138779614589
 30
0.0
 11
-123.131079209525
 21
15.74369612935608
 31
0.0
  0
LINE
  5
378
102
{ACAD_REACTORS
330
3C0
102
}
330
A
100
AcDbEntity
  8
0
  6
Continuous
 62
     2
100
AcDbLine
 10
-115.7192369342259
 20
14.01850373650629
 30
0.0
 11
-119.280768986266
 21
11.96225221062738
 31
0.0
  0
LINE
  5
379
102
{ACAD_REACTORS
330
3C0
102
}
330
A
100
AcDbEntity
  8
0
  6
Continuous
 62
     7
100
AcDbLine
 10
-117.068899840027
 20
19.24369708303039
 30
0.0
 11
-123.131079209525
 21
15.74369612935608
 31
0.0
  0
LINE
  5
37A
102
{ACAD_REACTORS
330
3C0
102
}
330
A
100
AcDbEntity
  8
0
  6
Continuous
 62
     7
100
AcDbLine
 10
-116.6689059435426
 20
18.55088734403673
 30
0.0
 11
-122.7310853130406
 21
15.05088639036241
 31
0.0
  0
LINE
  5
37B
102
{ACAD_REACTORS
330
3C0
102
}
330
A
100
AcDbEntity
  8
0
  6
Continuous
 62
     7
100
AcDbLine
 10
-122.7310853588342
 20
-15.05088990963127
 30
0.0
 11
-116.6689076411485
 21
-18.55088990963126
 31
0.0
  0
LINE
  5
37C
102
{ACAD_REACTORS
330
3C0
102
}
330
A
100
AcDbEntity
  8
0
  6
Continuous
 62
     2
100
AcDbLine
 10
-119.2807670673122
 20
-11.96225686424366
 30
0.0
 11
-115.7192350152721
 21
-14.01850839012256
 31
0.0
  0
LINE
  5
37D
102
{ACAD_REACTORS
330
3C0
102
}
330
A
100
AcDbEntity
  8
0
  6
Continuous
 62
     7
100
AcDbLine
 10
-123.1310792553185
 20
-15.74369964862494
 30
0.0
 11
-117.0689015376328
 21
-19.24369964862494
 31
0.0
  0
LINE
  5
37E
102
{ACAD_REACTORS
330
3C0
102
}
330
A
100
AcDbEntity
  8
0
  6
Continuous
 62
     7
100
AcDbLine
 10
-115.7810869800805
 20
-3.013139821164918
 30
0.0
 11
-123.1310792553185
 21
-15.74369964862493
 31
0.0
  0
LINE
  5
37F
102
{ACAD_REACTORS
330
3C0
102
}
330
A
100
AcDbEntity
  8
0
  6
Continuous
 62
     7
100
AcDbLine
 10
-109.7189092623948
 20
-6.513139821164933
 30
0.0
 11
-117.0689015376328
 21
-19.24369964862495
 31
0.0
  0
LINE
  5
380
102
{ACAD_REACTORS
330
3C0
102
}
330
A
100
AcDbEntity
  8
0
  6
Continuous
 62
     7
100
AcDbLine
 10
-128.1281913885955
 20
-15.39897081862707
 30
0.0
 11
-114.2718000013142
 21
-23.39896225965645
 31
0.0
  0
LINE
  5
381
102
{ACAD_REACTORS
330
3C0
102
}
330
A
100
AcDbEntity
  8
0
  6
Continuous
 62
     7
100
AcDbLine
 10
-110.1189028917848
 20
7.205949472282567
 30
0.0
 11
-116.1810822612828
 21
3.705948518608251
 31
0.0
  0
LINE
  5
382
102
{ACAD_REACTORS
330
3C0
102
}
330
A
100
AcDbEntity
  8
0
  6
Continuous
 62
     7
100
AcDbLine
 10
-116.1810808765649
 20
-3.705949560158604
 30
0.0
 11
-110.1189031588792
 21
-7.205949560158612
 31
0.0
  0
LINE
  5
383
102
{ACAD_REACTORS
330
3C0
102
}
330
A
100
AcDbEntity
  8
0
  6
Continuous
 62
     2
100
AcDbLine
 10
-99.99999993070421
 20
2.029998779296875
 30
0.0
 11
-99.99999993070421
 21
-2.082504272460937
 31
0.0
  0
LINE
  5
384
102
{ACAD_REACTORS
330
3C0
102
}
330
A
100
AcDbEntity
  8
0
  6
Continuous
 62
     2
100
AcDbLine
 10
-116.7807697714215
 20
7.632129669189452
 30
0.0
 11
-113.2192377193814
 21
9.688381195068359
 31
0.0
  0
LINE
  5
385
102
{ACAD_REACTORS
330
3C0
102
}
330
A
100
AcDbEntity
  8
0
  6
Continuous
 62
     2
100
AcDbLine
 10
-113.2192340615978
 20
-9.688379797106156
 30
0.0
 11
-116.7807661136379
 21
-7.632128271227249
 31
0.0
  0
CIRCLE
  5
386
102
{ACAD_REACTORS
330
3C0
102
}
330
A
100
AcDbEntity
  8
0
  6
Continuous
 62
     7
100
AcDbCircle
 10
-104.0000202156677
 20
10.39231697577348
 30
0.0
 40
1.154700323196721
  0
CIRCLE
  5
387
102
{ACAD_REACTORS
330
3C0
102
}
330
A
100
AcDbEntity
  8
0
  6
Continuous
 62
     7
100
AcDbCircle
 10
-122.0000037454014
 20
0.0
 30
0.0
 40
1.154700323196721
  0
CIRCLE
  5
388
102
{ACAD_REACTORS
330
3C0
102
}
330
A
100
AcDbEntity
  8
0
  6
Continuous
 62
     7
100
AcDbCircle
 10
-104.000023323001
 20
-10.39229615301227
 30
0.0
 40
1.154700323196721
  0
ARC
  5
389
102
{ACAD_REACTORS
330
3C0
102
}
330
A
100
AcDbEntity
  8
0
  6
Continuous
 62
     7
100
AcDbCircle
 10
-109.999999982676
 20
0.0000000300059533
 30
0.0
 40
20.5
100
AcDbArc
 50
29.19640431356289
 51
90.80359350935257
  0
ARC
  5
38A
102
{ACAD_REACTORS
330
3C0
102
}
330
A
100
AcDbEntity
  8
0
  6
Continuous
 62
     7
100
AcDbCircle
 10
-110.0000152414651
 20
0.0000305475840783
 30
0.0
 40
20.5
100
AcDbArc
 50
269.1965002026031
 51
330.8034977867005
  0
ARC
  5
38B
102
{ACAD_REACTORS
330
3C0
102
}
330
A
100
AcDbEntity
  8
0
  6
Continuous
 62
     7
100
AcDbCircle
 10
-109.9999809091897
 20
0.0000267328868127
 30
0.0
 40
20.5
100
AcDbArc
 50
149.1965001528714
 51
210.8035909441653
  0
ARC
  5
38C
102
{ACAD_REACTORS
330
3C0
102
}
330
A
100
AcDbEntity
  8
0
  6
Continuous
 62
     2
100
AcDbCircle
 10
-109.999999982676
 20
-0.0000000300059533
 30
0.0
 40
17.5
100
AcDbArc
 50
43.57361095611396
 51
76.4264520336604
  0
ARC
  5
38D
102
{ACAD_REACTORS
330
3C0
102
}
330
A
100
AcDbEntity
  8
0
  6
Continuous
 62
     2
100
AcDbCircle
 10
-109.9999809091897
 20
0.0000266728749061
 30
0.0
 40
17.5
100
AcDbArc
 50
163.5736111076945
 51
196.4264521852406
  0
ARC
  5
38E
102
{ACAD_REACTORS
330
3C0
102
}
330
A
100
AcDbEntity
  8
0
  6
Continuous
 62
     2
100
AcDbCircle
 10
-110.0000152414651
 20
0.0000304875721717
 30
0.0
 40
17.5
100
AcDbArc
 50
283.5736093243573
 51
316.4264521094505
  0
ARC
  5
38F
102
{ACAD_REACTORS
330
3C0
102
}
330
A
100
AcDbEntity
  8
0
  6
Continuous
 62
     7
100
AcDbCircle
 10
-109.9999999307042
 20
0.0
 30
0.0
 40
24.0
100
AcDbArc
 50
335.375681647836
 51
24.62431835216409
  0
ARC
  5
390
102
{ACAD_REACTORS
330
3C0
102
}
330
A
100
AcDbEntity
  8
0
  6
Continuous
 62
     7
100
AcDbCircle
 10
-110.0000190041905
 20
0.000030517578125
 30
0.0
 40
24.0
100
AcDbArc
 50
95.37567679255044
 51
144.624315294348
  0
ARC
  5
391
102
{ACAD_REACTORS
330
3C0
102
}
330
A
100
AcDbEntity
  8
0
  6
Continuous
 62
     7
100
AcDbCircle
 10
-110.0000380776768
 20
0.0
 30
0.0
 40
24.0
100
AcDbArc
 50
215.3757726733982
 51
264.6244062407212
  0
LINE
  5
393
102
{ACAD_REACTORS
330
3C0
102
}
330
A
100
AcDbEntity
  8
0
  6
Continuous
 62
     7
100
AcDbLine
 10
-104.0000202156677
 20
11.54701729897021
 30
0.0
 11
-105.0000200293141
 21
10.96966713737184
 31
0.0
  0
LINE
  5
394
102
{ACAD_REACTORS
330
3C0
102
}
330
A
100
AcDbEntity
  8
0
  6
Continuous
 62
     7
100
AcDbLine
 10
-105.0000200293141
 20
10.96966713737184
 30
0.0
 11
-105.0000200293141
 21
9.814966814175123
 31
0.0
  0
LINE
  5
395
102
{ACAD_REACTORS
330
3C0
102
}
330
A
100
AcDbEntity
  8
0
  6
Continuous
 62
     7
100
AcDbLine
 10
-105.0000200293141
 20
9.814966814175123
 30
0.0
 11
-104.0000202156677
 21
9.237616652576759
 31
0.0
  0
LINE
  5
396
102
{ACAD_REACTORS
330
3C0
102
}
330
A
100
AcDbEntity
  8
0
  6
Continuous
 62
     7
100
AcDbLine
 10
-104.0000202156677
 20
9.237616652576759
 30
0.0
 11
-103.0000204020212
 21
9.814966814175123
 31
0.0
  0
LINE
  5
397
102
{ACAD_REACTORS
330
3C0
102
}
330
A
100
AcDbEntity
  8
0
  6
Continuous
 62
     7
100
AcDbLine
 10
-103.0000204020212
 20
9.814966814175123
 30
0.0
 11
-103.0000204020212
 21
10.96966713737184
 31
0.0
  0
LINE
  5
398
102
{ACAD_REACTORS
330
3C0
102
}
330
A
100
AcDbEntity
  8
0
  6
Continuous
 62
     7
100
AcDbLine
 10
-103.0000204020212
 20
10.96966713737184
 30
0.0
 11
-104.0000202156677
 21
11.54701729897021
 31
0.0
  0
LINE
  5
399
102
{ACAD_REACTORS
330
3C0
102
}
330
A
100
AcDbEntity
  8
0
  6
Continuous
 62
     7
100
AcDbLine
 10
-122.0000037454014
 20
1.154700323196721
 30
0.0
 11
-123.0000035590479
 21
0.5773501615983605
 31
0.0
  0
LINE
  5
39A
102
{ACAD_REACTORS
330
3C0
102
}
330
A
100
AcDbEntity
  8
0
  6
Continuous
 62
     7
100
AcDbLine
 10
-121.000003931755
 20
0.5773501615983589
 30
0.0
 11
-122.0000037454014
 21
1.154700323196721
 31
0.0
  0
LINE
  5
39B
102
{ACAD_REACTORS
330
3C0
102
}
330
A
100
AcDbEntity
  8
0
  6
Continuous
 62
     7
100
AcDbLine
 10
-123.0000035590479
 20
0.5773501615983605
 30
0.0
 11
-123.0000035590479
 21
-0.5773501615983605
 31
0.0
  0
LINE
  5
39C
102
{ACAD_REACTORS
330
3C0
102
}
330
A
100
AcDbEntity
  8
0
  6
Continuous
 62
     7
100
AcDbLine
 10
-123.0000035590479
 20
-0.5773501615983605
 30
0.0
 11
-122.0000037454014
 21
-1.154700323196721
 31
0.0
  0
LINE
  5
39D
102
{ACAD_REACTORS
330
3C0
102
}
330
A
100
AcDbEntity
  8
0
  6
Continuous
 62
     7
100
AcDbLine
 10
-122.0000037454014
 20
-1.154700323196721
 30
0.0
 11
-121.000003931755
 21
-0.5773501615983623
 31
0.0
  0
LINE
  5
39E
102
{ACAD_REACTORS
330
3C0
102
}
330
A
100
AcDbEntity
  8
0
  6
Continuous
 62
     7
100
AcDbLine
 10
-121.000003931755
 20
-0.5773501615983623
 30
0.0
 11
-121.000003931755
 21
0.5773501615983589
 31
0.0
  0
LINE
  5
39F
102
{ACAD_REACTORS
330
3C0
102
}
330
A
100
AcDbEntity
  8
0
  6
Continuous
 62
     7
100
AcDbLine
 10
-104.000023323001
 20
-9.237595829815543
 30
0.0
 11
-105.0000231366474
 21
-9.814945991413907
 31
0.0
  0
LINE
  5
3A0
102
{ACAD_REACTORS
330
3C0
102
}
330
A
100
AcDbEntity
  8
0
  6
Continuous
 62
     7
100
AcDbLine
 10
-103.0000235093545
 20
-9.81494599141391
 30
0.0
 11
-104.000023323001
 21
-9.237595829815543
 31
0.0
  0
LINE
  5
3A1
102
{ACAD_REACTORS
330
3C0
102
}
330
A
100
AcDbEntity
  8
0
  6
Continuous
 62
     7
100
AcDbLine
 10
-105.0000231366474
 20
-9.814945991413907
 30
0.0
 11
-105.0000231366474
 21
-10.96964631461063
 31
0.0
  0
LINE
  5
3A2
102
{ACAD_REACTORS
330
3C0
102
}
330
A
100
AcDbEntity
  8
0
  6
Continuous
 62
     7
100
AcDbLine
 10
-105.0000231366474
 20
-10.96964631461063
 30
0.0
 11
-104.000023323001
 21
-11.54699647620899
 31
0.0
  0
LINE
  5
3A3
102
{ACAD_REACTORS
330
3C0
102
}
330
A
100
AcDbEntity
  8
0
  6
Continuous
 62
     7
100
AcDbLine
 10
-104.000023323001
 20
-11.54699647620899
 30
0.0
 11
-103.0000235093545
 21
-10.96964631461063
 31
0.0
  0
LINE
  5
3A4
102
{ACAD_REACTORS
330
3C0
102
}
330
A
100
AcDbEntity
  8
0
  6
Continuous
 62
     7
100
AcDbLine
 10
-103.0000235093545
 20
-10.96964631461063
 30
0.0
 11
-103.0000235093545
 21
-9.81494599141391
 31
0.0
  0
CIRCLE
  5
3AE
102
{ACAD_REACTORS
330
3C0
102
}
330
A
100
AcDbEntity
  8
0
  6
Continuous
100
AcDbCircle
 10
-101.2499998908767
 20
15.15544448322134
 30
0.0
 40
1.6
  0
CIRCLE
  5
3AF
102
{ACAD_REACTORS
330
3C0
102
}
330
A
100
AcDbEntity
  8
0
  6
Continuous
100
AcDbCircle
 10
-101.2500168940873
 20
-15.15541503279724
 30
0.0
 40
1.6
  0
CIRCLE
  5
3B0
102
{ACAD_REACTORS
330
3C0
102
}
330
A
100
AcDbEntity
  8
0
  6
Continuous
100
AcDbCircle
 10
-127.4999809091694
 20
0.0
 30
0.0
 40
1.6
  0
ENDSEC
  0
SECTION
  2
OBJECTS
  0
DICTIONARY
  5
19
330
0
100
AcDbDictionary
281
     1
  3
ACAD_COLOR
350
31E
  3
ACAD_GROUP
350
1A
  3
ACAD_LAYOUT
350
321
  3
ACAD_MATERIAL
350
31D
  3
ACAD_MLINESTYLE
350
1B
  3
ACAD_PLOTSETTINGS
350
322
  3
ACAD_PLOTSTYLENAME
350
31B
  3
ACAD_TABLESTYLE
350
31F
  3
ACDBHEADERROUNDTRIPXREC
350
3C2
  3
AcDbVariableDictionary
350
3B1
  0
DICTIONARY
  5
3A5
330
A
100
AcDbDictionary
280
     1
281
     1
  3
ACAD_SORTENTS
360
3A6
  0
DICTIONARY
  5
31E
102
{ACAD_REACTORS
330
19
102
}
330
19
100
AcDbDictionary
281
     1
  0
DICTIONARY
  5
1A
102
{ACAD_REACTORS
330
19
102
}
330
19
100
AcDbDictionary
281
     1
  3
*A1
350
3C0
  0
DICTIONARY
  5
321
102
{ACAD_REACTORS
330
19
102
}
330
19
100
AcDbDictionary
281
     1
  3
Model
350
323
  3
レイアウト1
350
324
  0
DICTIONARY
  5
31D
102
{ACAD_REACTORS
330
19
102
}
330
19
100
AcDbDictionary
281
     1
  0
DICTIONARY
  5
1B
102
{ACAD_REACTORS
330
19
102
}
330
19
100
AcDbDictionary
281
     1
  3
STANDARD
350
1C
  0
DICTIONARY
  5
322
102
{ACAD_REACTORS
330
19
102
}
330
19
100
AcDbDictionary
281
     1
  0
ACDBDICTIONARYWDFLT
  5
31B
102
{ACAD_REACTORS
330
19
102
}
330
19
100
AcDbDictionary
281
     1
  3
Normal
350
31C
100
AcDbDictionaryWithDefault
340
31C
  0
DICTIONARY
  5
31F
102
{ACAD_REACTORS
330
19
102
}
330
19
100
AcDbDictionary
281
     1
  3
Standard
350
320
  0
DICTIONARY
  5
3C2
102
{ACAD_REACTORS
330
19
102
}
330
19
100
AcDbDictionary
281
     1
  0
DICTIONARY
  5
3B1
102
{ACAD_REACTORS
330
19
102
}
330
19
100
AcDbDictionary
281
     1
  3
CTABLESTYLE
350
3B2
  3
DIMASSOC
350
3B3
  3
PROJECTNAME
350
3B4
  0
SORTENTSTABLE
  5
3A6
102
{ACAD_REACTORS
330
3A5
102
}
330
3A5
100
AcDbSortentsTable
330
A
331
356
  5
340
331
395
  5
37F
331
30F
  5
39E
331
2FD
  5
2FD
331
35E
  5
348
331
39D
  5
387
331
32F
  5
307
331
366
  5
350
331
36E
  5
358
331
376
  5
360
331
337
  5
30F
331
33F
  5
329
331
37E
  5
368
331
347
  5
331
331
386
  5
370
331
34F
  5
339
331
38E
  5
378
331
396
  5
380
331
310
  5
39F
331
357
  5
341
331
39E
  5
388
331
328
  5
300
331
35F
  5
349
331
2FE
  5
2FE
331
367
  5
351
331
36F
  5
359
331
330
  5
308
331
338
  5
310
331
377
  5
361
331
340
  5
32A
331
37F
  5
369
331
387
  5
371
331
348
  5
332
331
38F
  5
379
331
350
  5
33A
331
309
  5
398
331
358
  5
342
331
397
  5
381
331
311
  5
3A0
331
329
  5
301
331
360
  5
34A
331
39F
  5
389
331
368
  5
352
331
331
  5
309
331
370
  5
35A
331
378
  5
362
331
339
  5
311
331
3A0
  5
38A
331
341
  5
32B
331
380
  5
36A
331
349
  5
333
331
388
  5
372
331
300
  5
38F
331
30A
  5
399
331
351
  5
33B
331
390
  5
37A
331
398
  5
382
331
312
  5
3A1
331
359
  5
343
331
361
  5
34B
331
32A
  5
302
331
369
  5
353
331
332
  5
30A
331
371
  5
35B
331
33A
  5
312
331
379
  5
363
331
3A1
  5
38B
331
381
  5
36B
331
389
  5
373
331
34A
  5
334
331
301
  5
390
331
352
  5
33C
331
391
  5
37B
331
30B
  5
39A
331
35A
  5
344
331
399
  5
383
331
313
  5
3A2
331
32B
  5
303
331
362
  5
34C
331
36A
  5
354
331
372
  5
35C
331
333
  5
30B
331
37A
  5
364
331
33B
  5
313
331
3A2
  5
38C
331
382
  5
36C
331
34B
  5
335
331
38A
  5
374
331
302
  5
391
331
30C
  5
39B
331
353
  5
33D
331
39A
  5
384
331
314
  5
3A3
331
35B
  5
345
331
363
  5
34D
331
32C
  5
304
331
36B
  5
355
331
334
  5
30C
331
373
  5
35D
331
33C
  5
314
331
37B
  5
365
331
383
  5
36D
331
344
  5
32E
331
3A3
  5
38D
331
38B
  5
375
331
34C
  5
336
331
354
  5
33E
331
393
  5
37D
331
30D
  5
39C
331
315
  5
3A4
331
35C
  5
346
331
39B
  5
385
331
32D
  5
305
331
364
  5
34E
331
36C
  5
356
331
374
  5
35E
331
335
  5
30D
331
37C
  5
366
331
33D
  5
315
331
3A4
  5
38E
331
345
  5
32F
331
384
  5
36E
331
34D
  5
337
331
38C
  5
376
331
394
  5
37E
331
30E
  5
39D
331
355
  5
33F
331
39C
  5
386
331
35D
  5
347
331
365
  5
34F
331
32E
  5
306
331
36D
  5
357
331
336
  5
30E
331
375
  5
35F
331
33E
  5
328
331
37D
  5
367
331
385
  5
36F
331
346
  5
330
331
38D
  5
377
331
34E
  5
338
  0
GROUP
  5
3C0
102
{ACAD_REACTORS
330
1A
102
}
330
1A
100
AcDbGroup
300

 70
     1
 71
     1
340
3B0
340
3AF
340
3AE
340
3A4
340
3A3
340
3A2
340
3A1
340
3A0
340
39F
340
39E
340
39D
340
39C
340
39B
340
39A
340
399
340
398
340
397
340
396
340
395
340
394
340
393
340
391
340
390
340
38F
340
38E
340
38D
340
38C
340
38B
340
38A
340
389
340
388
340
387
340
386
340
385
340
384
340
383
340
382
340
381
340
380
340
37F
340
37E
340
37D
340
37C
340
37B
340
37A
340
379
340
378
340
377
340
376
340
375
340
374
340
373
340
372
340
371
340
370
340
36F
340
36E
340
36D
340
36C
340
36B
340
36A
340
369
340
368
340
367
340
366
340
365
340
364
340
363
340
362
340
361
340
360
340
35F
340
35E
340
35D
340
35C
340
35B
340
35A
340
359
340
358
340
357
340
356
340
355
340
354
340
353
340
352
340
351
340
350
340
34F
340
34E
340
34D
340
34C
340
34B
340
34A
340
349
340
348
340
347
340
346
340
345
340
344
340
341
340
340
340
33F
340
33E
340
33D
340
33C
340
33B
340
33A
340
339
340
338
340
337
340
336
340
335
340
334
340
333
340
332
340
331
340
330
340
32F
340
32E
340
32D
340
32C
340
32B
340
32A
340
329
340
328
  0
LAYOUT
  5
323
102
{ACAD_XDICTIONARY
360
3C3
102
}
102
{ACAD_REACTORS
330
321
102
}
330
321
100
AcDbPlotSettings
  1

  2
DocuCentre 559
  4

  6

 40
0.0
 41
0.0
 42
0.0
 43
0.0
 44
0.0
 45
0.0
 46
0.0
 47
0.0
 48
0.0
 49
0.0
140
0.0
141
0.0
142
1.0
143
1.0
 70
  1712
 72
     0
 73
     0
 74
     0
  7

 75
     0
147
1.0
148
0.0
149
0.0
100
AcDbLayout
  1
Model
 70
     1
 71
     0
 10
0.0
 20
0.0
 11
12.0
 21
9.0
 12
0.0
 22
0.0
 32
0.0
 14
0.0
 24
0.0
 34
0.0
 15
0.0
 25
0.0
 35
0.0
146
0.0
 13
0.0
 23
0.0
 33
0.0
 16
1.0
 26
0.0
 36
0.0
 17
0.0
 27
1.0
 37
0.0
 76
     0
330
A
  0
LAYOUT
  5
324
102
{ACAD_XDICTIONARY
360
3C5
102
}
102
{ACAD_REACTORS
330
321
102
}
330
321
100
AcDbPlotSettings
  1

  2
DocuCentre 559
  4

  6

 40
0.0
 41
0.0
 42
0.0
 43
0.0
 44
0.0
 45
0.0
 46
0.0
 47
0.0
 48
0.0
 49
0.0
140
0.0
141
0.0
142
1.0
143
1.0
 70
   688
 72
     0
 73
     0
 74
     5
  7

 75
    16
147
1.0
148
0.0
149
0.0
100
AcDbLayout
  1
レイアウト1
 70
     0
 71
     1
 10
0.0
 20
0.0
 11
12.0
 21
9.0
 12
0.0
 22
0.0
 32
0.0
 14
1.000000000000000E+20
 24
1.000000000000000E+20
 34
1.000000000000000E+20
 15
-1.000000000000000E+20
 25
-1.000000000000000E+20
 35
-1.000000000000000E+20
146
0.0
 13
0.0
 23
0.0
 33
0.0
 16
1.0
 26
0.0
 36
0.0
 17
0.0
 27
1.0
 37
0.0
 76
     0
330
B
  0
MLINESTYLE
  5
1C
102
{ACAD_REACTORS
330
1B
102
}
330
1B
100
AcDbMlineStyle
  2
STANDARD
 70
     0
  3

 62
     0
 51
90.0
 52
90.0
 71
     2
 49
0.5
 62
   256
  6
BYLAYER
 49
-0.5
 62
   256
  6
BYLAYER
  0
ACDBPLACEHOLDER
  5
31C
102
{ACAD_REACTORS
330
31B
102
}
330
31B
  0
TABLESTYLE
  5
320
102
{ACAD_REACTORS
330
31F
102
}
330
31F
100
AcDbTableStyle
  3
Standard
 70
     0
 71
     0
 40
0.06
 41
0.06
280
     0
281
     0
  7
MX_NOTE_STANDARD
140
0.18
170
     2
 62
     0
 63
     7
283
     0
274
    -2
284
     1
 64
     0
275
    -2
285
     1
 65
     0
276
    -2
286
     1
 66
     0
277
    -2
287
     1
 67
     0
278
    -2
288
     1
 68
     0
279
    -2
289
     1
 69
     0
  7
MX_NOTE_STANDARD
140
0.25
170
     5
 62
     0
 63
     7
283
     0
274
    -2
284
     1
 64
     0
275
    -2
285
     1
 65
     0
276
    -2
286
     1
 66
     0
277
    -2
287
     1
 67
     0
278
    -2
288
     1
 68
     0
279
    -2
289
     1
 69
     0
  7
MX_NOTE_STANDARD
140
0.18
170
     5
 62
     0
 63
     7
283
     0
274
    -2
284
     1
 64
     0
275
    -2
285
     1
 65
     0
276
    -2
286
     1
 66
     0
277
    -2
287
     1
 67
     0
278
    -2
288
     1
 68
     0
279
    -2
289
     1
 69
     0
  0
DICTIONARYVAR
  5
3B2
102
{ACAD_REACTORS
330
3B1
102
}
330
3B1
100
DictionaryVariables
280
     0
  1
STANDARD
  0
DICTIONARYVAR
  5
3B3
102
{ACAD_REACTORS
330
3B1
102
}
330
3B1
100
DictionaryVariables
280
     0
  1
1
  0
DICTIONARYVAR
  5
3B4
102
{ACAD_REACTORS
330
3B1
102
}
330
3B1
100
DictionaryVariables
280
     0
  1

  0
DICTIONARY
  5
3C3
330
323
100
AcDbDictionary
280
     1
281
     1
  3
ACAD_XREC_ROUNDTRIP
360
3C4
  0
DICTIONARY
  5
3C5
330
324
100
AcDbDictionary
280
     1
281
     1
  3
ACAD_XREC_ROUNDTRIP
360
3C6
  0
XRECORD
  5
3C4
102
{ACAD_REACTORS
330
3C3
102
}
330
3C3
100
AcDbXrecord
280
     1
102
SHADEPLOT
 70
     0
102
SHADEPLOTRESLEVEL
 70
     2
102
SHADEPLOTCUSTOMDPI
 70
   300
  0
XRECORD
  5
3C6
102
{ACAD_REACTORS
330
3C5
102
}
330
3C5
100
AcDbXrecord
280
     1
102
SHADEPLOT
 70
     0
102
SHADEPLOTRESLEVEL
 70
     2
102
SHADEPLOTCUSTOMDPI
 70
   300
  0
ENDSEC
  0
EOF
