  0
SECTION
  2
HEADER
  9
$ACADVER
  1
AC1015
  9
$ACADMAINTVER
 70
    20
  9
$DWGCODEPAGE
  3
ANSI_932
  9
$INSBASE
 10
0.0
 20
0.0
 30
0.0
  9
$EXTMIN
 10
-194.25
 20
-133.5
 30
0.0
  9
$EXTMAX
 10
195.0953023707292
 20
132.6000061035156
 30
0.0
  9
$LIMMIN
 10
-210.0
 20
-148.5
  9
$LIMMAX
 10
210.0
 20
148.5
  9
$ORTHOMODE
 70
     0
  9
$REGENMODE
 70
     1
  9
$FILLMODE
 70
     1
  9
$QTEXTMODE
 70
     0
  9
$MIRRTEXT
 70
     1
  9
$LTSCALE
 40
1.0
  9
$ATTMODE
 70
     1
  9
$TEXTSIZE
 40
3.200000047683715
  9
$TRACEWID
 40
0.05
  9
$TEXTSTYLE
  7
MX_NOTE_STANDARD
  9
$CLAYER
  8
0
  9
$CELTYPE
  6
CONTINUOUS
  9
$CECOLOR
 62
   256
  9
$CELTSCALE
 40
1.0
  9
$DISPSILH
 70
     0
  9
$DIMSCALE
 40
1.0
  9
$DIMASZ
 40
2.5
  9
$DIMEXO
 40
1.5
  9
$DIMDLI
 40
3.75
  9
$DIMRND
 40
0.0
  9
$DIMDLE
 40
0.0
  9
$DIMEXE
 40
1.5
  9
$DIMTP
 40
0.0
  9
$DIMTM
 40
0.0
  9
$DIMTXT
 40
3.200000047683715
  9
$DIMCEN
 40
2.5
  9
$DIMTSZ
 40
0.0
  9
$DIMTOL
 70
     0
  9
$DIMLIM
 70
     0
  9
$DIMTIH
 70
     0
  9
$DIMTOH
 70
     0
  9
$DIMSE1
 70
     0
  9
$DIMSE2
 70
     0
  9
$DIMTAD
 70
     1
  9
$DIMZIN
 70
     8
  9
$DIMBLK
  1

  9
$DIMASO
 70
     1
  9
$DIMSHO
 70
     1
  9
$DIMPOST
  1

  9
$DIMAPOST
  1

  9
$DIMALT
 70
     0
  9
$DIMALTD
 70
     4
  9
$DIMALTF
 40
0.03937007874016
  9
$DIMLFAC
 40
1.0
  9
$DIMTOFL
 70
     1
  9
$DIMTVP
 40
0.0
  9
$DIMTIX
 70
     0
  9
$DIMSOXD
 70
     0
  9
$DIMSAH
 70
     1
  9
$DIMBLK1
  1
OPEN30
  9
$DIMBLK2
  1
OPEN30
  9
$DIMSTYLE
  2
MXDIMSTYLE
  9
$DIMCLRD
 70
     0
  9
$DIMCLRE
 70
     0
  9
$DIMCLRT
 70
     0
  9
$DIMTFAC
 40
1.0
  9
$DIMGAP
 40
1.0
  9
$DIMJUST
 70
     0
  9
$DIMSD1
 70
     0
  9
$DIMSD2
 70
     0
  9
$DIMTOLJ
 70
     0
  9
$DIMTZIN
 70
     0
  9
$DIMALTZ
 70
     0
  9
$DIMALTTZ
 70
     0
  9
$DIMUPT
 70
     1
  9
$DIMDEC
 70
     2
  9
$DIMTDEC
 70
     2
  9
$DIMALTU
 70
     2
  9
$DIMALTTD
 70
     4
  9
$DIMTXSTY
  7
MX_NOTE_STANDARD
  9
$DIMAUNIT
 70
     0
  9
$DIMADEC
 70
     0
  9
$DIMALTRND
 40
0.0
  9
$DIMAZIN
 70
     0
  9
$DIMDSEP
 70
    46
  9
$DIMATFIT
 70
     3
  9
$DIMFRAC
 70
     0
  9
$DIMLDRBLK
  1
OPEN30
  9
$DIMLUNIT
 70
     2
  9
$DIMLWD
 70
    -2
  9
$DIMLWE
 70
    -2
  9
$DIMTMOVE
 70
     0
  9
$LUNITS
 70
     2
  9
$LUPREC
 70
     4
  9
$SKETCHINC
 40
0.1
  9
$FILLETRAD
 40
0.0
  9
$AUNITS
 70
     0
  9
$AUPREC
 70
     0
  9
$MENU
  1
acad
  9
$ELEVATION
 40
0.0
  9
$PELEVATION
 40
0.0
  9
$THICKNESS
 40
0.0
  9
$LIMCHECK
 70
     0
  9
$CHAMFERA
 40
0.0
  9
$CHAMFERB
 40
0.0
  9
$CHAMFERC
 40
0.0
  9
$CHAMFERD
 40
0.0
  9
$SKPOLY
 70
     0
  9
$TDCREATE
 40
2453882.358090278
  9
$TDUCREATE
 40
2453881.983090278
  9
$TDUPDATE
 40
2453885.458254190
  9
$TDUUPDATE
 40
2453885.083254190
  9
$TDINDWG
 40
0.0003035532
  9
$TDUSRTIMER
 40
0.0003032060
  9
$USRTIMER
 70
     1
  9
$ANGBASE
 50
0.0
  9
$ANGDIR
 70
     0
  9
$PDMODE
 70
     0
  9
$PDSIZE
 40
0.0
  9
$PLINEWID
 40
0.0
  9
$SPLFRAME
 70
     0
  9
$SPLINETYPE
 70
     6
  9
$SPLINESEGS
 70
     8
  9
$HANDSEED
  5
318
  9
$SURFTAB1
 70
     6
  9
$SURFTAB2
 70
     6
  9
$SURFTYPE
 70
     6
  9
$SURFU
 70
     6
  9
$SURFV
 70
     6
  9
$UCSBASE
  2

  9
$UCSNAME
  2

  9
$UCSORG
 10
0.0
 20
0.0
 30
0.0
  9
$UCSXDIR
 10
1.0
 20
0.0
 30
0.0
  9
$UCSYDIR
 10
0.0
 20
1.0
 30
0.0
  9
$UCSORTHOREF
  2

  9
$UCSORTHOVIEW
 70
     0
  9
$UCSORGTOP
 10
0.0
 20
0.0
 30
0.0
  9
$UCSORGBOTTOM
 10
0.0
 20
0.0
 30
0.0
  9
$UCSORGLEFT
 10
0.0
 20
0.0
 30
0.0
  9
$UCSORGRIGHT
 10
0.0
 20
0.0
 30
0.0
  9
$UCSORGFRONT
 10
0.0
 20
0.0
 30
0.0
  9
$UCSORGBACK
 10
0.0
 20
0.0
 30
0.0
  9
$PUCSBASE
  2

  9
$PUCSNAME
  2

  9
$PUCSORG
 10
0.0
 20
0.0
 30
0.0
  9
$PUCSXDIR
 10
1.0
 20
0.0
 30
0.0
  9
$PUCSYDIR
 10
0.0
 20
1.0
 30
0.0
  9
$PUCSORTHOREF
  2

  9
$PUCSORTHOVIEW
 70
     0
  9
$PUCSORGTOP
 10
0.0
 20
0.0
 30
0.0
  9
$PUCSORGBOTTOM
 10
0.0
 20
0.0
 30
0.0
  9
$PUCSORGLEFT
 10
0.0
 20
0.0
 30
0.0
  9
$PUCSORGRIGHT
 10
0.0
 20
0.0
 30
0.0
  9
$PUCSORGFRONT
 10
0.0
 20
0.0
 30
0.0
  9
$PUCSORGBACK
 10
0.0
 20
0.0
 30
0.0
  9
$USERI1
 70
     0
  9
$USERI2
 70
     0
  9
$USERI3
 70
     0
  9
$USERI4
 70
     0
  9
$USERI5
 70
     0
  9
$USERR1
 40
0.0
  9
$USERR2
 40
0.0
  9
$USERR3
 40
0.0
  9
$USERR4
 40
0.0
  9
$USERR5
 40
0.0
  9
$WORLDVIEW
 70
     1
  9
$SHADEDGE
 70
     3
  9
$SHADEDIF
 70
    70
  9
$TILEMODE
 70
     1
  9
$MAXACTVP
 70
    16
  9
$PINSBASE
 10
0.0
 20
0.0
 30
0.0
  9
$PLIMCHECK
 70
     0
  9
$PEXTMIN
 10
1.000000000000000E+20
 20
1.000000000000000E+20
 30
1.000000000000000E+20
  9
$PEXTMAX
 10
-1.000000000000000E+20
 20
-1.000000000000000E+20
 30
-1.000000000000000E+20
  9
$PLIMMIN
 10
0.0
 20
0.0
  9
$PLIMMAX
 10
12.0
 20
9.0
  9
$UNITMODE
 70
     0
  9
$VISRETAIN
 70
     0
  9
$PLINEGEN
 70
     1
  9
$PSLTSCALE
 70
     0
  9
$TREEDEPTH
 70
  3020
  9
$CMLSTYLE
  2
STANDARD
  9
$CMLJUST
 70
     0
  9
$CMLSCALE
 40
1.0
  9
$PROXYGRAPHICS
 70
     1
  9
$MEASUREMENT
 70
     0
  9
$CELWEIGHT
370
    -1
  9
$ENDCAPS
280
     0
  9
$JOINSTYLE
280
     0
  9
$LWDISPLAY
290
     0
  9
$INSUNITS
 70
     0
  9
$HYPERLINKBASE
  1

  9
$STYLESHEET
  1

  9
$XEDIT
290
     1
  9
$CEPSNTYPE
380
     0
  9
$PSTYLEMODE
290
     1
  9
$FINGERPRINTGUID
  2
{902F4E48-898A-4084-9ACD-8E628158A49C}
  9
$VERSIONGUID
  2
{AF7069D9-1F71-4E50-89FF-C5D0FE2799B0}
  9
$EXTNAMES
290
     1
  9
$PSVPSCALE
 40
0.0
  9
$OLESTARTUP
290
     0
  0
ENDSEC
  0
SECTION
  2
CLASSES
  0
CLASS
  1
IMAGE
  2
AcDbRasterImage
  3
ISM
 90
    32895
280
     0
281
     1
  0
CLASS
  1
DICTIONARYVAR
  2
AcDbDictionaryVar
  3
ObjectDBX Classes
 90
        0
280
     0
281
     0
  0
CLASS
  1
RASTERVARIABLES
  2
AcDbRasterVariables
  3
ISM
 90
    32768
280
     0
281
     0
  0
CLASS
  1
IMAGEDEF
  2
AcDbRasterImageDef
  3
ISM
 90
    32768
280
     0
281
     0
  0
CLASS
  1
IMAGEDEF_REACTOR
  2
AcDbRasterImageDefReactor
  3
ISM
 90
    32769
280
     0
281
     0
  0
CLASS
  1
IDBUFFER
  2
AcDbIdBuffer
  3
ObjectDBX Classes
 90
    32768
280
     0
281
     0
  0
CLASS
  1
SPATIAL_FILTER
  2
AcDbSpatialFilter
  3
ObjectDBX Classes
 90
    32768
280
     0
281
     0
  0
CLASS
  1
SORTENTSTABLE
  2
AcDbSortentsTable
  3
ObjectDBX Classes
 90
    32768
280
     0
281
     0
  0
CLASS
  1
LAYER_INDEX
  2
AcDbLayerIndex
  3
ObjectDBX Classes
 90
    32768
280
     0
281
     0
  0
CLASS
  1
SPATIAL_INDEX
  2
AcDbSpatialIndex
  3
ObjectDBX Classes
 90
    32768
280
     0
281
     0
  0
CLASS
  1
OBJECT_PTR
  2
CAseDLPNTableRecord
  3
"ASE-LPNTableRecord"
 90
    32769
280
     0
281
     0
  0
CLASS
  1
LAYOUT
  2
AcDbLayout
  3
ObjectDBX Classes
 90
        0
280
     0
281
     0
  0
CLASS
  1
PLOTSETTINGS
  2
AcDbPlotSettings
  3
ObjectDBX Classes
 90
    32768
280
     0
281
     0
  0
CLASS
  1
ACDBDICTIONARYWDFLT
  2
AcDbDictionaryWithDefault
  3
ObjectDBX Classes
 90
        0
280
     0
281
     0
  0
CLASS
  1
ACDBPLACEHOLDER
  2
AcDbPlaceHolder
  3
ObjectDBX Classes
 90
        0
280
     0
281
     0
  0
CLASS
  1
TABLESTYLE
  2
AcDbTableStyle
  3
ObjectDBX Classes
 90
     2047
280
     0
281
     0
  0
ENDSEC
  0
SECTION
  2
TABLES
  0
TABLE
  2
VPORT
  5
7
330
0
100
AcDbSymbolTable
 70
     2
  0
VPORT
  5
312
330
7
100
AcDbSymbolTableRecord
100
AcDbViewportTableRecord
  2
*Active
 70
     0
 10
0.0
 20
0.0
 11
1.0
 21
1.0
 12
-6.318157553709397
 22
-10.95290652844389
 13
0.0
 23
0.0
 14
1.0
 24
1.0
 15
0.0
 25
0.0
 16
0.0
 26
0.0
 36
1.0
 17
0.0
 27
0.0
 37
0.0
 40
336.5832004940692
 41
1.874251497005987
 42
50.0
 43
0.0
 44
0.0
 50
0.0
 51
0.0
 71
     0
 72
   100
 73
     1
 74
     1
 75
     0
 76
     0
 77
     0
 78
     0
281
     0
 65
     1
110
0.0
120
0.0
130
0.0
111
1.0
121
0.0
131
0.0
112
0.0
122
1.0
132
0.0
 79
     0
146
0.0
  0
ENDTAB
  0
TABLE
  2
LTYPE
  5
4
330
0
100
AcDbSymbolTable
 70
     2
  0
LTYPE
  5
11
330
4
100
AcDbSymbolTableRecord
100
AcDbLinetypeTableRecord
  2
BYBLOCK
 70
     0
  3

 72
    65
 73
     0
 40
0.0
  0
LTYPE
  5
12
330
4
100
AcDbSymbolTableRecord
100
AcDbLinetypeTableRecord
  2
BYLAYER
 70
     0
  3

 72
    65
 73
     0
 40
0.0
  0
LTYPE
  5
13
330
4
100
AcDbSymbolTableRecord
100
AcDbLinetypeTableRecord
  2
CONTINUOUS
 70
     0
  3
Solid line
 72
    65
 73
     0
 40
0.0
  0
LTYPE
  5
3D
330
4
100
AcDbSymbolTableRecord
100
AcDbLinetypeTableRecord
  2
CENTER
 70
     0
  3
Center ____ _ ____ _ ____ _ ____ _ ____ _ ____
 72
    65
 73
     4
 40
50.8
 49
31.75
 74
     0
 49
-6.349999999999999
 74
     0
 49
6.349999999999999
 74
     0
 49
-6.349999999999999
 74
     0
  0
ENDTAB
  0
TABLE
  2
LAYER
  5
2
330
0
100
AcDbSymbolTable
 70
     2
  0
LAYER
  5
14
330
2
100
AcDbSymbolTableRecord
100
AcDbLayerTableRecord
  2
0
 70
     0
 62
     7
  6
CONTINUOUS
370
    -3
390
302
  0
LAYER
  5
1D
330
2
100
AcDbSymbolTableRecord
100
AcDbLayerTableRecord
  2
DEFPOINTS
 70
     0
 62
     7
  6
CONTINUOUS
290
     0
370
    -3
390
302
  0
ENDTAB
  0
TABLE
  2
STYLE
  5
3
330
0
100
AcDbSymbolTable
 70
     2
  0
STYLE
  5
17
330
3
100
AcDbSymbolTableRecord
100
AcDbTextStyleTableRecord
  2
MX_NOTE_STANDARD
 70
     0
 40
0.0
 41
1.0
 50
0.0
 71
     0
 42
3.200000047683715
  3
txt.shx
  4
extfont.shx
  0
STYLE
  5
300
330
3
100
AcDbSymbolTableRecord
100
AcDbTextStyleTableRecord
  2
Standard
 70
     0
 40
0.0
 41
1.0
 50
0.0
 71
     0
 42
0.2
  3

  4

  0
ENDTAB
  0
TABLE
  2
VIEW
  5
5
330
0
100
AcDbSymbolTable
 70
     0
  0
ENDTAB
  0
TABLE
  2
UCS
  5
6
330
0
100
AcDbSymbolTable
 70
     0
  0
ENDTAB
  0
TABLE
  2
APPID
  5
8
330
0
100
AcDbSymbolTable
 70
     1
  0
APPID
  5
16
330
8
100
AcDbSymbolTableRecord
100
AcDbRegAppTableRecord
  2
ACAD
 70
     0
  0
ENDTAB
  0
TABLE
  2
DIMSTYLE
  5
9
330
0
100
AcDbSymbolTable
 70
     1
100
AcDbDimStyleTable
 71
     0
  0
DIMSTYLE
105
18
330
9
100
AcDbSymbolTableRecord
100
AcDbDimStyleTableRecord
  2
MXDIMSTYLE
 70
     0
 41
2.5
 42
1.5
 43
3.75
 44
1.5
 73
     0
 74
     0
 77
     1
 78
     8
140
3.200000047683715
141
2.5
143
0.03937007874016
147
1.0
171
     4
172
     1
173
     1
271
     2
272
     2
274
     4
283
     0
288
     1
340
17
341
2A
343
2A
344
2A
  0
ENDTAB
  0
TABLE
  2
BLOCK_RECORD
  5
1
330
0
100
AcDbSymbolTable
 70
    13
  0
BLOCK_RECORD
  5
A
330
1
100
AcDbSymbolTableRecord
100
AcDbBlockTableRecord
  2
*MODEL_SPACE
340
309
  0
BLOCK_RECORD
  5
B
330
1
100
AcDbSymbolTableRecord
100
AcDbBlockTableRecord
  2
*PAPER_SPACE
340
30A
  0
BLOCK_RECORD
  5
1E
330
1
100
AcDbSymbolTableRecord
100
AcDbBlockTableRecord
  2
NHE1D-20-1
340
0
102
{BLKREFS
331
2E6
102
}
  0
BLOCK_RECORD
  5
1F
330
1
100
AcDbSymbolTableRecord
100
AcDbBlockTableRecord
  2
NHE1D-20-2
340
0
102
{BLKREFS
331
2E5
102
}
  0
BLOCK_RECORD
  5
20
330
1
100
AcDbSymbolTableRecord
100
AcDbBlockTableRecord
  2
NHE1D-20-3
340
0
102
{BLKREFS
331
2E4
102
}
  0
BLOCK_RECORD
  5
21
330
1
100
AcDbSymbolTableRecord
100
AcDbBlockTableRecord
  2
NHE1D-20-4
340
0
102
{BLKREFS
331
2E3
102
}
  0
BLOCK_RECORD
  5
22
330
1
100
AcDbSymbolTableRecord
100
AcDbBlockTableRecord
  2
NHE1D-20-5
340
0
  0
BLOCK_RECORD
  5
23
330
1
100
AcDbSymbolTableRecord
100
AcDbBlockTableRecord
  2
NHE1D-20-6
340
0
  0
BLOCK_RECORD
  5
24
330
1
100
AcDbSymbolTableRecord
100
AcDbBlockTableRecord
  2
NHE1D-20-7
340
0
  0
BLOCK_RECORD
  5
25
330
1
100
AcDbSymbolTableRecord
100
AcDbBlockTableRecord
  2
NHE1D-20-8
340
0
  0
BLOCK_RECORD
  5
26
330
1
100
AcDbSymbolTableRecord
100
AcDbBlockTableRecord
  2
NHE1D-20-9
340
0
  0
BLOCK_RECORD
  5
27
330
1
100
AcDbSymbolTableRecord
100
AcDbBlockTableRecord
  2
NHE1D-20-10
340
0
  0
BLOCK_RECORD
  5
28
330
1
100
AcDbSymbolTableRecord
100
AcDbBlockTableRecord
  2
NHE1D-20-11
340
0
  0
BLOCK_RECORD
  5
29
330
1
100
AcDbSymbolTableRecord
100
AcDbBlockTableRecord
  2
NHE1D-20-12
340
0
  0
BLOCK_RECORD
  5
2A
330
1
100
AcDbSymbolTableRecord
100
AcDbBlockTableRecord
  2
_OPEN30
340
0
  0
ENDTAB
  0
ENDSEC
  0
SECTION
  2
BLOCKS
  0
BLOCK
  5
D
330
A
100
AcDbEntity
  8
0
100
AcDbBlockBegin
  2
*MODEL_SPACE
 70
     0
 10
0.0
 20
0.0
 30
0.0
  3
*MODEL_SPACE
  1

  0
ENDBLK
  5
E
330
A
100
AcDbEntity
  8
0
100
AcDbBlockEnd
  0
BLOCK
  5
F
330
B
100
AcDbEntity
 67
     1
  8
0
100
AcDbBlockBegin
  2
*PAPER_SPACE
 70
     0
 10
0.0
 20
0.0
 30
0.0
  3
*PAPER_SPACE
  1

  0
ENDBLK
  5
10
330
B
100
AcDbEntity
 67
     1
  8
0
100
AcDbBlockEnd
  0
BLOCK
  5
30
330
1E
100
AcDbEntity
  8
0
100
AcDbBlockBegin
  2
NHE1D-20-1
 70
     0
 10
0.0
 20
0.0
 30
0.0
  3
NHE1D-20-1
  1

  0
ARC
  5
31
330
1E
100
AcDbEntity
  8
0
  6
Continuous
 62
     7
100
AcDbCircle
 10
4.099990844726562
 20
-4.5
 30
0.0
 40
1.0
100
AcDbArc
 50
179.9999993167547
 51
359.9999974955218
  0
ARC
  5
32
330
1E
100
AcDbEntity
  8
0
  6
Continuous
 62
     7
100
AcDbCircle
 10
4.099761962890625
 20
-4.858245849609375
 30
0.0
 40
1.100000023841857
100
AcDbArc
 50
163.7266364870924
 51
16.27336715537326
  0
ARC
  5
33
330
1E
100
AcDbEntity
  8
0
  6
Continuous
 62
     7
100
AcDbCircle
 10
4.099990844726562
 20
4.5
 30
0.0
 40
1.0
100
AcDbArc
 50
359.9999974955218
 51
180.0000025044782
  0
ARC
  5
34
330
1E
100
AcDbEntity
  8
0
  6
Continuous
 62
     7
100
AcDbCircle
 10
4.099761962890625
 20
4.858245849609375
 30
0.0
 40
1.100000023841857
100
AcDbArc
 50
343.7266278356704
 51
196.2733721643296
  0
CIRCLE
  5
35
330
1E
100
AcDbEntity
  8
0
  6
Continuous
 62
     7
100
AcDbCircle
 10
4.099990844726562
 20
-2.25
 30
0.0
 40
1.0
  0
CIRCLE
  5
36
330
1E
100
AcDbEntity
  8
0
  6
Continuous
 62
     7
100
AcDbCircle
 10
4.099990844726562
 20
2.25
 30
0.0
 40
1.0
  0
CIRCLE
  5
37
330
1E
100
AcDbEntity
  8
0
  6
Continuous
 62
     2
100
AcDbCircle
 10
31.99999618530273
 20
0.0
 30
0.0
 40
2.5
  0
CIRCLE
  5
38
330
1E
100
AcDbEntity
  8
0
  6
Continuous
 62
     7
100
AcDbCircle
 10
31.99999618530273
 20
0.0
 30
0.0
 40
2.0
  0
CIRCLE
  5
39
330
1E
100
AcDbEntity
  8
0
  6
Continuous
 62
     7
100
AcDbCircle
 10
31.99999618530273
 20
0.0
 30
0.0
 40
4.25
  0
CIRCLE
  5
3A
330
1E
100
AcDbEntity
  8
0
  6
Continuous
 62
     2
100
AcDbCircle
 10
45.99999618530274
 20
0.0
 30
0.0
 40
2.5
  0
CIRCLE
  5
3B
330
1E
100
AcDbEntity
  8
0
  6
Continuous
 62
     7
100
AcDbCircle
 10
45.99999618530274
 20
0.0
 30
0.0
 40
2.0
  0
CIRCLE
  5
3C
330
1E
100
AcDbEntity
  8
0
  6
Continuous
 62
     7
100
AcDbCircle
 10
45.99999618530274
 20
0.0
 30
0.0
 40
4.25
  0
LINE
  5
3E
330
1E
100
AcDbEntity
  8
0
  6
CENTER
 62
     2
100
AcDbLine
 10
-5.0
 20
0.0
 30
0.0
 11
63.0
 21
0.0
 31
0.0
  0
LINE
  5
3F
330
1E
100
AcDbEntity
  8
0
  6
Continuous
 62
     7
100
AcDbLine
 10
57.0
 20
-23.99999237060547
 30
0.0
 11
57.0
 21
-14.66287994384765
 31
0.0
  0
LINE
  5
40
330
1E
100
AcDbEntity
  8
0
  6
Continuous
 62
     7
100
AcDbLine
 10
58.0
 20
-22.99999245489916
 30
0.0
 11
58.0
 21
23.00000008429369
 31
0.0
  0
LINE
  5
41
330
1E
100
AcDbEntity
  8
0
  6
Continuous
 62
     7
100
AcDbLine
 10
58.0
 20
23.00000008429369
 30
0.0
 11
57.0
 21
24.0
 31
0.0
  0
LINE
  5
42
330
1E
100
AcDbEntity
  8
0
  6
Continuous
 62
     7
100
AcDbLine
 10
58.0
 20
-22.99999245489916
 30
0.0
 11
57.0
 21
-23.99999237060547
 31
0.0
  0
LINE
  5
43
330
1E
100
AcDbEntity
  8
0
  6
Continuous
 62
     7
100
AcDbLine
 10
17.0
 20
24.0
 30
0.0
 11
57.0
 21
24.0
 31
0.0
  0
LINE
  5
44
330
1E
100
AcDbEntity
  8
0
  6
Continuous
 62
     7
100
AcDbLine
 10
17.0
 20
-23.99999237060547
 30
0.0
 11
57.0
 21
-23.99999237060547
 31
0.0
  0
LINE
  5
45
330
1E
100
AcDbEntity
  8
0
  6
Continuous
 62
     7
100
AcDbLine
 10
24.0
 20
-12.50003051757812
 30
0.0
 11
7.999984741210937
 21
-12.50003051757812
 31
0.0
  0
LINE
  5
46
330
1E
100
AcDbEntity
  8
0
  6
Continuous
 62
     7
100
AcDbLine
 10
24.0
 20
12.50003051757812
 30
0.0
 11
7.999984741210937
 21
12.50003051757812
 31
0.0
  0
LINE
  5
47
330
1E
100
AcDbEntity
  8
0
  6
Continuous
 62
     7
100
AcDbLine
 10
2.199996948242187
 20
10.0
 30
0.0
 11
10.0
 21
10.0
 31
0.0
  0
LINE
  5
48
330
1E
100
AcDbEntity
  8
0
  6
Continuous
 62
     7
100
AcDbLine
 10
2.199996948242187
 20
-10.0
 30
0.0
 11
10.0
 21
-10.0
 31
0.0
  0
LINE
  5
49
330
1E
100
AcDbEntity
  8
0
  6
Continuous
 62
     7
100
AcDbLine
 10
2.199996948242187
 20
-4.5
 30
0.0
 11
2.199996948242187
 21
-30.98075866699219
 31
0.0
  0
LINE
  5
4A
330
1E
100
AcDbEntity
  8
0
  6
Continuous
 62
     7
100
AcDbLine
 10
6.0
 20
4.5
 30
0.0
 11
6.0
 21
-4.5
 31
0.0
  0
LINE
  5
4B
330
1E
100
AcDbEntity
  8
0
  6
Continuous
 62
     2
100
AcDbLine
 10
4.099990844726562
 20
3.75
 30
0.0
 11
4.099990844726562
 21
0.75
 31
0.0
  0
LINE
  5
4C
330
1E
100
AcDbEntity
  8
0
  6
Continuous
 62
     7
100
AcDbLine
 10
6.5
 20
4.550003051757812
 30
0.0
 11
6.5
 21
-4.550003051757812
 31
0.0
  0
LINE
  5
4D
330
1E
100
AcDbEntity
  8
0
  6
Continuous
 62
     7
100
AcDbLine
 10
2.199996948242187
 20
4.550003051757812
 30
0.0
 11
3.043838500976562
 21
4.550003051757812
 31
0.0
  0
LINE
  5
4E
330
1E
100
AcDbEntity
  8
0
  6
Continuous
 62
     7
100
AcDbLine
 10
2.199996948242187
 20
-4.550003051757812
 30
0.0
 11
3.043838500976562
 21
-4.550003051757812
 31
0.0
  0
LINE
  5
4F
330
1E
100
AcDbEntity
  8
0
  6
Continuous
 62
     7
100
AcDbLine
 10
5.099990844726562
 20
4.5
 30
0.0
 11
5.998855590820312
 21
4.5
 31
0.0
  0
LINE
  5
50
330
1E
100
AcDbEntity
  8
0
  6
Continuous
 62
     7
100
AcDbLine
 10
5.15570068359375
 20
4.550003051757812
 30
0.0
 11
6.5
 21
4.550003051757812
 31
0.0
  0
LINE
  5
51
330
1E
100
AcDbEntity
  8
0
  6
Continuous
 62
     7
100
AcDbLine
 10
5.15570068359375
 20
-4.550003051757812
 30
0.0
 11
6.5
 21
-4.550003051757812
 31
0.0
  0
LINE
  5
52
330
1E
100
AcDbEntity
  8
0
  6
Continuous
 62
     7
100
AcDbLine
 10
5.099990844726562
 20
-4.5
 30
0.0
 11
6.0
 21
-4.5
 31
0.0
  0
LINE
  5
53
330
1E
100
AcDbEntity
  8
0
  6
Continuous
 62
     2
100
AcDbLine
 10
2.648544311523437
 20
2.25
 30
0.0
 11
5.599990844726562
 21
2.25
 31
0.0
  0
LINE
  5
54
330
1E
100
AcDbEntity
  8
0
  6
Continuous
 62
     2
100
AcDbLine
 10
2.599990844726562
 20
-2.25
 30
0.0
 11
5.599990844726562
 21
-2.25
 31
0.0
  0
LINE
  5
55
330
1E
100
AcDbEntity
  8
0
  6
Continuous
 62
     7
100
AcDbLine
 10
1.5
 20
4.5
 30
0.0
 11
1.5
 21
-4.5
 31
0.0
  0
LINE
  5
56
330
1E
100
AcDbEntity
  8
0
  6
Continuous
 62
     2
100
AcDbLine
 10
4.099990844726562
 20
-0.75
 30
0.0
 11
4.099990844726562
 21
-3.75
 31
0.0
  0
LINE
  5
57
330
1E
100
AcDbEntity
  8
0
  6
Continuous
 62
     7
100
AcDbLine
 10
10.0
 20
10.0
 30
0.0
 11
10.0
 21
-10.0
 31
0.0
  0
LINE
  5
58
330
1E
100
AcDbEntity
  8
0
  6
Continuous
 62
     7
100
AcDbLine
 10
0.0
 20
-4.5
 30
0.0
 11
0.0
 21
4.5
 31
0.0
  0
LINE
  5
59
330
1E
100
AcDbEntity
  8
0
  6
Continuous
 62
     7
100
AcDbLine
 10
3.099990844726562
 20
-4.5
 30
0.0
 11
0.0
 21
-4.5
 31
0.0
  0
LINE
  5
5A
330
1E
100
AcDbEntity
  8
0
  6
Continuous
 62
     7
100
AcDbLine
 10
3.099990844726562
 20
4.5
 30
0.0
 11
0.0
 21
4.5
 31
0.0
  0
LINE
  5
5B
330
1E
100
AcDbEntity
  8
0
  6
Continuous
 62
     7
100
AcDbLine
 10
7.999984741210937
 20
-31.76103210449219
 30
0.0
 11
7.999984741210937
 21
-10.0
 31
0.0
  0
LINE
  5
5C
330
1E
100
AcDbEntity
  8
0
  6
Continuous
 62
     7
100
AcDbLine
 10
7.999984741210937
 20
10.0
 30
0.0
 11
7.999984741210937
 21
31.76103019714356
 31
0.0
  0
LINE
  5
5D
330
1E
100
AcDbEntity
  8
0
  6
Continuous
 62
     7
100
AcDbLine
 10
17.0
 20
-30.76102956622277
 30
0.0
 11
17.0
 21
-23.99999237060547
 31
0.0
  0
LINE
  5
5E
330
1E
100
AcDbEntity
  8
0
  6
Continuous
 62
     7
100
AcDbLine
 10
24.0
 20
-23.99999237060547
 30
0.0
 11
24.0
 21
-12.50003051757812
 31
0.0
  0
LINE
  5
5F
330
1E
100
AcDbEntity
  8
0
  6
Continuous
 62
     7
100
AcDbLine
 10
16.00000159275168
 20
31.76103019714356
 30
0.0
 11
7.999984741210937
 21
31.76103019714356
 31
0.0
  0
LINE
  5
60
330
1E
100
AcDbEntity
  8
0
  6
Continuous
 62
     7
100
AcDbLine
 10
15.99999746173057
 20
-31.76103210449219
 30
0.0
 11
7.999984741210937
 21
-31.76103210449219
 31
0.0
  0
LINE
  5
61
330
1E
100
AcDbEntity
  8
0
  6
Continuous
 62
     7
100
AcDbLine
 10
7.999984741210937
 20
30.98075866699219
 30
0.0
 11
2.199996948242187
 21
30.98075866699219
 31
0.0
  0
LINE
  5
62
330
1E
100
AcDbEntity
  8
0
  6
Continuous
 62
     7
100
AcDbLine
 10
7.999984741210937
 20
-30.98075866699219
 30
0.0
 11
2.199996948242187
 21
-30.98075866699219
 31
0.0
  0
LINE
  5
63
330
1E
100
AcDbEntity
  8
0
  6
Continuous
 62
     7
100
AcDbLine
 10
17.0
 20
-12.50003051757812
 30
0.0
 11
17.0
 21
12.50003051757812
 31
0.0
  0
LINE
  5
64
330
1E
100
AcDbEntity
  8
0
  6
Continuous
 62
     7
100
AcDbLine
 10
17.0
 20
24.0
 30
0.0
 11
17.0
 21
30.76103178989524
 31
0.0
  0
LINE
  5
65
330
1E
100
AcDbEntity
  8
0
  6
Continuous
 62
     7
100
AcDbLine
 10
17.0
 20
30.76103178989524
 30
0.0
 11
16.00000159275168
 21
31.76103019714356
 31
0.0
  0
LINE
  5
66
330
1E
100
AcDbEntity
  8
0
  6
Continuous
 62
     7
100
AcDbLine
 10
17.0
 20
-30.76102956622277
 30
0.0
 11
15.99999746173057
 21
-31.76103210449219
 31
0.0
  0
LINE
  5
67
330
1E
100
AcDbEntity
  8
0
  6
Continuous
 62
     7
100
AcDbLine
 10
16.0
 20
-12.50003051757812
 30
0.0
 11
16.0
 21
12.50003051757812
 31
0.0
  0
LINE
  5
68
330
1E
100
AcDbEntity
  8
0
  6
Continuous
 62
     7
100
AcDbLine
 10
2.499984741210937
 20
10.10735529865269
 30
0.0
 11
2.499984741210937
 21
15.00733947753907
 31
0.0
  0
LINE
  5
69
330
1E
100
AcDbEntity
  8
0
  6
Continuous
 62
     7
100
AcDbLine
 10
2.79998779296875
 20
15.30734252929687
 30
0.0
 11
5.499984741210937
 21
15.30734252929687
 31
0.0
  0
LINE
  5
6A
330
1E
100
AcDbEntity
  8
0
  6
Continuous
 62
     7
100
AcDbLine
 10
2.79998779296875
 20
10.0
 30
0.0
 11
2.79998779296875
 21
15.30734252929687
 31
0.0
  0
LINE
  5
6B
330
1E
100
AcDbEntity
  8
0
  6
Continuous
 62
     7
100
AcDbLine
 10
5.499984741210937
 20
10.0
 30
0.0
 11
5.499984741210937
 21
15.38110733032226
 31
0.0
  0
LINE
  5
6C
330
1E
100
AcDbEntity
  8
0
  6
Continuous
 62
     7
100
AcDbLine
 10
2.607340039863629
 20
10.0
 30
0.0
 11
2.499984741210937
 21
10.10735529865269
 31
0.0
  0
LINE
  5
6D
330
1E
100
AcDbEntity
  8
0
  6
Continuous
 62
     7
100
AcDbLine
 10
2.499984741210937
 20
15.00733947753907
 30
0.0
 11
2.79998779296875
 21
15.30734252929687
 31
0.0
  0
LINE
  5
6E
330
1E
100
AcDbEntity
  8
0
  6
Continuous
 62
     7
100
AcDbLine
 10
2.199996948242187
 20
30.98075866699219
 30
0.0
 11
2.199996948242187
 21
4.5
 31
0.0
  0
LINE
  5
6F
330
1E
100
AcDbEntity
  8
0
  6
Continuous
 62
     7
100
AcDbLine
 10
7.999984741210937
 20
15.38110733032226
 30
0.0
 11
5.499984741210937
 21
15.38110733032226
 31
0.0
  0
LINE
  5
70
330
1E
100
AcDbEntity
  8
0
  6
Continuous
 62
     7
100
AcDbLine
 10
2.499984741210937
 20
-10.10734228538717
 30
0.0
 11
2.499984741210937
 21
-15.00733947753906
 31
0.0
  0
LINE
  5
71
330
1E
100
AcDbEntity
  8
0
  6
Continuous
 62
     7
100
AcDbLine
 10
7.999984741210937
 20
-15.38111114501953
 30
0.0
 11
5.499984741210937
 21
-15.38111114501953
 31
0.0
  0
LINE
  5
72
330
1E
100
AcDbEntity
  8
0
  6
Continuous
 62
     7
100
AcDbLine
 10
2.79998779296875
 20
-15.30734252929687
 30
0.0
 11
5.499984741210937
 21
-15.30734252929687
 31
0.0
  0
LINE
  5
73
330
1E
100
AcDbEntity
  8
0
  6
Continuous
 62
     7
100
AcDbLine
 10
5.499984741210937
 20
-10.0
 30
0.0
 11
5.499984741210937
 21
-15.38111114501953
 31
0.0
  0
LINE
  5
74
330
1E
100
AcDbEntity
  8
0
  6
Continuous
 62
     7
100
AcDbLine
 10
2.79998779296875
 20
-10.0
 30
0.0
 11
2.79998779296875
 21
-15.30734252929687
 31
0.0
  0
LINE
  5
75
330
1E
100
AcDbEntity
  8
0
  6
Continuous
 62
     7
100
AcDbLine
 10
2.607327026598113
 20
-10.0
 30
0.0
 11
2.499984741210937
 21
-10.10734228538717
 31
0.0
  0
LINE
  5
76
330
1E
100
AcDbEntity
  8
0
  6
Continuous
 62
     7
100
AcDbLine
 10
2.499984741210937
 20
-15.00733947753906
 30
0.0
 11
2.79998779296875
 21
-15.30734252929687
 31
0.0
  0
LINE
  5
77
330
1E
100
AcDbEntity
  8
0
  6
Continuous
 62
     7
100
AcDbLine
 10
2.199996948242187
 20
23.4676399230957
 30
0.0
 11
0.0
 21
23.4676399230957
 31
0.0
  0
LINE
  5
78
330
1E
100
AcDbEntity
  8
0
  6
Continuous
 62
     7
100
AcDbLine
 10
2.199996948242187
 20
7.879177093505859
 30
0.0
 11
0.0
 21
7.879177093505859
 31
0.0
  0
LINE
  5
79
330
1E
100
AcDbEntity
  8
0
  6
Continuous
 62
     7
100
AcDbLine
 10
2.199996948242187
 20
7.013149261474609
 30
0.0
 11
1.5
 21
7.013149261474609
 31
0.0
  0
LINE
  5
7A
330
1E
100
AcDbEntity
  8
0
  6
Continuous
 62
     7
100
AcDbLine
 10
2.199996948242187
 20
24.33366584777832
 30
0.0
 11
1.5
 21
24.33366584777832
 31
0.0
  0
LINE
  5
7B
330
1E
100
AcDbEntity
  8
0
  6
Continuous
 62
     7
100
AcDbLine
 10
0.0
 20
4.5
 30
0.0
 11
0.0
 21
23.4676399230957
 31
0.0
  0
LINE
  5
7C
330
1E
100
AcDbEntity
  8
0
  6
Continuous
 62
     7
100
AcDbLine
 10
1.5
 20
4.5
 30
0.0
 11
1.5
 21
7.879177093505859
 31
0.0
  0
LINE
  5
7D
330
1E
100
AcDbEntity
  8
0
  6
Continuous
 62
     7
100
AcDbLine
 10
1.5
 20
23.4676399230957
 30
0.0
 11
1.5
 21
24.33366584777832
 31
0.0
  0
LINE
  5
7E
330
1E
100
AcDbEntity
  8
0
  6
Continuous
 62
     7
100
AcDbLine
 10
1.5
 20
-23.46764373779297
 30
0.0
 11
1.5
 21
-24.33366394042969
 31
0.0
  0
LINE
  5
7F
330
1E
100
AcDbEntity
  8
0
  6
Continuous
 62
     7
100
AcDbLine
 10
0.0
 20
-4.5
 30
0.0
 11
0.0
 21
-23.46764373779297
 31
0.0
  0
LINE
  5
80
330
1E
100
AcDbEntity
  8
0
  6
Continuous
 62
     7
100
AcDbLine
 10
2.199996948242187
 20
-24.33366394042969
 30
0.0
 11
1.5
 21
-24.33366394042969
 31
0.0
  0
LINE
  5
81
330
1E
100
AcDbEntity
  8
0
  6
Continuous
 62
     7
100
AcDbLine
 10
2.199996948242187
 20
-7.013149261474609
 30
0.0
 11
1.5
 21
-7.013149261474609
 31
0.0
  0
LINE
  5
82
330
1E
100
AcDbEntity
  8
0
  6
Continuous
 62
     7
100
AcDbLine
 10
1.5
 20
-4.5
 30
0.0
 11
1.5
 21
-7.879177093505859
 31
0.0
  0
LINE
  5
83
330
1E
100
AcDbEntity
  8
0
  6
Continuous
 62
     7
100
AcDbLine
 10
2.199996948242187
 20
-23.46764373779297
 30
0.0
 11
0.0
 21
-23.46764373779297
 31
0.0
  0
LINE
  5
84
330
1E
100
AcDbEntity
  8
0
  6
Continuous
 62
     7
100
AcDbLine
 10
2.199996948242187
 20
-7.879177093505859
 30
0.0
 11
0.0
 21
-7.879177093505859
 31
0.0
  0
LINE
  5
85
330
1E
100
AcDbEntity
  8
0
  6
Continuous
 62
     7
100
AcDbLine
 10
0.0
 20
-1.999992370605468
 30
0.0
 11
-2.699996948242187
 21
-1.999992370605468
 31
0.0
  0
LINE
  5
86
330
1E
100
AcDbEntity
  8
0
  6
Continuous
 62
     7
100
AcDbLine
 10
0.0
 20
2.000007629394531
 30
0.0
 11
-2.699996948242187
 21
2.000007629394531
 31
0.0
  0
LINE
  5
87
330
1E
100
AcDbEntity
  8
0
  6
Continuous
 62
     7
100
AcDbLine
 10
-3.0
 20
-1.699989318847656
 30
0.0
 11
-3.0
 21
1.700004577636718
 31
0.0
  0
LINE
  5
88
330
1E
100
AcDbEntity
  8
0
  6
Continuous
 62
     7
100
AcDbLine
 10
-2.699996948242187
 20
-1.999992370605468
 30
0.0
 11
-3.0
 21
-1.699989318847656
 31
0.0
  0
LINE
  5
89
330
1E
100
AcDbEntity
  8
0
  6
Continuous
 62
     7
100
AcDbLine
 10
-2.699996948242187
 20
2.000007629394531
 30
0.0
 11
-3.0
 21
1.700004577636718
 31
0.0
  0
LINE
  5
8A
330
1E
100
AcDbEntity
  8
0
  6
Continuous
 62
     7
100
AcDbLine
 10
-2.699996948242187
 20
-1.999992370605468
 30
0.0
 11
-2.699996948242187
 21
2.000007629394531
 31
0.0
  0
LINE
  5
8B
330
1E
100
AcDbEntity
  8
0
  6
Continuous
 62
     2
100
AcDbLine
 10
2.199996948242187
 20
-9.95928955078125
 30
0.0
 11
-4.0
 21
-9.95928955078125
 31
0.0
  0
LINE
  5
8C
330
1E
100
AcDbEntity
  8
0
  6
Continuous
 62
     7
100
AcDbLine
 10
-3.0
 20
-11.65927505493164
 30
0.0
 11
-3.0
 21
-8.259281158447265
 31
0.0
  0
LINE
  5
8D
330
1E
100
AcDbEntity
  8
0
  6
Continuous
 62
     7
100
AcDbLine
 10
0.0
 20
-7.959278106689453
 30
0.0
 11
-2.699996948242187
 21
-7.959278106689453
 31
0.0
  0
LINE
  5
8E
330
1E
100
AcDbEntity
  8
0
  6
Continuous
 62
     7
100
AcDbLine
 10
0.0
 20
-11.95927810668945
 30
0.0
 11
-2.699996948242187
 21
-11.95927810668945
 31
0.0
  0
LINE
  5
8F
330
1E
100
AcDbEntity
  8
0
  6
Continuous
 62
     7
100
AcDbLine
 10
-2.699996948242187
 20
-11.95927810668945
 30
0.0
 11
-2.699996948242187
 21
-7.959278106689453
 31
0.0
  0
LINE
  5
90
330
1E
100
AcDbEntity
  8
0
  6
Continuous
 62
     7
100
AcDbLine
 10
-2.699996948242187
 20
-11.95927810668945
 30
0.0
 11
-3.0
 21
-11.65927505493164
 31
0.0
  0
LINE
  5
91
330
1E
100
AcDbEntity
  8
0
  6
Continuous
 62
     7
100
AcDbLine
 10
-2.699996948242187
 20
-7.959278106689453
 30
0.0
 11
-3.0
 21
-8.259281158447265
 31
0.0
  0
LINE
  5
92
330
1E
100
AcDbEntity
  8
0
  6
Continuous
 62
     2
100
AcDbLine
 10
2.199996948242187
 20
9.95928955078125
 30
0.0
 11
-4.0
 21
9.95928955078125
 31
0.0
  0
LINE
  5
93
330
1E
100
AcDbEntity
  8
0
  6
Continuous
 62
     7
100
AcDbLine
 10
-3.0
 20
11.65927505493164
 30
0.0
 11
-3.0
 21
8.259281158447265
 31
0.0
  0
LINE
  5
94
330
1E
100
AcDbEntity
  8
0
  6
Continuous
 62
     7
100
AcDbLine
 10
0.0
 20
7.959278106689453
 30
0.0
 11
-2.699996948242187
 21
7.959278106689453
 31
0.0
  0
LINE
  5
95
330
1E
100
AcDbEntity
  8
0
  6
Continuous
 62
     7
100
AcDbLine
 10
0.0
 20
11.95927810668945
 30
0.0
 11
-2.699996948242187
 21
11.95927810668945
 31
0.0
  0
LINE
  5
96
330
1E
100
AcDbEntity
  8
0
  6
Continuous
 62
     7
100
AcDbLine
 10
-2.699996948242187
 20
11.95927810668945
 30
0.0
 11
-2.699996948242187
 21
7.959278106689453
 31
0.0
  0
LINE
  5
97
330
1E
100
AcDbEntity
  8
0
  6
Continuous
 62
     7
100
AcDbLine
 10
-2.699996948242187
 20
11.95927810668945
 30
0.0
 11
-3.0
 21
11.65927505493164
 31
0.0
  0
LINE
  5
98
330
1E
100
AcDbEntity
  8
0
  6
Continuous
 62
     7
100
AcDbLine
 10
-2.699996948242187
 20
7.959278106689453
 30
0.0
 11
-3.0
 21
8.259281158447265
 31
0.0
  0
LINE
  5
99
330
1E
100
AcDbEntity
  8
0
  6
Continuous
 62
     2
100
AcDbLine
 10
31.99999618530273
 20
-6.25
 30
0.0
 11
31.99999618530273
 21
6.25
 31
0.0
  0
LINE
  5
9A
330
1E
100
AcDbEntity
  8
0
  6
Continuous
 62
     2
100
AcDbLine
 10
45.99999618530274
 20
-6.25
 30
0.0
 11
45.99999618530274
 21
6.25
 31
0.0
  0
LINE
  5
9B
330
1E
100
AcDbEntity
  8
0
  6
Continuous
 62
     7
100
AcDbLine
 10
24.0
 20
12.50003051757812
 30
0.0
 11
24.0
 21
24.0
 31
0.0
  0
LINE
  5
9C
330
1E
100
AcDbEntity
  8
0
  6
Continuous
 62
     7
100
AcDbLine
 10
26.49999618530273
 20
14.66288375854492
 30
0.0
 11
26.49999618530273
 21
-14.66287994384765
 31
0.0
  0
LINE
  5
9D
330
1E
100
AcDbEntity
  8
0
  6
Continuous
 62
     7
100
AcDbLine
 10
26.49999618530273
 20
-14.66287994384765
 30
0.0
 11
58.0
 21
-14.66287994384765
 31
0.0
  0
LINE
  5
9E
330
1E
100
AcDbEntity
  8
0
  6
Continuous
 62
     7
100
AcDbLine
 10
26.49999618530273
 20
14.66288375854492
 30
0.0
 11
58.0
 21
14.66288375854492
 31
0.0
  0
LINE
  5
9F
330
1E
100
AcDbEntity
  8
0
  6
Continuous
 62
     7
100
AcDbLine
 10
57.0
 20
14.66288375854492
 30
0.0
 11
57.0
 21
24.0
 31
0.0
  0
ENDBLK
  5
A0
330
1E
100
AcDbEntity
  8
0
100
AcDbBlockEnd
  0
BLOCK
  5
A1
330
1F
100
AcDbEntity
  8
0
100
AcDbBlockBegin
  2
NHE1D-20-2
 70
     0
 10
0.0
 20
0.0
 30
0.0
  3
NHE1D-20-2
  1

  0
CIRCLE
  5
A2
330
1F
100
AcDbEntity
  8
0
  6
Continuous
 62
     7
100
AcDbCircle
 10
0.0
 20
0.0
 30
0.0
 40
3.0
  0
CIRCLE
  5
A3
330
1F
100
AcDbEntity
  8
0
  6
Continuous
 62
     7
100
AcDbCircle
 10
7.249974688951268
 20
-12.55741119384765
 30
0.0
 40
2.75
  0
CIRCLE
  5
A4
330
1F
100
AcDbEntity
  8
0
  6
Continuous
 62
     7
100
AcDbCircle
 10
7.250020465318457
 20
12.55734252929687
 30
0.0
 40
2.75
  0
ARC
  5
A5
330
1F
100
AcDbEntity
  8
0
  6
Continuous
 62
     7
100
AcDbCircle
 10
0.0
 20
0.0
 30
0.0
 40
32.0
100
AcDbArc
 50
97.00659060409718
 51
142.9934676143599
  0
ARC
  5
A6
330
1F
100
AcDbEntity
  8
0
  6
Continuous
 62
     7
100
AcDbCircle
 10
0.0
 20
0.0
 30
0.0
 40
32.0
100
AcDbArc
 50
217.0065169027886
 51
262.9934068975067
  0
CIRCLE
  5
A7
330
1F
100
AcDbEntity
  8
0
  6
Continuous
 62
     7
100
AcDbCircle
 10
-14.50000242286513
 20
0.0
 30
0.0
 40
2.75
  0
ARC
  5
A8
330
1F
100
AcDbEntity
  8
0
  6
Continuous
 62
     7
100
AcDbCircle
 10
0.0
 20
0.0
 30
0.0
 40
32.0
100
AcDbArc
 50
337.0065314888435
 51
22.99345367178148
  0
ARC
  5
A9
330
1F
100
AcDbEntity
  8
0
  6
Continuous
 62
     7
100
AcDbCircle
 10
0.0
 20
0.0
 30
0.0
 40
24.0
100
AcDbArc
 50
151.3882775290652
 51
208.6117002094969
  0
ARC
  5
AA
330
1F
100
AcDbEntity
  8
0
  6
Continuous
 62
     7
100
AcDbCircle
 10
0.0
 20
0.0
 30
0.0
 40
24.0
100
AcDbArc
 50
31.38825180924238
 51
88.61181752415197
  0
ARC
  5
AB
330
1F
100
AcDbEntity
  8
0
  6
Continuous
 62
     7
100
AcDbCircle
 10
0.0
 20
0.0
 30
0.0
 40
24.0
100
AcDbArc
 50
271.3881788836251
 51
328.611726854522
  0
CIRCLE
  5
AC
330
1F
100
AcDbEntity
  8
0
  6
Continuous
 62
     7
100
AcDbCircle
 10
11.49998994774033
 20
0.0
 30
0.0
 40
2.0
  0
CIRCLE
  5
AD
330
1F
100
AcDbEntity
  8
0
  6
Continuous
 62
     2
100
AcDbCircle
 10
19.4999937624376
 20
0.0
 30
0.0
 40
2.0
  0
CIRCLE
  5
AE
330
1F
100
AcDbEntity
  8
0
  6
Continuous
 62
     7
100
AcDbCircle
 10
19.4999937624376
 20
0.0
 30
0.0
 40
1.5
  0
CIRCLE
  5
AF
330
1F
100
AcDbEntity
  8
0
  6
Continuous
 62
     7
100
AcDbCircle
 10
-5.749993500254532
 20
-9.959280706880186
 30
0.0
 40
2.0
  0
CIRCLE
  5
B0
330
1F
100
AcDbEntity
  8
0
  6
Continuous
 62
     2
100
AcDbCircle
 10
-9.750004944346345
 20
-16.88750363455482
 30
0.0
 40
2.0
  0
CIRCLE
  5
B1
330
1F
100
AcDbEntity
  8
0
  6
Continuous
 62
     7
100
AcDbCircle
 10
-9.750004944346345
 20
-16.88750363455482
 30
0.0
 40
1.5
  0
CIRCLE
  5
B2
330
1F
100
AcDbEntity
  8
0
  6
Continuous
 62
     7
100
AcDbCircle
 10
-5.750002422865137
 20
9.959274291992189
 30
0.0
 40
2.0
  0
CIRCLE
  5
B3
330
1F
100
AcDbEntity
  8
0
  6
Continuous
 62
     2
100
AcDbCircle
 10
-9.749995053840834
 20
16.88748650369706
 30
0.0
 40
2.0
  0
CIRCLE
  5
B4
330
1F
100
AcDbEntity
  8
0
  6
Continuous
 62
     7
100
AcDbCircle
 10
-9.749995053840834
 20
16.88748650369706
 30
0.0
 40
1.5
  0
CIRCLE
  5
B5
330
1F
100
AcDbEntity
  8
0
  6
Continuous
 62
     7
100
AcDbCircle
 10
-14.50000242286513
 20
0.0
 30
0.0
 40
3.0
  0
ARC
  5
B6
330
1F
100
AcDbEntity
  8
0
  6
Continuous
 62
     7
100
AcDbCircle
 10
-20.80648855262588
 20
-3.037803649902344
 30
0.0
 40
4.0
100
AcDbArc
 50
329.9999966606958
 51
25.7198602869594
  0
ARC
  5
B7
330
1F
100
AcDbEntity
  8
0
  6
Continuous
 62
     7
100
AcDbCircle
 10
-20.80648473792861
 20
3.037811279296875
 30
0.0
 40
4.0
100
AcDbArc
 50
334.2800390814358
 51
29.99999833034789
  0
ARC
  5
B8
330
1F
100
AcDbEntity
  8
0
  6
Continuous
 62
     7
100
AcDbCircle
 10
-8.145789411252721
 20
3.955572118723749
 30
0.0
 40
2.0
100
AcDbArc
 50
259.9999969894981
 51
302.1964005039809
  0
ARC
  5
B9
330
1F
100
AcDbEntity
  8
0
  6
Continuous
 62
     7
100
AcDbCircle
 10
-8.145759031841963
 20
-3.955604919905121
 30
0.0
 40
2.0
100
AcDbArc
 50
57.80439597590189
 51
100.0003027987373
  0
ARC
  5
BA
330
1F
100
AcDbEntity
  8
0
  6
Continuous
 62
     7
100
AcDbCircle
 10
0.6472216920896017
 20
9.032220426368882
 30
0.0
 40
2.0
100
AcDbArc
 50
297.8041759753338
 51
340.0003020207541
  0
ARC
  5
BB
330
1F
100
AcDbEntity
  8
0
  6
Continuous
 62
     7
100
AcDbCircle
 10
7.499963244859472
 20
5.07666015625
 30
0.0
 40
2.0
100
AcDbArc
 50
140.0000002530119
 51
179.8147912709089
  0
ARC
  5
BC
330
1F
100
AcDbEntity
  8
0
  6
Continuous
 62
     7
100
AcDbCircle
 10
13.03405137962509
 20
16.50003051757812
 30
0.0
 40
4.0
100
AcDbArc
 50
214.2800357421317
 51
269.9999949910437
  0
CIRCLE
  5
BD
330
1F
100
AcDbEntity
  8
0
  6
Continuous
 62
     7
100
AcDbCircle
 10
7.249986133043065
 20
12.55735778808594
 30
0.0
 40
3.0
  0
ARC
  5
BE
330
1F
100
AcDbEntity
  8
0
  6
Continuous
 62
     7
100
AcDbCircle
 10
7.772420367662207
 20
19.537841796875
 30
0.0
 40
4.0
100
AcDbArc
 50
210.0000033393042
 51
265.7198669655679
  0
ARC
  5
BF
330
1F
100
AcDbEntity
  8
0
  6
Continuous
 62
     7
100
AcDbCircle
 10
7.499989947712364
 20
-5.076622009277343
 30
0.0
 40
2.0
100
AcDbArc
 50
180.0003030328016
 51
220.0003018691733
  0
ARC
  5
C0
330
1F
100
AcDbEntity
  8
0
  6
Continuous
 62
     7
100
AcDbCircle
 10
0.6472499700656443
 20
-9.03224971232569
 30
0.0
 40
2.0
100
AcDbArc
 50
20.00000032880226
 51
62.19651794124373
  0
ARC
  5
C1
330
1F
100
AcDbEntity
  8
0
  6
Continuous
 62
     7
100
AcDbCircle
 10
13.03404375023056
 20
-16.50003814697266
 30
0.0
 40
4.0
100
AcDbArc
 50
89.99999955470794
 51
145.719860211169
  0
CIRCLE
  5
C2
330
1F
100
AcDbEntity
  8
0
  6
Continuous
 62
     7
100
AcDbCircle
 10
7.249986133043065
 20
-12.55736541748047
 30
0.0
 40
3.0
  0
ARC
  5
C3
330
1F
100
AcDbEntity
  8
0
  6
Continuous
 62
     7
100
AcDbCircle
 10
7.772389403020483
 20
-19.53783565537559
 30
0.0
 40
4.0
100
AcDbArc
 50
94.36115007893169
 51
150.0000016696521
  0
CIRCLE
  5
C4
330
1F
100
AcDbEntity
  8
0
  6
Continuous
 62
     7
100
AcDbCircle
 10
-20.99999999999998
 20
0.0
 30
0.0
 40
1.600000023841857
  0
CIRCLE
  5
C5
330
1F
100
AcDbEntity
  8
0
  6
Continuous
 62
     7
100
AcDbCircle
 10
10.50000014134232
 20
18.18653339786918
 30
0.0
 40
1.600000023841857
  0
CIRCLE
  5
C6
330
1F
100
AcDbEntity
  8
0
  6
Continuous
 62
     7
100
AcDbCircle
 10
10.50000014134232
 20
-18.18653339786919
 30
0.0
 40
1.600000023841857
  0
ARC
  5
C7
330
1F
100
AcDbEntity
  8
0
  6
Continuous
 62
     2
100
AcDbCircle
 10
0.0
 20
0.0
 30
0.0
 40
21.0
100
AcDbArc
 50
166.325714711579
 51
193.6742839219303
  0
ARC
  5
C8
330
1F
100
AcDbEntity
  8
0
  6
Continuous
 62
     2
100
AcDbCircle
 10
0.0
 20
0.0
 30
0.0
 40
21.0
100
AcDbArc
 50
46.32571797509288
 51
73.67428206280229
  0
ARC
  5
C9
330
1F
100
AcDbEntity
  8
0
  6
Continuous
 62
     2
100
AcDbCircle
 10
0.0
 20
0.0
 30
0.0
 40
21.0
100
AcDbArc
 50
286.3257180508833
 51
313.6742872612345
  0
LINE
  5
CA
330
1F
100
AcDbEntity
  8
0
  6
Continuous
 62
     7
100
AcDbLine
 10
29.9999937624376
 20
10.0
 30
0.0
 11
29.9999937624376
 21
-10.00000762939453
 31
0.0
  0
LINE
  5
CB
330
1F
100
AcDbEntity
  8
0
  6
Continuous
 62
     7
100
AcDbLine
 10
4.308287729600877
 20
-17.53783575632273
 30
0.0
 11
-3.903476221908249
 21
-31.76102788481796
 31
0.0
  0
LINE
  5
CC
330
1F
100
AcDbEntity
  8
0
  6
Continuous
 62
     7
100
AcDbLine
 10
13.03404375023056
 20
-12.50003814697265
 30
0.0
 11
29.45758045604269
 21
-12.50003814697265
 31
0.0
  0
LINE
  5
CD
330
1F
100
AcDbEntity
  8
0
  6
Continuous
 62
     7
100
AcDbLine
 10
5.499989947740331
 20
4.5
 30
0.0
 11
25.50000139183213
 21
4.5
 31
0.0
  0
LINE
  5
CE
330
1F
100
AcDbEntity
  8
0
  6
Continuous
 62
     7
100
AcDbLine
 10
5.499989947740331
 20
-4.500030517578125
 30
0.0
 11
25.50000139183213
 21
-4.500030517578125
 31
0.0
  0
LINE
  5
CF
330
1F
100
AcDbEntity
  8
0
  6
Continuous
 62
     7
100
AcDbLine
 10
5.499989947740331
 20
5.083533462385932
 30
0.0
 11
5.499989947740331
 21
-5.076632587117604
 31
0.0
  0
LINE
  5
D0
330
1F
100
AcDbEntity
  8
0
  6
Continuous
 62
     7
100
AcDbLine
 10
24.50000139183213
 20
4.5
 30
0.0
 11
24.50000139183213
 21
-4.500030517578125
 31
0.0
  0
LINE
  5
D1
330
1F
100
AcDbEntity
  8
0
  6
Continuous
 62
     7
100
AcDbLine
 10
6.499989947740331
 20
4.5
 30
0.0
 11
6.499989947740331
 21
-4.500030517578125
 31
0.0
  0
LINE
  5
D2
330
1F
100
AcDbEntity
  8
0
  6
Continuous
 62
     7
100
AcDbLine
 10
25.50000139183213
 20
4.5
 30
0.0
 11
25.50000139183213
 21
-4.500030517578125
 31
0.0
  0
LINE
  5
D3
330
1F
100
AcDbEntity
  8
0
  6
Continuous
 62
     7
100
AcDbLine
 10
5.499989947740331
 20
-5.000030517578125
 30
0.0
 11
29.9999937624376
 21
-5.000030517578125
 31
0.0
  0
LINE
  5
D4
330
1F
100
AcDbEntity
  8
0
  6
Continuous
 62
     7
100
AcDbLine
 10
5.499989947740331
 20
5.0
 30
0.0
 11
29.9999937624376
 21
5.0
 31
0.0
  0
LINE
  5
D5
330
1F
100
AcDbEntity
  8
0
  6
CENTER
 62
     2
100
AcDbLine
 10
-26.00000242286514
 20
0.0
 30
0.0
 11
34.9999937624376
 21
0.0
 31
0.0
  0
LINE
  5
D6
330
1F
100
AcDbEntity
  8
0
  6
Continuous
 62
     7
100
AcDbLine
 10
-6.647117273478201
 20
2.513126465369559
 30
0.0
 11
-16.64712108817546
 21
19.8336408374352
 31
0.0
  0
LINE
  5
D7
330
1F
100
AcDbEntity
  8
0
  6
Continuous
 62
     7
100
AcDbLine
 10
-23.66025690880268
 20
20.98074847726957
 30
0.0
 11
-6.339749143986367
 21
30.98074847726959
 31
0.0
  0
LINE
  5
D8
330
1F
100
AcDbEntity
  8
0
  6
Continuous
 62
     7
100
AcDbLine
 10
-6.339750236031974
 20
-30.98077068792052
 30
0.0
 11
-23.66025717494212
 21
-20.98077116475766
 31
0.0
  0
LINE
  5
D9
330
1F
100
AcDbEntity
  8
0
  6
Continuous
 62
     7
100
AcDbLine
 10
1.580123914809647
 20
7.26312646536964
 30
0.0
 11
-10.66987608519035
 21
28.48074847726959
 31
0.0
  0
LINE
  5
DA
330
1F
100
AcDbEntity
  8
0
  6
Continuous
 62
     7
100
AcDbLine
 10
-7.080143182097244
 20
2.263118835975092
 30
0.0
 11
-19.33014318209724
 21
23.48074084787505
 31
0.0
  0
LINE
  5
DB
330
1F
100
AcDbEntity
  8
0
  6
Continuous
 62
     7
100
AcDbLine
 10
4.15077030652371
 20
12.81060559974085
 30
0.0
 11
-6.538455969669655
 21
31.32488827140936
 31
0.0
  0
LINE
  5
DC
330
1F
100
AcDbEntity
  8
0
  6
Continuous
 62
     7
100
AcDbLine
 10
-13.16971875922038
 20
2.810573211998324
 30
0.0
 11
-23.85895637646801
 21
21.32487552694874
 31
0.0
  0
LINE
  5
DD
330
1F
100
AcDbEntity
  8
0
  6
Continuous
 62
     7
100
AcDbLine
 10
4.150810556445009
 20
-12.81059435097738
 30
0.0
 11
-6.538425844603196
 21
-31.32489455940861
 31
0.0
  0
LINE
  5
DE
330
1F
100
AcDbEntity
  8
0
  6
Continuous
 62
     7
100
AcDbLine
 10
-13.16972097983354
 20
-2.810637431705622
 30
0.0
 11
-23.85893424848301
 21
-21.32489757364766
 31
0.0
  0
LINE
  5
DF
330
1F
100
AcDbEntity
  8
0
  6
Continuous
 62
     7
100
AcDbLine
 10
1.58013076699207
 20
-7.263144452957014
 30
0.0
 11
-10.66987304770519
 21
-28.48077307210634
 31
0.0
  0
LINE
  5
E0
330
1F
100
AcDbEntity
  8
0
  6
Continuous
 62
     7
100
AcDbLine
 10
-7.080136329914893
 20
-2.263136823562488
 30
0.0
 11
-19.33014014461217
 21
-23.48076544271183
 31
0.0
  0
LINE
  5
E1
330
1F
100
AcDbEntity
  8
0
  6
Continuous
 62
     7
100
AcDbLine
 10
9.020419355292077
 20
-10.00000762939453
 30
0.0
 11
30.39736579725373
 21
-10.00000762939453
 31
0.0
  0
LINE
  5
E2
330
1F
100
AcDbEntity
  8
0
  6
Continuous
 62
     7
100
AcDbLine
 10
9.020317307664512
 20
10.0
 30
0.0
 11
30.39736830714132
 21
10.0
 31
0.0
  0
LINE
  5
E3
330
1F
100
AcDbEntity
  8
0
  6
Continuous
 62
     7
100
AcDbLine
 10
-17.34238324639032
 20
5.037809594032744
 30
0.0
 11
-25.55414293296526
 21
19.26099433544539
 31
0.0
  0
LINE
  5
E4
330
1F
100
AcDbEntity
  8
0
  6
Continuous
 62
     7
100
AcDbLine
 10
0.6471147692469259
 20
-7.879167933849188
 30
0.0
 11
-7.147140153917845
 21
-3.379152675060126
 31
0.0
  0
LINE
  5
E5
330
1F
100
AcDbEntity
  8
0
  6
Continuous
 62
     7
100
AcDbLine
 10
-17.34238858656148
 20
-5.037802923029595
 30
0.0
 11
-25.55414813779997
 21
-19.26098743003269
 31
0.0
  0
LINE
  5
E6
330
1F
100
AcDbEntity
  8
0
  6
Continuous
 62
     7
100
AcDbLine
 10
4.308294917823432
 20
17.53782587496699
 30
0.0
 11
-3.903474836961052
 21
31.76102805502984
 31
0.0
  0
LINE
  5
E7
330
1F
100
AcDbEntity
  8
0
  6
Continuous
 62
     7
100
AcDbLine
 10
13.03405137962509
 20
12.50003051757812
 30
0.0
 11
29.457583693501
 21
12.50003051757812
 31
0.0
  0
LINE
  5
E8
330
1F
100
AcDbEntity
  8
0
  6
Continuous
 62
     7
100
AcDbLine
 10
1.580130766992041
 20
-7.263144452957052
 30
0.0
 11
-7.080136329914893
 21
-2.263136823562489
 31
0.0
  0
LINE
  5
E9
330
1F
100
AcDbEntity
  8
0
  6
Continuous
 62
     7
100
AcDbLine
 10
1.147137649686627
 20
7.013141724158678
 30
0.0
 11
-8.852866165010638
 21
24.33365609622433
 31
0.0
  0
LINE
  5
EA
330
1F
100
AcDbEntity
  8
0
  6
Continuous
 62
     7
100
AcDbLine
 10
-6.647140153917817
 20
-2.513127286819304
 30
0.0
 11
-16.64714778331235
 21
-19.83364826613431
 31
0.0
  0
LINE
  5
EB
330
1F
100
AcDbEntity
  8
0
  6
Continuous
 62
     7
100
AcDbLine
 10
1.147114769246982
 20
-7.013142545608375
 30
0.0
 11
-8.852892860147548
 21
-24.33366352492337
 31
0.0
  0
LINE
  5
EC
330
1F
100
AcDbEntity
  8
0
  6
Continuous
 62
     7
100
AcDbLine
 10
-7.080143182097244
 20
2.263118835975088
 30
0.0
 11
1.580123914809647
 21
7.263126465369635
 31
0.0
  0
LINE
  5
ED
330
1F
100
AcDbEntity
  8
0
  6
Continuous
 62
     7
100
AcDbLine
 10
-7.147117273478173
 20
3.379151853610423
 30
0.0
 11
0.6471376496866271
 21
7.879167112399501
 31
0.0
  0
LINE
  5
EE
330
1F
100
AcDbEntity
  8
0
  6
Continuous
 62
     2
100
AcDbLine
 10
19.4999937624376
 20
4.0
 30
0.0
 11
19.4999937624376
 21
-4.0
 31
0.0
  0
LINE
  5
EF
330
1F
100
AcDbEntity
  8
0
  6
Continuous
 62
     7
100
AcDbLine
 10
-8.852892860147605
 20
-24.3336635249234
 30
0.0
 11
-16.64714778331237
 21
-19.83364826613434
 31
0.0
  0
LINE
  5
F0
330
1F
100
AcDbEntity
  8
0
  6
Continuous
 62
     7
100
AcDbLine
 10
-8.352892860147605
 20
-23.46763813668262
 30
0.0
 11
-16.14714778331238
 21
-18.96762287789355
 31
0.0
  0
LINE
  5
F1
330
1F
100
AcDbEntity
  8
0
  6
Continuous
 62
     2
100
AcDbLine
 10
-6.285901739570746
 20
-18.88750458822914
 30
0.0
 11
-13.21410484549723
 21
-14.88750458822915
 31
0.0
  0
LINE
  5
F2
330
1F
100
AcDbEntity
  8
0
  6
Continuous
 62
     7
100
AcDbLine
 10
-16.64712108817544
 20
19.83364083743524
 30
0.0
 11
-8.852866165010638
 21
24.33365609622433
 31
0.0
  0
LINE
  5
F3
330
1F
100
AcDbEntity
  8
0
  6
Continuous
 62
     2
100
AcDbLine
 10
-13.21410457935765
 20
14.88748190074104
 30
0.0
 11
-6.285901473431138
 21
18.88748190074105
 31
0.0
  0
LINE
  5
F4
330
1F
100
AcDbEntity
  8
0
  6
Continuous
 62
     7
100
AcDbLine
 10
-16.14712108817544
 20
18.96761544919445
 30
0.0
 11
-8.352866165010638
 21
23.46763070798354
 31
0.0
  0
LINE
  5
F5
330
1F
100
AcDbEntity
  8
0
  6
Continuous
 62
     2
100
AcDbLine
 10
11.49998994774033
 20
-4.0
 30
0.0
 11
11.49998994774033
 21
4.0
 31
0.0
  0
LINE
  5
F6
330
1F
100
AcDbEntity
  8
0
  6
Continuous
 62
     2
100
AcDbLine
 10
-9.214091749593094
 20
-7.959282614228833
 30
0.0
 11
-2.285888643666581
 21
-11.95928261422883
 31
0.0
  0
LINE
  5
F7
330
1F
100
AcDbEntity
  8
0
  6
Continuous
 62
     2
100
AcDbLine
 10
-2.285894866181834
 20
11.95928260951178
 30
0.0
 11
-9.214097972108319
 21
7.95928260951178
 31
0.0
  0
LINE
  5
F8
330
1F
100
AcDbEntity
  8
0
  6
Continuous
 62
     7
100
AcDbLine
 10
-8.493085870076427
 20
1.985956630947388
 30
0.0
 11
-13.89837305908307
 21
2.939054628385662
 31
0.0
  0
LINE
  5
F9
330
1F
100
AcDbEntity
  8
0
  6
Continuous
 62
     7
100
AcDbLine
 10
-8.493064913684563
 20
-1.985991319092976
 30
0.0
 11
-13.90079949116105
 21
-2.939550279657966
 31
0.0
  0
LINE
  5
FA
330
1F
100
AcDbEntity
  8
0
  6
Continuous
 62
     7
100
AcDbLine
 10
2.526610539387164
 20
8.348190046448845
 30
0.0
 11
4.404511975709012
 21
13.50776655274671
 31
0.0
  0
LINE
  5
FB
330
1F
100
AcDbEntity
  8
0
  6
Continuous
 62
     7
100
AcDbLine
 10
5.967872280349539
 20
6.362237842459563
 30
0.0
 11
9.553021431615208
 21
10.63485202384731
 31
0.0
  0
LINE
  5
FC
330
1F
100
AcDbEntity
  8
0
  6
Continuous
 62
     7
100
AcDbLine
 10
5.967907834691388
 20
-6.362205300612915
 30
0.0
 11
9.548176425312178
 21
-10.62895722889425
 31
0.0
  0
LINE
  5
FD
330
1F
100
AcDbEntity
  8
0
  6
Continuous
 62
     7
100
AcDbLine
 10
2.526634243647549
 20
-8.348206766144011
 30
0.0
 11
4.431642037133769
 21
-13.58217247521281
 31
0.0
  0
LINE
  5
FE
330
1F
100
AcDbEntity
  8
0
  6
Continuous
 62
     7
100
AcDbLine
 10
5.701034945421568
 20
5.0
 30
0.0
 11
9.202072666848252
 21
9.999999999999998
 31
0.0
  0
LINE
  5
FF
330
1F
100
AcDbEntity
  8
0
  6
Continuous
 62
     7
100
AcDbLine
 10
5.701059149647321
 20
-5.000030517578123
 30
0.0
 11
9.202080844595215
 21
-10.00000762939453
 31
0.0
  0
LINE
  5
100
330
1F
100
AcDbEntity
  8
0
  6
Continuous
 62
     7
100
AcDbLine
 10
-7.180654574719952
 20
-2.43723952752765
 30
0.0
 11
-13.26128183280107
 21
-2.969225478183362
 31
0.0
  0
LINE
  5
101
330
1F
100
AcDbEntity
  8
0
  6
Continuous
 62
     7
100
AcDbLine
 10
1.479614798605936
 20
-7.43724321404903
 30
0.0
 11
4.059222412439666
 21
-12.96922966691834
 31
0.0
  0
LINE
  5
102
330
1F
100
AcDbEntity
  8
0
  6
Continuous
 62
     7
100
AcDbLine
 10
1.479615390820313
 20
7.437247965488183
 30
0.0
 11
4.059206432392513
 21
12.96919887902747
 31
0.0
  0
LINE
  5
103
330
1F
100
AcDbEntity
  8
0
  6
Continuous
 62
     7
100
AcDbLine
 10
-7.180678724421624
 20
2.43725150012205
 30
0.0
 11
-13.26132453916119
 21
2.969239074274998
 31
0.0
  0
LINE
  5
104
330
1F
100
AcDbEntity
  8
0
  6
CENTER
 62
     2
100
AcDbLine
 10
12.99999887035089
 20
22.51665813765157
 30
0.0
 11
-17.50000112964911
 21
-30.31089054503813
 31
0.0
  0
CIRCLE
  5
105
330
1F
100
AcDbEntity
  8
0
  6
Continuous
 62
     7
100
AcDbCircle
 10
7.250020465318441
 20
12.55734252929687
 30
0.0
 40
1.732050776481628
  0
LINE
  5
106
330
1F
100
AcDbEntity
  8
0
  6
Continuous
 62
     7
100
AcDbLine
 10
5.517942368662887
 20
12.55735931264804
 30
0.0
 11
6.383968631356012
 21
11.05735782497455
 31
0.0
  0
LINE
  5
107
330
1F
100
AcDbEntity
  8
0
  6
Continuous
 62
     7
100
AcDbLine
 10
8.116021156742261
 20
11.05735782497455
 30
0.0
 11
8.982047419435389
 21
12.55735931264804
 31
0.0
  0
LINE
  5
108
330
1F
100
AcDbEntity
  8
0
  6
Continuous
 62
     7
100
AcDbLine
 10
8.982047419435389
 20
12.55735931264804
 30
0.0
 11
8.116021156742261
 21
14.05736080032153
 31
0.0
  0
LINE
  5
109
330
1F
100
AcDbEntity
  8
0
  6
Continuous
 62
     7
100
AcDbLine
 10
6.383968631356012
 20
14.05736080032153
 30
0.0
 11
5.517942368662887
 21
12.55735931264804
 31
0.0
  0
LINE
  5
10A
330
1F
100
AcDbEntity
  8
0
  6
Continuous
 62
     7
100
AcDbLine
 10
8.116021156742261
 20
14.05736080032153
 30
0.0
 11
6.383968631356012
 21
14.05736080032153
 31
0.0
  0
LINE
  5
10B
330
1F
100
AcDbEntity
  8
0
  6
Continuous
 62
     7
100
AcDbLine
 10
6.383968631356012
 20
11.05735782497455
 30
0.0
 11
8.116021156742261
 21
11.05735782497455
 31
0.0
  0
CIRCLE
  5
10C
330
1F
100
AcDbEntity
  8
0
  6
Continuous
 62
     7
100
AcDbCircle
 10
-14.50000242286513
 20
0.0
 30
0.0
 40
1.732050776481628
  0
LINE
  5
10D
330
1F
100
AcDbEntity
  8
0
  6
Continuous
 62
     7
100
AcDbLine
 10
-16.23205494825138
 20
0.0
 30
0.0
 11
-15.36602868555826
 21
-1.500001487673486
 31
0.0
  0
LINE
  5
10E
330
1F
100
AcDbEntity
  8
0
  6
Continuous
 62
     7
100
AcDbLine
 10
-13.63397616017201
 20
-1.500001487673486
 30
0.0
 11
-12.76794989747888
 21
0.0
 31
0.0
  0
LINE
  5
10F
330
1F
100
AcDbEntity
  8
0
  6
Continuous
 62
     7
100
AcDbLine
 10
-12.76794989747888
 20
0.0
 30
0.0
 11
-13.63397616017201
 21
1.500001487673486
 31
0.0
  0
LINE
  5
110
330
1F
100
AcDbEntity
  8
0
  6
Continuous
 62
     7
100
AcDbLine
 10
-15.36602868555826
 20
1.500001487673486
 30
0.0
 11
-16.23205494825138
 21
0.0
 31
0.0
  0
LINE
  5
111
330
1F
100
AcDbEntity
  8
0
  6
Continuous
 62
     7
100
AcDbLine
 10
-13.63397616017201
 20
1.500001487673486
 30
0.0
 11
-15.36602868555826
 21
1.500001487673486
 31
0.0
  0
LINE
  5
112
330
1F
100
AcDbEntity
  8
0
  6
Continuous
 62
     7
100
AcDbLine
 10
-15.36602868555826
 20
-1.500001487673486
 30
0.0
 11
-13.63397616017201
 21
-1.500001487673486
 31
0.0
  0
CIRCLE
  5
113
330
1F
100
AcDbEntity
  8
0
  6
Continuous
 62
     7
100
AcDbCircle
 10
7.249974688951268
 20
-12.55741119384765
 30
0.0
 40
1.732050776481628
  0
LINE
  5
114
330
1F
100
AcDbEntity
  8
0
  6
Continuous
 62
     7
100
AcDbLine
 10
5.517922163565017
 20
-12.55741119384765
 30
0.0
 11
6.383948426258143
 21
-14.05741268152114
 31
0.0
  0
LINE
  5
115
330
1F
100
AcDbEntity
  8
0
  6
Continuous
 62
     7
100
AcDbLine
 10
8.116000951644394
 20
-14.05741268152114
 30
0.0
 11
8.98202721433752
 21
-12.55741119384765
 31
0.0
  0
LINE
  5
116
330
1F
100
AcDbEntity
  8
0
  6
Continuous
 62
     7
100
AcDbLine
 10
8.98202721433752
 20
-12.55741119384765
 30
0.0
 11
8.116000951644394
 21
-11.05740970617417
 31
0.0
  0
LINE
  5
117
330
1F
100
AcDbEntity
  8
0
  6
Continuous
 62
     7
100
AcDbLine
 10
6.383948426258143
 20
-11.05740970617417
 30
0.0
 11
5.517922163565017
 21
-12.55741119384765
 31
0.0
  0
LINE
  5
118
330
1F
100
AcDbEntity
  8
0
  6
Continuous
 62
     7
100
AcDbLine
 10
8.116000951644394
 20
-11.05740970617417
 30
0.0
 11
6.383948426258143
 21
-11.05740970617417
 31
0.0
  0
LINE
  5
119
330
1F
100
AcDbEntity
  8
0
  6
Continuous
 62
     7
100
AcDbLine
 10
6.383948426258143
 20
-14.05741268152114
 30
0.0
 11
8.116000951644394
 21
-14.05741268152114
 31
0.0
  0
LINE
  5
11A
330
1F
100
AcDbEntity
  8
0
  6
CENTER
 62
     2
100
AcDbLine
 10
12.99999967921468
 20
-22.51665953864473
 30
0.0
 11
-17.49999841343668
 21
30.31088584042029
 31
0.0
  0
ENDBLK
  5
11B
330
1F
100
AcDbEntity
  8
0
100
AcDbBlockEnd
  0
BLOCK
  5
11C
330
20
100
AcDbEntity
  8
0
100
AcDbBlockBegin
  2
NHE1D-20-3
 70
     0
 10
0.0
 20
0.0
 30
0.0
  3
NHE1D-20-3
  1

  0
CIRCLE
  5
11D
330
20
100
AcDbEntity
  8
0
  6
Continuous
 62
     2
100
AcDbCircle
 10
21.0
 20
0.0
 30
0.0
 40
2.0
  0
CIRCLE
  5
11E
330
20
100
AcDbEntity
  8
0
  6
Continuous
 62
     7
100
AcDbCircle
 10
0.0
 20
0.0000000000000071
 30
0.0
 40
24.0
  0
CIRCLE
  5
11F
330
20
100
AcDbEntity
  8
0
  6
Continuous
 62
     7
100
AcDbCircle
 10
21.0
 20
0.0
 30
0.0
 40
1.5
  0
ARC
  5
120
330
20
100
AcDbEntity
  8
0
  6
Continuous
 62
     7
100
AcDbCircle
 10
0.0
 20
0.0000000000000071
 30
0.0
 40
32.0
100
AcDbArc
 50
157.0065463282185
 51
202.9934536717816
  0
ARC
  5
121
330
20
100
AcDbEntity
  8
0
  6
Continuous
 62
     7
100
AcDbCircle
 10
0.0
 20
0.0000000000000071
 30
0.0
 40
32.0
100
AcDbArc
 50
37.00652144888797
 51
82.99341329852493
  0
ARC
  5
122
330
20
100
AcDbEntity
  8
0
  6
Continuous
 62
     7
100
AcDbCircle
 10
0.0
 20
0.0000000000000071
 30
0.0
 40
32.0
100
AcDbArc
 50
277.0065767795352
 51
322.9934537897934
  0
CIRCLE
  5
123
330
20
100
AcDbEntity
  8
0
  6
Continuous
 62
     7
100
AcDbCircle
 10
-26.24999540067581
 20
-7.5
 30
0.0
 40
2.75
  0
CIRCLE
  5
124
330
20
100
AcDbEntity
  8
0
  6
Continuous
 62
     7
100
AcDbCircle
 10
-26.24999540067581
 20
7.5
 30
0.0
 40
1.732050776481628
  0
CIRCLE
  5
125
330
20
100
AcDbEntity
  8
0
  6
Continuous
 62
     7
100
AcDbCircle
 10
-26.24999540067581
 20
7.5
 30
0.0
 40
2.75
  0
CIRCLE
  5
126
330
20
100
AcDbEntity
  8
0
  6
Continuous
 62
     7
100
AcDbCircle
 10
6.629803488484341
 20
26.4831657409668
 30
0.0
 40
2.75
  0
CIRCLE
  5
127
330
20
100
AcDbEntity
  8
0
  6
Continuous
 62
     7
100
AcDbCircle
 10
19.62019045137495
 20
18.9831657409668
 30
0.0
 40
2.75
  0
CIRCLE
  5
128
330
20
100
AcDbEntity
  8
0
  6
Continuous
 62
     7
100
AcDbCircle
 10
19.62019045137495
 20
-18.98316192626953
 30
0.0
 40
2.75
  0
CIRCLE
  5
129
330
20
100
AcDbEntity
  8
0
  6
Continuous
 62
     7
100
AcDbCircle
 10
6.629803488484341
 20
-26.48316192626953
 30
0.0
 40
2.75
  0
CIRCLE
  5
12A
330
20
100
AcDbEntity
  8
0
  6
CENTER
 62
     2
100
AcDbCircle
 10
0.0
 20
0.0
 30
0.0
 40
21.0
  0
CIRCLE
  5
12B
330
20
100
AcDbEntity
  8
0
  6
Continuous
 62
     2
100
AcDbCircle
 10
-10.50000014134232
 20
-18.18653339786918
 30
0.0
 40
2.0
  0
CIRCLE
  5
12C
330
20
100
AcDbEntity
  8
0
  6
Continuous
 62
     7
100
AcDbCircle
 10
-10.50000014134232
 20
-18.18653339786918
 30
0.0
 40
1.5
  0
CIRCLE
  5
12D
330
20
100
AcDbEntity
  8
0
  6
Continuous
 62
     7
100
AcDbCircle
 10
-10.50000014134232
 20
18.18653339786918
 30
0.0
 40
1.5
  0
CIRCLE
  5
12E
330
20
100
AcDbEntity
  8
0
  6
Continuous
 62
     2
100
AcDbCircle
 10
-10.50000014134232
 20
18.18653339786918
 30
0.0
 40
2.0
  0
CIRCLE
  5
12F
330
20
100
AcDbEntity
  8
0
  6
Continuous
 62
     7
100
AcDbCircle
 10
0.0
 20
0.0000000000000071
 30
0.0
 40
10.5
  0
CIRCLE
  5
130
330
20
100
AcDbEntity
  8
0
  6
Continuous
 62
     7
100
AcDbCircle
 10
0.0
 20
0.0
 30
0.0
 40
7.0
  0
CIRCLE
  5
131
330
20
100
AcDbEntity
  8
0
  6
Continuous
 62
     7
100
AcDbCircle
 10
0.0
 20
0.0
 30
0.0
 40
3.0
  0
ARC
  5
132
330
20
100
AcDbEntity
  8
0
  6
Continuous
 62
     7
100
AcDbCircle
 10
0.9999969699296544
 20
0.0
 30
0.0
 40
9.0
100
AcDbArc
 50
35.64413292416246
 51
324.3558883934233
  0
ARC
  5
133
330
20
100
AcDbEntity
  8
0
  6
Continuous
 62
     7
100
AcDbCircle
 10
9.291561911335904
 20
3.500003814697265
 30
0.0
 40
2.0
100
AcDbArc
 50
119.2648842356492
 51
301.7711682294692
  0
CIRCLE
  5
134
330
20
100
AcDbEntity
  8
0
  6
Continuous
 62
     7
100
AcDbCircle
 10
8.830929587117154
 20
3.305561065673828
 30
0.0
 40
0.75
  0
ARC
  5
135
330
20
100
AcDbEntity
  8
0
  6
Continuous
 62
     7
100
AcDbCircle
 10
9.291561911335904
 20
-3.5
 30
0.0
 40
2.0
100
AcDbArc
 50
58.22881158244584
 51
240.7351798456998
  0
CIRCLE
  5
136
330
20
100
AcDbEntity
  8
0
  6
Continuous
 62
     7
100
AcDbCircle
 10
8.830929587117154
 20
-3.305557250976562
 30
0.0
 40
0.75
  0
CIRCLE
  5
137
330
20
100
AcDbEntity
  8
0
  6
Continuous
 62
     7
100
AcDbCircle
 10
7.000000094228212
 20
-12.12435559857945
 30
0.0
 40
2.5
  0
ARC
  5
138
330
20
100
AcDbEntity
  8
0
  6
Continuous
 62
     2
100
AcDbCircle
 10
0.0
 20
0.0
 30
0.0
 40
14.0
100
AcDbArc
 50
281.5033176289091
 51
318.4967559851004
  0
ARC
  5
139
330
20
100
AcDbEntity
  8
0
  6
Continuous
 62
     2
100
AcDbCircle
 10
0.0
 20
0.0
 30
0.0
 40
14.0
100
AcDbArc
 50
41.50324925122704
 51
78.49668077722913
  0
ARC
  5
13A
330
20
100
AcDbEntity
  8
0
  6
Continuous
 62
     7
100
AcDbCircle
 10
-14.00000303007034
 20
0.0
 30
0.0
 40
1.5
100
AcDbArc
 50
269.9999949910437
 51
90.0
  0
ARC
  5
13B
330
20
100
AcDbEntity
  8
0
  6
Continuous
 62
     7
100
AcDbCircle
 10
-16.00000303007034
 20
0.0
 30
0.0
 40
1.5
100
AcDbArc
 50
90.0
 51
270.0000050089563
  0
LINE
  5
13C
330
20
100
AcDbEntity
  8
0
  6
CENTER
 62
     2
100
AcDbLine
 10
-35.00000303007035
 20
0.0
 30
0.0
 11
26.99999696992965
 21
0.0
 31
0.0
  0
LINE
  5
13D
330
20
100
AcDbEntity
  8
0
  6
CENTER
 62
     2
100
AcDbLine
 10
17.50000175277304
 20
30.31089162432041
 30
0.0
 11
-13.49999920090127
 21
-23.3826840984224
 31
0.0
  0
LINE
  5
13E
330
20
100
AcDbEntity
  8
0
  6
CENTER
 62
     2
100
AcDbLine
 10
17.49999717558346
 20
-30.31088369639564
 30
0.0
 11
-13.49999900971927
 21
23.38268376728549
 31
0.0
  0
LINE
  5
13F
330
20
100
AcDbEntity
  8
0
  6
Continuous
 62
     7
100
AcDbLine
 10
-20.48778262915769
 20
-12.50003051757812
 30
0.0
 11
-29.457583693501
 21
-12.50003051757812
 31
0.0
  0
LINE
  5
140
330
20
100
AcDbEntity
  8
0
  6
Continuous
 62
     7
100
AcDbLine
 10
-0.5814344088528572
 20
-23.99295592519191
 30
0.0
 11
3.903464750663956
 21
-31.76102899687482
 31
0.0
  0
LINE
  5
141
330
20
100
AcDbEntity
  8
0
  6
Continuous
 62
     7
100
AcDbLine
 10
21.06924095518053
 20
11.49291458127758
 30
0.0
 11
25.55414247089016
 21
19.26099173400604
 31
0.0
  0
LINE
  5
142
330
20
100
AcDbEntity
  8
0
  6
Continuous
 62
     7
100
AcDbLine
 10
21.06923528581232
 20
-11.49292497456942
 30
0.0
 11
25.55413586272573
 21
-19.26100050125524
 31
0.0
  0
LINE
  5
143
330
20
100
AcDbEntity
  8
0
  6
Continuous
 62
     7
100
AcDbLine
 10
-20.48778262915769
 20
12.50003051757812
 30
0.0
 11
-29.457583693501
 21
12.50003051757812
 31
0.0
  0
LINE
  5
144
330
20
100
AcDbEntity
  8
0
  6
Continuous
 62
     7
100
AcDbLine
 10
-0.5814315079940258
 20
23.99295599548985
 30
0.0
 11
3.903467421426952
 21
31.76102866863507
 31
0.0
  0
LINE
  5
145
330
20
100
AcDbEntity
  8
0
  6
Continuous
 62
     7
100
AcDbLine
 10
10.66505552775508
 20
13.47244340612008
 30
0.0
 11
6.334928586551016
 21
15.97244340612007
 31
0.0
  0
LINE
  5
146
330
20
100
AcDbEntity
  8
0
  6
Continuous
 62
     7
100
AcDbLine
 10
11.66504980570919
 20
15.20448427172764
 30
0.0
 11
10.66505552775508
 21
13.47244340612005
 31
0.0
  0
LINE
  5
147
330
20
100
AcDbEntity
  8
0
  6
Continuous
 62
     7
100
AcDbLine
 10
9.885631356888479
 20
13.9224441690595
 30
0.0
 11
9.346102940728599
 21
12.98795355691586
 31
0.0
  0
LINE
  5
148
330
20
100
AcDbEntity
  8
0
  6
Continuous
 62
     7
100
AcDbLine
 10
7.11435275741762
 20
15.52244264318062
 30
0.0
 11
6.574813695038444
 21
14.58793359124461
 31
0.0
  0
LINE
  5
149
330
20
100
AcDbEntity
  8
0
  6
Continuous
 62
     7
100
AcDbLine
 10
7.334922864505116
 20
17.70448427172764
 30
0.0
 11
6.334928586551016
 21
15.97244340612005
 31
0.0
  0
LINE
  5
14A
330
20
100
AcDbEntity
  8
0
  6
Continuous
 62
     7
100
AcDbLine
 10
9.88564308256825
 20
-13.92242365630315
 30
0.0
 11
9.346112116827896
 21
-12.98792862815669
 31
0.0
  0
LINE
  5
14B
330
20
100
AcDbEntity
  8
0
  6
Continuous
 62
     7
100
AcDbLine
 10
7.114361179472708
 20
-15.52242403777289
 30
0.0
 11
6.574834979779154
 21
-14.58793726466149
 31
0.0
  0
LINE
  5
14C
330
20
100
AcDbEntity
  8
0
  6
Continuous
 62
     7
100
AcDbLine
 10
6.334940312230784
 20
-15.97242289336372
 30
0.0
 11
10.66506725343485
 21
-13.47242289336372
 31
0.0
  0
LINE
  5
14D
330
20
100
AcDbEntity
  8
0
  6
Continuous
 62
     7
100
AcDbLine
 10
7.334940312230783
 20
-17.70447366984534
 30
0.0
 11
6.334940312230784
 21
-15.97242289336371
 31
0.0
  0
LINE
  5
14E
330
20
100
AcDbEntity
  8
0
  6
Continuous
 62
     7
100
AcDbLine
 10
11.66506725343485
 20
-15.20447366984534
 30
0.0
 11
10.66506725343485
 21
-13.47242289336371
 31
0.0
  0
LINE
  5
14F
330
20
100
AcDbEntity
  8
0
  6
Continuous
 62
     7
100
AcDbLine
 10
-19.00000303007034
 20
-14.66287437228177
 30
0.0
 11
-19.00000303007034
 21
14.66287437228178
 31
0.0
  0
LINE
  5
150
330
20
100
AcDbEntity
  8
0
  6
Continuous
 62
     7
100
AcDbLine
 10
-3.198433750320873
 20
23.78592065791881
 30
0.0
 11
22.19842855912423
 21
9.123035103815933
 31
0.0
  0
LINE
  5
151
330
20
100
AcDbEntity
  8
0
  6
Continuous
 62
     7
100
AcDbLine
 10
22.19842884385895
 20
-9.123034410991271
 30
0.0
 11
-3.198434492691987
 21
-23.78592055809398
 31
0.0
  0
LINE
  5
152
330
20
100
AcDbEntity
  8
0
  6
Continuous
 62
     2
100
AcDbLine
 10
-15.00000303007034
 20
-3.5
 30
0.0
 11
-15.00000303007034
 21
3.5
 31
0.0
  0
LINE
  5
153
330
20
100
AcDbEntity
  8
0
  6
Continuous
 62
     2
100
AcDbLine
 10
-16.00000303007034
 20
-3.5
 30
0.0
 11
-16.00000303007034
 21
3.5
 31
0.0
  0
LINE
  5
154
330
20
100
AcDbEntity
  8
0
  6
Continuous
 62
     2
100
AcDbLine
 10
-14.00000303007034
 20
-3.5
 30
0.0
 11
-14.00000303007034
 21
3.5
 31
0.0
  0
LINE
  5
155
330
20
100
AcDbEntity
  8
0
  6
Continuous
 62
     7
100
AcDbLine
 10
-14.00000303007034
 20
1.5
 30
0.0
 11
-16.00000303007034
 21
1.5
 31
0.0
  0
LINE
  5
156
330
20
100
AcDbEntity
  8
0
  6
Continuous
 62
     7
100
AcDbLine
 10
-14.00000303007034
 20
-1.5
 30
0.0
 11
-16.00000303007034
 21
-1.5
 31
0.0
  0
LINE
  5
157
330
20
100
AcDbEntity
  8
0
  6
Continuous
 62
     7
100
AcDbLine
 10
-27.98204792606207
 20
7.5
 30
0.0
 11
-27.11602166336894
 21
5.999998512326513
 31
0.0
  0
LINE
  5
158
330
20
100
AcDbEntity
  8
0
  6
Continuous
 62
     7
100
AcDbLine
 10
-27.11602166336894
 20
5.999998512326513
 30
0.0
 11
-25.3839691379827
 21
5.999998512326513
 31
0.0
  0
LINE
  5
159
330
20
100
AcDbEntity
  8
0
  6
Continuous
 62
     7
100
AcDbLine
 10
-25.3839691379827
 20
5.999998512326513
 30
0.0
 11
-24.51794287528957
 21
7.5
 31
0.0
  0
LINE
  5
15A
330
20
100
AcDbEntity
  8
0
  6
Continuous
 62
     7
100
AcDbLine
 10
-24.51794287528957
 20
7.5
 30
0.0
 11
-25.3839691379827
 21
9.000001487673486
 31
0.0
  0
LINE
  5
15B
330
20
100
AcDbEntity
  8
0
  6
Continuous
 62
     7
100
AcDbLine
 10
-25.3839691379827
 20
9.000001487673486
 30
0.0
 11
-27.11602166336894
 21
9.000001487673486
 31
0.0
  0
LINE
  5
15C
330
20
100
AcDbEntity
  8
0
  6
Continuous
 62
     7
100
AcDbLine
 10
-27.11602166336894
 20
9.000001487673486
 30
0.0
 11
-27.98204792606207
 21
7.5
 31
0.0
  0
CIRCLE
  5
15D
330
20
100
AcDbEntity
  8
0
  6
Continuous
 62
     7
100
AcDbCircle
 10
-26.24999540067581
 20
-7.5
 30
0.0
 40
1.732050776481628
  0
LINE
  5
15E
330
20
100
AcDbEntity
  8
0
  6
Continuous
 62
     7
100
AcDbLine
 10
-27.98204792606207
 20
-7.5
 30
0.0
 11
-27.11602166336894
 21
-9.000001487673486
 31
0.0
  0
LINE
  5
15F
330
20
100
AcDbEntity
  8
0
  6
Continuous
 62
     7
100
AcDbLine
 10
-25.3839691379827
 20
-9.000001487673486
 30
0.0
 11
-24.51794287528957
 21
-7.5
 31
0.0
  0
LINE
  5
160
330
20
100
AcDbEntity
  8
0
  6
Continuous
 62
     7
100
AcDbLine
 10
-24.51794287528957
 20
-7.5
 30
0.0
 11
-25.3839691379827
 21
-5.999998512326513
 31
0.0
  0
LINE
  5
161
330
20
100
AcDbEntity
  8
0
  6
Continuous
 62
     7
100
AcDbLine
 10
-27.11602166336894
 20
-5.999998512326513
 30
0.0
 11
-27.98204792606207
 21
-7.5
 31
0.0
  0
LINE
  5
162
330
20
100
AcDbEntity
  8
0
  6
Continuous
 62
     7
100
AcDbLine
 10
-25.3839691379827
 20
-5.999998512326513
 30
0.0
 11
-27.11602166336894
 21
-5.999998512326513
 31
0.0
  0
LINE
  5
163
330
20
100
AcDbEntity
  8
0
  6
Continuous
 62
     7
100
AcDbLine
 10
-27.11602166336894
 20
-9.000001487673486
 30
0.0
 11
-25.3839691379827
 21
-9.000001487673486
 31
0.0
  0
CIRCLE
  5
164
330
20
100
AcDbEntity
  8
0
  6
Continuous
 62
     7
100
AcDbCircle
 10
6.629803488484341
 20
-26.48316192626953
 30
0.0
 40
1.732050776481628
  0
LINE
  5
165
330
20
100
AcDbEntity
  8
0
  6
Continuous
 62
     7
100
AcDbLine
 10
4.897750963098089
 20
-26.48316192626953
 30
0.0
 11
5.763777225791216
 21
-27.98316341394301
 31
0.0
  0
LINE
  5
166
330
20
100
AcDbEntity
  8
0
  6
Continuous
 62
     7
100
AcDbLine
 10
7.495829751177467
 20
-27.98316341394301
 30
0.0
 11
8.361856013870593
 21
-26.48316192626953
 31
0.0
  0
LINE
  5
167
330
20
100
AcDbEntity
  8
0
  6
Continuous
 62
     7
100
AcDbLine
 10
8.361856013870593
 20
-26.48316192626953
 30
0.0
 11
7.495829751177467
 21
-24.98316043859605
 31
0.0
  0
LINE
  5
168
330
20
100
AcDbEntity
  8
0
  6
Continuous
 62
     7
100
AcDbLine
 10
5.763777225791216
 20
-24.98316043859605
 30
0.0
 11
4.897750963098089
 21
-26.48316192626953
 31
0.0
  0
LINE
  5
169
330
20
100
AcDbEntity
  8
0
  6
Continuous
 62
     7
100
AcDbLine
 10
7.495829751177467
 20
-24.98316043859605
 30
0.0
 11
5.763777225791216
 21
-24.98316043859605
 31
0.0
  0
LINE
  5
16A
330
20
100
AcDbEntity
  8
0
  6
Continuous
 62
     7
100
AcDbLine
 10
5.763777225791216
 20
-27.98316341394301
 30
0.0
 11
7.495829751177467
 21
-27.98316341394301
 31
0.0
  0
CIRCLE
  5
16B
330
20
100
AcDbEntity
  8
0
  6
Continuous
 62
     7
100
AcDbCircle
 10
19.62019045137495
 20
-18.98316192626953
 30
0.0
 40
1.732050776481628
  0
LINE
  5
16C
330
20
100
AcDbEntity
  8
0
  6
Continuous
 62
     7
100
AcDbLine
 10
17.8881379259887
 20
-18.98316192626953
 30
0.0
 11
18.75416418868181
 21
-20.48316341394302
 31
0.0
  0
LINE
  5
16D
330
20
100
AcDbEntity
  8
0
  6
Continuous
 62
     7
100
AcDbLine
 10
20.48621671406809
 20
-20.48316341394302
 30
0.0
 11
21.35224297676121
 21
-18.98316192626953
 31
0.0
  0
LINE
  5
16E
330
20
100
AcDbEntity
  8
0
  6
Continuous
 62
     7
100
AcDbLine
 10
21.35224297676121
 20
-18.98316192626953
 30
0.0
 11
20.48621671406809
 21
-17.48316043859604
 31
0.0
  0
LINE
  5
16F
330
20
100
AcDbEntity
  8
0
  6
Continuous
 62
     7
100
AcDbLine
 10
18.75416418868181
 20
-17.48316043859604
 30
0.0
 11
17.8881379259887
 21
-18.98316192626953
 31
0.0
  0
LINE
  5
170
330
20
100
AcDbEntity
  8
0
  6
Continuous
 62
     7
100
AcDbLine
 10
20.48621671406809
 20
-17.48316043859604
 30
0.0
 11
18.75416418868181
 21
-17.48316043859604
 31
0.0
  0
LINE
  5
171
330
20
100
AcDbEntity
  8
0
  6
Continuous
 62
     7
100
AcDbLine
 10
18.75416418868181
 20
-20.48316341394302
 30
0.0
 11
20.48621671406809
 21
-20.48316341394302
 31
0.0
  0
CIRCLE
  5
172
330
20
100
AcDbEntity
  8
0
  6
Continuous
 62
     7
100
AcDbCircle
 10
6.629803488484341
 20
26.4831657409668
 30
0.0
 40
1.732050776481628
  0
LINE
  5
173
330
20
100
AcDbEntity
  8
0
  6
Continuous
 62
     7
100
AcDbLine
 10
4.897750963098089
 20
26.4831657409668
 30
0.0
 11
5.763777225791201
 21
24.98316425329331
 31
0.0
  0
LINE
  5
174
330
20
100
AcDbEntity
  8
0
  6
Continuous
 62
     7
100
AcDbLine
 10
7.495829751177481
 20
24.98316425329331
 30
0.0
 11
8.361856013870593
 21
26.4831657409668
 31
0.0
  0
LINE
  5
175
330
20
100
AcDbEntity
  8
0
  6
Continuous
 62
     7
100
AcDbLine
 10
8.361856013870593
 20
26.4831657409668
 30
0.0
 11
7.495829751177481
 21
27.98316722864028
 31
0.0
  0
LINE
  5
176
330
20
100
AcDbEntity
  8
0
  6
Continuous
 62
     7
100
AcDbLine
 10
5.763777225791201
 20
27.98316722864028
 30
0.0
 11
4.897750963098089
 21
26.4831657409668
 31
0.0
  0
LINE
  5
177
330
20
100
AcDbEntity
  8
0
  6
Continuous
 62
     7
100
AcDbLine
 10
7.495829751177481
 20
27.98316722864028
 30
0.0
 11
5.763777225791201
 21
27.98316722864028
 31
0.0
  0
LINE
  5
178
330
20
100
AcDbEntity
  8
0
  6
Continuous
 62
     7
100
AcDbLine
 10
5.763777225791201
 20
24.98316425329331
 30
0.0
 11
7.495829751177481
 21
24.98316425329331
 31
0.0
  0
CIRCLE
  5
179
330
20
100
AcDbEntity
  8
0
  6
Continuous
 62
     7
100
AcDbCircle
 10
19.62019045137495
 20
18.9831657409668
 30
0.0
 40
1.732050776481628
  0
LINE
  5
17A
330
20
100
AcDbEntity
  8
0
  6
Continuous
 62
     7
100
AcDbLine
 10
17.8881379259887
 20
18.9831657409668
 30
0.0
 11
18.75416418868181
 21
17.48316425329331
 31
0.0
  0
LINE
  5
17B
330
20
100
AcDbEntity
  8
0
  6
Continuous
 62
     7
100
AcDbLine
 10
20.48621671406809
 20
17.48316425329331
 30
0.0
 11
21.35224297676121
 21
18.9831657409668
 31
0.0
  0
LINE
  5
17C
330
20
100
AcDbEntity
  8
0
  6
Continuous
 62
     7
100
AcDbLine
 10
21.35224297676121
 20
18.9831657409668
 30
0.0
 11
20.48621671406809
 21
20.48316722864028
 31
0.0
  0
LINE
  5
17D
330
20
100
AcDbEntity
  8
0
  6
Continuous
 62
     7
100
AcDbLine
 10
18.75416418868181
 20
20.48316722864028
 30
0.0
 11
17.8881379259887
 21
18.9831657409668
 31
0.0
  0
LINE
  5
17E
330
20
100
AcDbEntity
  8
0
  6
Continuous
 62
     7
100
AcDbLine
 10
20.48621671406809
 20
20.48316722864028
 30
0.0
 11
18.75416418868181
 21
20.48316722864028
 31
0.0
  0
LINE
  5
17F
330
20
100
AcDbEntity
  8
0
  6
Continuous
 62
     7
100
AcDbLine
 10
18.75416418868181
 20
17.48316425329331
 30
0.0
 11
20.48621671406809
 21
17.48316425329331
 31
0.0
  0
CIRCLE
  5
180
330
20
100
AcDbEntity
  8
0
  6
Continuous
 62
     7
100
AcDbCircle
 10
7.000000094228212
 20
12.12435559857946
 30
0.0
 40
2.5
  0
ENDBLK
  5
181
330
20
100
AcDbEntity
  8
0
100
AcDbBlockEnd
  0
BLOCK
  5
182
330
21
100
AcDbEntity
  8
0
100
AcDbBlockBegin
  2
NHE1D-20-4
 70
     0
 10
0.0
 20
0.0
 30
0.0
  3
NHE1D-20-4
  1

  0
LINE
  5
183
330
21
100
AcDbEntity
  8
0
  6
Continuous
 62
     2
100
AcDbLine
 10
3.099998474121093
 20
-19.4999885559082
 30
0.0
 11
-3.099998474121093
 21
-19.4999885559082
 31
0.0
  0
CIRCLE
  5
184
330
21
100
AcDbEntity
  8
0
  6
Continuous
 62
     7
100
AcDbCircle
 10
3.899993896484375
 20
14.39711761474609
 30
0.0
 40
1.0
  0
ARC
  5
185
330
21
100
AcDbEntity
  8
0
  6
Continuous
 62
     7
100
AcDbCircle
 10
3.899765014648437
 20
10.36162567138672
 30
0.0
 40
1.100000023841857
100
AcDbArc
 50
163.7266364870924
 51
16.27336715537326
  0
ARC
  5
186
330
21
100
AcDbEntity
  8
0
  6
Continuous
 62
     7
100
AcDbCircle
 10
3.899765014648437
 20
20.07811737060547
 30
0.0
 40
1.100000023841857
100
AcDbArc
 50
343.7266278356704
 51
196.2733721643296
  0
ARC
  5
187
330
21
100
AcDbEntity
  8
0
  6
Continuous
 62
     7
100
AcDbCircle
 10
3.899993896484375
 20
9.897117614746091
 30
0.0
 40
1.0
100
AcDbArc
 50
0.3841205042541798
 51
179.6723446696143
  0
ARC
  5
188
330
21
100
AcDbEntity
  8
0
  6
Continuous
 62
     7
100
AcDbCircle
 10
3.899993896484375
 20
16.6471176147461
 30
0.0
 40
1.0
100
AcDbArc
 50
359.9999974955218
 51
180.0000025044782
  0
CIRCLE
  5
189
330
21
100
AcDbEntity
  8
0
  6
Continuous
 62
     7
100
AcDbCircle
 10
20.50002670288086
 20
-13.99998474121094
 30
0.0
 40
1.5
  0
ARC
  5
18A
330
21
100
AcDbEntity
  8
0
  6
Continuous
 62
     7
100
AcDbCircle
 10
29.99999618530273
 20
9.499992370605468
 30
0.0
 40
2.165063619613647
100
AcDbArc
 50
90.0
 51
270.0000050089563
  0
ARC
  5
18B
330
21
100
AcDbEntity
  8
0
  6
Continuous
 62
     7
100
AcDbCircle
 10
29.99999618530273
 20
8.499992370605468
 30
0.0
 40
2.165063619613647
100
AcDbArc
 50
90.0
 51
166.647576903561
  0
ARC
  5
18C
330
21
100
AcDbEntity
  8
0
  6
Continuous
 62
     7
100
AcDbCircle
 10
29.78563690185547
 20
8.499992370605468
 30
0.0
 40
1.385640978813171
100
AcDbArc
 50
90.0
 51
205.3039750773536
  0
LINE
  5
18D
330
21
100
AcDbEntity
  8
0
  6
CENTER
 62
     2
100
AcDbLine
 10
-5.0
 20
0.0
 30
0.0
 11
62.99998474121093
 21
0.0
 31
0.0
  0
LINE
  5
18E
330
21
100
AcDbEntity
  8
0
  6
Continuous
 62
     7
100
AcDbLine
 10
57.99998474121093
 20
-19.0
 30
0.0
 11
57.99998474121093
 21
23.0000000842937
 31
0.0
  0
LINE
  5
18F
330
21
100
AcDbEntity
  8
0
  6
Continuous
 62
     7
100
AcDbLine
 10
56.99998474121094
 20
-19.0
 30
0.0
 11
56.99998474121094
 21
-3.19842529296875
 31
0.0
  0
LINE
  5
190
330
21
100
AcDbEntity
  8
0
  6
Continuous
 62
     7
100
AcDbLine
 10
57.99998474121093
 20
23.00000008429369
 30
0.0
 11
56.99998474121094
 21
24.0
 31
0.0
  0
LINE
  5
191
330
21
100
AcDbEntity
  8
0
  6
Continuous
 62
     7
100
AcDbLine
 10
17.0
 20
-23.99999809265137
 30
0.0
 11
26.49999618530273
 21
-23.99999809265137
 31
0.0
  0
LINE
  5
192
330
21
100
AcDbEntity
  8
0
  6
Continuous
 62
     7
100
AcDbLine
 10
24.0
 20
24.0
 30
0.0
 11
56.99998474121094
 21
24.0
 31
0.0
  0
LINE
  5
193
330
21
100
AcDbEntity
  8
0
  6
Continuous
 62
     7
100
AcDbLine
 10
9.999984741210935
 20
-32.0
 30
0.0
 11
9.999984741210935
 21
-30.34279251098633
 31
0.0
  0
LINE
  5
194
330
21
100
AcDbEntity
  8
0
  6
Continuous
 62
     7
100
AcDbLine
 10
7.999984741210937
 20
25.00938415527344
 30
0.0
 11
16.0
 21
25.00938415527344
 31
0.0
  0
LINE
  5
195
330
21
100
AcDbEntity
  8
0
  6
Continuous
 62
     7
100
AcDbLine
 10
9.999984741210935
 20
-32.0
 30
0.0
 11
16.0
 21
-32.0
 31
0.0
  0
LINE
  5
196
330
21
100
AcDbEntity
  8
0
  6
Continuous
 62
     7
100
AcDbLine
 10
2.79998779296875
 20
-10.00002288818359
 30
0.0
 11
5.499984741210937
 21
-10.00002288818359
 31
0.0
  0
LINE
  5
197
330
21
100
AcDbEntity
  8
0
  6
Continuous
 62
     7
100
AcDbLine
 10
2.0
 20
-28.99999618530273
 30
0.0
 11
2.0
 21
10.66986846923828
 31
0.0
  0
LINE
  5
198
330
21
100
AcDbEntity
  8
0
  6
Continuous
 62
     7
100
AcDbLine
 10
17.0
 20
-31.0
 30
0.0
 11
17.0
 21
-23.99999809265137
 31
0.0
  0
LINE
  5
199
330
21
100
AcDbEntity
  8
0
  6
Continuous
 62
     7
100
AcDbLine
 10
0.0
 20
-24.50000381469727
 30
0.0
 11
0.0
 21
-6.499996185302734
 31
0.0
  0
LINE
  5
19A
330
21
100
AcDbEntity
  8
0
  6
Continuous
 62
     7
100
AcDbLine
 10
16.0
 20
25.00938415527344
 30
0.0
 11
17.0
 21
24.00938415527344
 31
0.0
  0
LINE
  5
19B
330
21
100
AcDbEntity
  8
0
  6
Continuous
 62
     7
100
AcDbLine
 10
2.0
 20
-28.99999618530273
 30
0.0
 11
7.999984741210937
 21
-28.99999618530273
 31
0.0
  0
LINE
  5
19C
330
21
100
AcDbEntity
  8
0
  6
Continuous
 62
     7
100
AcDbLine
 10
16.0
 20
-32.0
 30
0.0
 11
17.0
 21
-31.0
 31
0.0
  0
LINE
  5
19D
330
21
100
AcDbEntity
  8
0
  6
Continuous
 62
     7
100
AcDbLine
 10
7.999984741210937
 20
-28.36809539794922
 30
0.0
 11
17.0
 21
-28.36809539794922
 31
0.0
  0
LINE
  5
19E
330
21
100
AcDbEntity
  8
0
  6
Continuous
 62
     7
100
AcDbLine
 10
7.999984741210937
 20
-30.34279251098633
 30
0.0
 11
9.999984741210935
 21
-30.34279251098633
 31
0.0
  0
LINE
  5
19F
330
21
100
AcDbEntity
  8
0
  6
Continuous
 62
     7
100
AcDbLine
 10
2.499984741210937
 20
-4.800025939941406
 30
0.0
 11
2.79998779296875
 21
-4.500022888183593
 31
0.0
  0
LINE
  5
1A0
330
21
100
AcDbEntity
  8
0
  6
Continuous
 62
     7
100
AcDbLine
 10
2.0
 20
-4.06247329711914
 30
0.0
 11
7.999984741210937
 21
-4.06247329711914
 31
0.0
  0
LINE
  5
1A1
330
21
100
AcDbEntity
  8
0
  6
Continuous
 62
     7
100
AcDbLine
 10
5.499984741210937
 20
-10.25002288818359
 30
0.0
 11
7.999984741210937
 21
-10.25002288818359
 31
0.0
  0
LINE
  5
1A2
330
21
100
AcDbEntity
  8
0
  6
Continuous
 62
     7
100
AcDbLine
 10
2.79998779296875
 20
-10.00002288818359
 30
0.0
 11
2.499984741210937
 21
-9.700019836425779
 31
0.0
  0
LINE
  5
1A3
330
21
100
AcDbEntity
  8
0
  6
Continuous
 62
     7
100
AcDbLine
 10
5.499984741210937
 20
-10.25002288818359
 30
0.0
 11
5.499984741210937
 21
-4.426258087158203
 31
0.0
  0
LINE
  5
1A4
330
21
100
AcDbEntity
  8
0
  6
Continuous
 62
     7
100
AcDbLine
 10
0.0
 20
-0.6471443176269532
 30
0.0
 11
0.0
 21
16.1471176147461
 31
0.0
  0
LINE
  5
1A5
330
21
100
AcDbEntity
  8
0
  6
Continuous
 62
     7
100
AcDbLine
 10
16.0
 20
-32.0
 30
0.0
 11
16.0
 21
-28.36809539794922
 31
0.0
  0
LINE
  5
1A6
330
21
100
AcDbEntity
  8
0
  6
Continuous
 62
     7
100
AcDbLine
 10
2.79998779296875
 20
-10.00002288818359
 30
0.0
 11
2.79998779296875
 21
-4.500022888183593
 31
0.0
  0
LINE
  5
1A7
330
21
100
AcDbEntity
  8
0
  6
Continuous
 62
     7
100
AcDbLine
 10
2.79998779296875
 20
-4.500022888183593
 30
0.0
 11
5.499984741210937
 21
-4.500022888183593
 31
0.0
  0
LINE
  5
1A8
330
21
100
AcDbEntity
  8
0
  6
Continuous
 62
     7
100
AcDbLine
 10
2.499984741210937
 20
-9.700019836425779
 30
0.0
 11
2.499984741210937
 21
-4.800025939941406
 31
0.0
  0
LINE
  5
1A9
330
21
100
AcDbEntity
  8
0
  6
Continuous
 62
     7
100
AcDbLine
 10
7.999984741210937
 20
-30.34279251098633
 30
0.0
 11
7.999984741210937
 21
6.538444519042968
 31
0.0
  0
LINE
  5
1AA
330
21
100
AcDbEntity
  8
0
  6
Continuous
 62
     7
100
AcDbLine
 10
2.0
 20
-25.50000381469727
 30
0.0
 11
1.5
 21
-25.50000381469727
 31
0.0
  0
LINE
  5
1AB
330
21
100
AcDbEntity
  8
0
  6
Continuous
 62
     7
100
AcDbLine
 10
2.0
 20
-24.50000381469727
 30
0.0
 11
0.0
 21
-24.50000381469727
 31
0.0
  0
LINE
  5
1AC
330
21
100
AcDbEntity
  8
0
  6
Continuous
 62
     7
100
AcDbLine
 10
2.0
 20
-6.499996185302734
 30
0.0
 11
0.0
 21
-6.499996185302734
 31
0.0
  0
LINE
  5
1AD
330
21
100
AcDbEntity
  8
0
  6
Continuous
 62
     7
100
AcDbLine
 10
2.0
 20
-5.499996185302734
 30
0.0
 11
1.5
 21
-5.499996185302734
 31
0.0
  0
LINE
  5
1AE
330
21
100
AcDbEntity
  8
0
  6
Continuous
 62
     7
100
AcDbLine
 10
2.0
 20
-0.6471443176269532
 30
0.0
 11
0.0
 21
-0.6471443176269532
 31
0.0
  0
LINE
  5
1AF
330
21
100
AcDbEntity
  8
0
  6
Continuous
 62
     7
100
AcDbLine
 10
2.0
 20
-1.147144317626953
 30
0.0
 11
1.5
 21
-1.147144317626953
 31
0.0
  0
LINE
  5
1B0
330
21
100
AcDbEntity
  8
0
  6
Continuous
 62
     7
100
AcDbLine
 10
1.5
 20
-25.50000381469727
 30
0.0
 11
1.5
 21
-24.50000381469727
 31
0.0
  0
LINE
  5
1B1
330
21
100
AcDbEntity
  8
0
  6
Continuous
 62
     7
100
AcDbLine
 10
1.5
 20
-6.499996185302734
 30
0.0
 11
1.5
 21
-5.499996185302734
 31
0.0
  0
LINE
  5
1B2
330
21
100
AcDbEntity
  8
0
  6
Continuous
 62
     7
100
AcDbLine
 10
1.5
 20
-1.147144317626953
 30
0.0
 11
1.5
 21
-0.6471443176269532
 31
0.0
  0
LINE
  5
1B3
330
21
100
AcDbEntity
  8
0
  6
Continuous
 62
     7
100
AcDbLine
 10
16.0
 20
3.903461456298828
 30
0.0
 11
7.999984741210937
 21
3.903461456298828
 31
0.0
  0
LINE
  5
1B4
330
21
100
AcDbEntity
  8
0
  6
Continuous
 62
     7
100
AcDbLine
 10
17.0
 20
-0.5814285278320313
 30
0.0
 11
17.0
 21
24.00938415527344
 31
0.0
  0
LINE
  5
1B5
330
21
100
AcDbEntity
  8
0
  6
Continuous
 62
     7
100
AcDbLine
 10
24.0
 20
-23.99999809265137
 30
0.0
 11
24.0
 21
-0.5814285278320313
 31
0.0
  0
LINE
  5
1B6
330
21
100
AcDbEntity
  8
0
  6
Continuous
 62
     7
100
AcDbLine
 10
6.29999542236328
 20
19.7698745727539
 30
0.0
 11
6.29999542236328
 21
10.66986846923828
 31
0.0
  0
LINE
  5
1B7
330
21
100
AcDbEntity
  8
0
  6
Continuous
 62
     2
100
AcDbLine
 10
3.899993896484375
 20
15.89711761474609
 30
0.0
 11
3.899993896484375
 21
12.89711761474609
 31
0.0
  0
LINE
  5
1B8
330
21
100
AcDbEntity
  8
0
  6
Continuous
 62
     7
100
AcDbLine
 10
5.79999542236328
 20
16.6471176147461
 30
0.0
 11
5.79999542236328
 21
10.66986846923828
 31
0.0
  0
LINE
  5
1B9
330
21
100
AcDbEntity
  8
0
  6
Continuous
 62
     7
100
AcDbLine
 10
2.0
 20
19.7698745727539
 30
0.0
 11
2.843841552734375
 21
19.7698745727539
 31
0.0
  0
LINE
  5
1BA
330
21
100
AcDbEntity
  8
0
  6
Continuous
 62
     7
100
AcDbLine
 10
4.899993896484375
 20
16.6471176147461
 30
0.0
 11
5.798858642578125
 21
16.6471176147461
 31
0.0
  0
LINE
  5
1BB
330
21
100
AcDbEntity
  8
0
  6
Continuous
 62
     7
100
AcDbLine
 10
4.955696105957031
 20
19.7698745727539
 30
0.0
 11
6.29999542236328
 21
19.7698745727539
 31
0.0
  0
LINE
  5
1BC
330
21
100
AcDbEntity
  8
0
  6
Continuous
 62
     7
100
AcDbLine
 10
4.955696105957031
 20
10.66986846923828
 30
0.0
 11
6.29999542236328
 21
10.66986846923828
 31
0.0
  0
LINE
  5
1BD
330
21
100
AcDbEntity
  8
0
  6
Continuous
 62
     2
100
AcDbLine
 10
2.448539733886718
 20
14.39711761474609
 30
0.0
 11
5.399993896484375
 21
14.39711761474609
 31
0.0
  0
LINE
  5
1BE
330
21
100
AcDbEntity
  8
0
  6
Continuous
 62
     7
100
AcDbLine
 10
2.0
 20
10.66986846923828
 30
0.0
 11
2.843841552734375
 21
10.66986846923828
 31
0.0
  0
LINE
  5
1BF
330
21
100
AcDbEntity
  8
0
  6
Continuous
 62
     7
100
AcDbLine
 10
10.0
 20
23.66025543212891
 30
0.0
 11
2.0
 21
23.66025543212891
 31
0.0
  0
LINE
  5
1C0
330
21
100
AcDbEntity
  8
0
  6
Continuous
 62
     7
100
AcDbLine
 10
10.0
 20
6.538444519042968
 30
0.0
 11
10.0
 21
23.66025543212891
 31
0.0
  0
LINE
  5
1C1
330
21
100
AcDbEntity
  8
0
  6
Continuous
 62
     7
100
AcDbLine
 10
10.0
 20
6.538444519042968
 30
0.0
 11
7.999984741210937
 21
6.538444519042968
 31
0.0
  0
LINE
  5
1C2
330
21
100
AcDbEntity
  8
0
  6
Continuous
 62
     7
100
AcDbLine
 10
7.999984741210937
 20
23.66025543212891
 30
0.0
 11
7.999984741210937
 21
25.00938415527344
 31
0.0
  0
LINE
  5
1C3
330
21
100
AcDbEntity
  8
0
  6
Continuous
 62
     7
100
AcDbLine
 10
7.999984741210937
 20
6.339744567871093
 30
0.0
 11
2.0
 21
6.339744567871093
 31
0.0
  0
LINE
  5
1C4
330
21
100
AcDbEntity
  8
0
  6
Continuous
 62
     7
100
AcDbLine
 10
2.899993896484375
 20
16.6471176147461
 30
0.0
 11
1.5
 21
16.6471176147461
 31
0.0
  0
LINE
  5
1C5
330
21
100
AcDbEntity
  8
0
  6
Continuous
 62
     7
100
AcDbLine
 10
4.955696105957031
 20
16.6471176147461
 30
0.0
 11
4.955696105957031
 21
19.7698745727539
 31
0.0
  0
LINE
  5
1C6
330
21
100
AcDbEntity
  8
0
  6
Continuous
 62
     7
100
AcDbLine
 10
2.843841552734375
 20
16.6471176147461
 30
0.0
 11
2.843841552734375
 21
19.7698745727539
 31
0.0
  0
LINE
  5
1C7
330
21
100
AcDbEntity
  8
0
  6
Continuous
 62
     7
100
AcDbLine
 10
1.5
 20
16.1471176147461
 30
0.0
 11
0.0
 21
16.1471176147461
 31
0.0
  0
LINE
  5
1C8
330
21
100
AcDbEntity
  8
0
  6
Continuous
 62
     7
100
AcDbLine
 10
1.5
 20
8.852859497070312
 30
0.0
 11
1.5
 21
16.6471176147461
 31
0.0
  0
LINE
  5
1C9
330
21
100
AcDbEntity
  8
0
  6
Continuous
 62
     7
100
AcDbLine
 10
2.0
 20
16.6471176147461
 30
0.0
 11
2.0
 21
23.66025543212891
 31
0.0
  0
LINE
  5
1CA
330
21
100
AcDbEntity
  8
0
  6
Continuous
 62
     7
100
AcDbLine
 10
2.0
 20
8.352859497070312
 30
0.0
 11
0.0
 21
8.352859497070312
 31
0.0
  0
LINE
  5
1CB
330
21
100
AcDbEntity
  8
0
  6
Continuous
 62
     7
100
AcDbLine
 10
2.0
 20
8.852859497070312
 30
0.0
 11
1.5
 21
8.852859497070312
 31
0.0
  0
LINE
  5
1CC
330
21
100
AcDbEntity
  8
0
  6
Continuous
 62
     7
100
AcDbLine
 10
16.0
 20
3.903461456298828
 30
0.0
 11
16.0
 21
25.00938415527344
 31
0.0
  0
LINE
  5
1CD
330
21
100
AcDbEntity
  8
0
  6
Continuous
 62
     7
100
AcDbLine
 10
24.0
 20
-0.5814285278320313
 30
0.0
 11
17.0
 21
-0.5814285278320313
 31
0.0
  0
LINE
  5
1CE
330
21
100
AcDbEntity
  8
0
  6
Continuous
 62
     7
100
AcDbLine
 10
16.00000016496204
 20
3.903461621260873
 30
0.0
 11
17.0
 21
2.90346178622292
 31
0.0
  0
LINE
  5
1CF
330
21
100
AcDbEntity
  8
0
  6
Continuous
 62
     7
100
AcDbLine
 10
24.0
 20
21.06924438476562
 30
0.0
 11
17.0
 21
21.06924438476562
 31
0.0
  0
LINE
  5
1D0
330
21
100
AcDbEntity
  8
0
  6
Continuous
 62
     7
100
AcDbLine
 10
24.0
 20
21.06924438476562
 30
0.0
 11
24.0
 21
24.0
 31
0.0
  0
LINE
  5
1D1
330
21
100
AcDbEntity
  8
0
  6
Continuous
 62
     2
100
AcDbLine
 10
2.199996948242187
 20
-11.4999885559082
 30
0.0
 11
-4.0
 21
-11.4999885559082
 31
0.0
  0
LINE
  5
1D2
330
21
100
AcDbEntity
  8
0
  6
Continuous
 62
     7
100
AcDbLine
 10
0.0
 20
-13.49999618530273
 30
0.0
 11
-2.699996948242187
 21
-13.49999618530273
 31
0.0
  0
LINE
  5
1D3
330
21
100
AcDbEntity
  8
0
  6
Continuous
 62
     7
100
AcDbLine
 10
-3.0
 20
-9.799999237060546
 30
0.0
 11
-3.0
 21
-13.19999313354492
 31
0.0
  0
LINE
  5
1D4
330
21
100
AcDbEntity
  8
0
  6
Continuous
 62
     7
100
AcDbLine
 10
0.0
 20
-9.499996185302734
 30
0.0
 11
-2.699996948242187
 21
-9.499996185302734
 31
0.0
  0
LINE
  5
1D5
330
21
100
AcDbEntity
  8
0
  6
Continuous
 62
     7
100
AcDbLine
 10
-2.699996948242187
 20
-9.499996185302734
 30
0.0
 11
-2.699996948242187
 21
-13.49999618530273
 31
0.0
  0
LINE
  5
1D6
330
21
100
AcDbEntity
  8
0
  6
Continuous
 62
     7
100
AcDbLine
 10
-2.699996948242187
 20
-9.499996185302734
 30
0.0
 11
-3.0
 21
-9.799999237060546
 31
0.0
  0
LINE
  5
1D7
330
21
100
AcDbEntity
  8
0
  6
Continuous
 62
     7
100
AcDbLine
 10
-2.699996948242187
 20
-13.49999618530273
 30
0.0
 11
-3.0
 21
-13.19999313354492
 31
0.0
  0
LINE
  5
1D8
330
21
100
AcDbEntity
  8
0
  6
Continuous
 62
     2
100
AcDbLine
 10
2.199996948242187
 20
5.750003814697265
 30
0.0
 11
-4.0
 21
5.750003814697265
 31
0.0
  0
LINE
  5
1D9
330
21
100
AcDbEntity
  8
0
  6
Continuous
 62
     7
100
AcDbLine
 10
0.0
 20
3.749996185302734
 30
0.0
 11
-2.699996948242187
 21
3.749996185302734
 31
0.0
  0
LINE
  5
1DA
330
21
100
AcDbEntity
  8
0
  6
Continuous
 62
     7
100
AcDbLine
 10
-3.0
 20
7.449993133544922
 30
0.0
 11
-3.0
 21
4.049999237060545
 31
0.0
  0
LINE
  5
1DB
330
21
100
AcDbEntity
  8
0
  6
Continuous
 62
     7
100
AcDbLine
 10
0.0
 20
7.749996185302734
 30
0.0
 11
-2.699996948242187
 21
7.749996185302734
 31
0.0
  0
LINE
  5
1DC
330
21
100
AcDbEntity
  8
0
  6
Continuous
 62
     7
100
AcDbLine
 10
-2.699996948242187
 20
7.749996185302734
 30
0.0
 11
-2.699996948242187
 21
3.749996185302734
 31
0.0
  0
LINE
  5
1DD
330
21
100
AcDbEntity
  8
0
  6
Continuous
 62
     7
100
AcDbLine
 10
-2.699996948242187
 20
7.749996185302734
 30
0.0
 11
-3.0
 21
7.449993133544922
 31
0.0
  0
LINE
  5
1DE
330
21
100
AcDbEntity
  8
0
  6
Continuous
 62
     7
100
AcDbLine
 10
-2.699996948242187
 20
3.749996185302734
 30
0.0
 11
-3.0
 21
4.049999237060545
 31
0.0
  0
LINE
  5
1DF
330
21
100
AcDbEntity
  8
0
  6
Continuous
 62
     2
100
AcDbLine
 10
20.50002670288086
 20
-17.49998474121093
 30
0.0
 11
20.50002670288086
 21
-10.49998474121093
 31
0.0
  0
LINE
  5
1E0
330
21
100
AcDbEntity
  8
0
  6
Continuous
 62
     2
100
AcDbLine
 10
17.00002670288086
 20
-13.99998474121094
 30
0.0
 11
24.00002670288086
 21
-13.99998474121094
 31
0.0
  0
LINE
  5
1E1
330
21
100
AcDbEntity
  8
0
  6
Continuous
 62
     7
100
AcDbLine
 10
56.99998474121094
 20
22.19842529296875
 30
0.0
 11
56.99998474121094
 21
24.0
 31
0.0
  0
LINE
  5
1E2
330
21
100
AcDbEntity
  8
0
  6
Continuous
 62
     7
100
AcDbLine
 10
26.49999618530273
 20
-19.0
 30
0.0
 11
57.99998474121093
 21
-19.0
 31
0.0
  0
LINE
  5
1E3
330
21
100
AcDbEntity
  8
0
  6
Continuous
 62
     7
100
AcDbLine
 10
26.49999618530273
 20
-23.99999809265137
 30
0.0
 11
26.49999618530273
 21
-19.0
 31
0.0
  0
LINE
  5
1E4
330
21
100
AcDbEntity
  8
0
  6
Continuous
 62
     7
100
AcDbLine
 10
57.99998474121093
 20
-3.19842529296875
 30
0.0
 11
26.49999618530273
 21
-3.19842529296875
 31
0.0
  0
LINE
  5
1E5
330
21
100
AcDbEntity
  8
0
  6
Continuous
 62
     7
100
AcDbLine
 10
57.99998474121093
 20
22.19842529296875
 30
0.0
 11
26.49999618530273
 21
22.19842529296875
 31
0.0
  0
LINE
  5
1E6
330
21
100
AcDbEntity
  8
0
  6
Continuous
 62
     7
100
AcDbLine
 10
26.49999618530273
 20
-3.19842529296875
 30
0.0
 11
26.49999618530273
 21
22.19842529296875
 31
0.0
  0
LINE
  5
1E7
330
21
100
AcDbEntity
  8
0
  6
Continuous
 62
     7
100
AcDbLine
 10
57.99998474121093
 20
7.334926605224609
 30
0.0
 11
29.99999618530273
 21
7.334926605224609
 31
0.0
  0
LINE
  5
1E8
330
21
100
AcDbEntity
  8
0
  6
Continuous
 62
     7
100
AcDbLine
 10
57.99998474121093
 20
11.66505432128906
 30
0.0
 11
29.99999618530273
 21
11.66505432128906
 31
0.0
  0
LINE
  5
1E9
330
21
100
AcDbEntity
  8
0
  6
Continuous
 62
     7
100
AcDbLine
 10
57.99998474121093
 20
10.66505432128906
 30
0.0
 11
29.99999618530273
 21
10.66505432128906
 31
0.0
  0
LINE
  5
1EA
330
21
100
AcDbEntity
  8
0
  6
Continuous
 62
     7
100
AcDbLine
 10
57.99998474121093
 20
9.88563537597656
 30
0.0
 11
29.78563690185547
 21
9.88563537597656
 31
0.0
  0
ENDBLK
  5
1EB
330
21
100
AcDbEntity
  8
0
100
AcDbBlockEnd
  0
BLOCK
  5
1EC
330
22
100
AcDbEntity
  8
0
100
AcDbBlockBegin
  2
NHE1D-20-5
 70
     0
 10
0.0
 20
0.0
 30
0.0
  3
NHE1D-20-5
  1

  0
LINE
  5
1ED
330
22
100
AcDbEntity
  8
0
  6
Continuous
 62
     2
100
AcDbLine
 10
17.25000000476837
 20
-0.3299995223464407
 30
0.0
 11
19.75000000476837
 21
-4.659999522346453
 31
0.0
  0
LINE
  5
1EE
330
22
100
AcDbEntity
  8
0
  6
Continuous
 62
     2
100
AcDbLine
 10
0.9500000047683554
 20
0.6001359972752312
 30
0.0
 11
0.9500000047683554
 21
0.0
 31
0.0
  0
LINE
  5
1EF
330
22
100
AcDbEntity
  8
0
  6
Continuous
 62
     2
100
AcDbLine
 10
3.050000004768378
 20
0.6001359972752312
 30
0.0
 11
3.050000004768378
 21
0.0
 31
0.0
  0
LINE
  5
1F0
330
22
100
AcDbEntity
  8
0
  6
Continuous
 62
     7
100
AcDbLine
 10
0.7514285761969291
 20
0.4001359972752141
 30
0.0
 11
3.251428576196928
 21
0.4001359972752141
 31
0.0
  0
LINE
  5
1F1
330
22
100
AcDbEntity
  8
0
  6
Continuous
 62
     7
100
AcDbLine
 10
3.05142857619694
 20
0.6001359972752312
 30
0.0
 11
3.251428576196928
 21
0.4001359972752141
 31
0.0
  0
LINE
  5
1F2
330
22
100
AcDbEntity
  8
0
  6
Continuous
 62
     7
100
AcDbLine
 10
0.7514285761969291
 20
0.4001359972752141
 30
0.0
 11
0.9514285761969174
 21
0.6001359972752312
 31
0.0
  0
LINE
  5
1F3
330
22
100
AcDbEntity
  8
0
  6
Continuous
 62
     7
100
AcDbLine
 10
3.251428576196928
 20
0.4001359972752141
 30
0.0
 11
3.251428576196928
 21
0.0
 31
0.0
  0
LINE
  5
1F4
330
22
100
AcDbEntity
  8
0
  6
Continuous
 62
     7
100
AcDbLine
 10
0.7514285761969291
 20
0.0
 30
0.0
 11
0.7514285761969291
 21
0.4001359972752141
 31
0.0
  0
LINE
  5
1F5
330
22
100
AcDbEntity
  8
0
  6
Continuous
 62
     2
100
AcDbLine
 10
0.9500000047683554
 20
-2.599864002724785
 30
0.0
 11
0.9500000047683554
 21
-4.098435431296209
 31
0.0
  0
LINE
  5
1F6
330
22
100
AcDbEntity
  8
0
  6
Continuous
 62
     2
100
AcDbLine
 10
3.050000004768378
 20
-2.599864002724785
 30
0.0
 11
3.050000004768378
 21
-4.101292574153347
 31
0.0
  0
LINE
  5
1F7
330
22
100
AcDbEntity
  8
0
  6
Continuous
 62
     7
100
AcDbLine
 10
0.9514285761969174
 20
0.6001359972752312
 30
0.0
 11
3.05142857619694
 21
0.6001359972752312
 31
0.0
  0
LINE
  5
1F8
330
22
100
AcDbEntity
  8
0
  6
Continuous
 62
     7
100
AcDbLine
 10
0.000000004768367
 20
-1.799864002724774
 30
0.0
 11
0.000000004768367
 21
0.0
 31
0.0
  0
LINE
  5
1F9
330
22
100
AcDbEntity
  8
0
  6
Continuous
 62
     2
100
AcDbLine
 10
2.000000004768367
 20
1.286482308440184
 30
0.0
 11
2.000000004768367
 21
-5.067036249354088
 31
0.0
  0
LINE
  5
1FA
330
22
100
AcDbEntity
  8
0
  6
Continuous
 62
     7
100
AcDbLine
 10
4.000000004768367
 20
-1.800000002724772
 30
0.0
 11
4.000000004768367
 21
-2.600000002724784
 31
0.0
  0
LINE
  5
1FB
330
22
100
AcDbEntity
  8
0
  6
Continuous
 62
     7
100
AcDbLine
 10
0.000000004768367
 20
-1.799864002724774
 30
0.0
 11
0.000000004768367
 21
-2.600000002724784
 31
0.0
  0
LINE
  5
1FC
330
22
100
AcDbEntity
  8
0
  6
Continuous
 62
     7
100
AcDbLine
 10
0.7514285761969291
 20
-2.599864002724785
 30
0.0
 11
0.7514285761969291
 21
-3.899864002724783
 31
0.0
  0
LINE
  5
1FD
330
22
100
AcDbEntity
  8
0
  6
Continuous
 62
     2
100
AcDbLine
 10
0.7514285761969291
 20
-3.899864002724783
 30
0.0
 11
3.251428576196928
 21
-3.899864002724783
 31
0.0
  0
LINE
  5
1FE
330
22
100
AcDbEntity
  8
0
  6
Continuous
 62
     7
100
AcDbLine
 10
1.251428576196928
 20
-4.399864002724783
 30
0.0
 11
0.7514285761969291
 21
-3.899864002724783
 31
0.0
  0
LINE
  5
1FF
330
22
100
AcDbEntity
  8
0
  6
Continuous
 62
     7
100
AcDbLine
 10
1.251428576196928
 20
-4.399864002724783
 30
0.0
 11
2.751428576196929
 21
-4.399864002724783
 31
0.0
  0
LINE
  5
200
330
22
100
AcDbEntity
  8
0
  6
Continuous
 62
     7
100
AcDbLine
 10
3.251428576196928
 20
-3.899864002724783
 30
0.0
 11
2.751428576196929
 21
-4.399864002724783
 31
0.0
  0
LINE
  5
201
330
22
100
AcDbEntity
  8
0
  6
Continuous
 62
     7
100
AcDbLine
 10
3.251428576196928
 20
-2.599864002724785
 30
0.0
 11
3.251428576196928
 21
-3.899864002724783
 31
0.0
  0
LINE
  5
202
330
22
100
AcDbEntity
  8
0
  6
Continuous
 62
     7
100
AcDbLine
 10
4.300000004768377
 20
-1.800000002724772
 30
0.0
 11
4.300000004768377
 21
-4.59999952234645
 31
0.0
  0
LINE
  5
203
330
22
100
AcDbEntity
  8
0
  6
Continuous
 62
     7
100
AcDbLine
 10
15.50000000476837
 20
-4.59999952234645
 30
0.0
 11
15.50000000476837
 21
0.0
 31
0.0
  0
LINE
  5
204
330
22
100
AcDbEntity
  8
0
  6
Continuous
 62
     7
100
AcDbLine
 10
4.300000003405955
 20
-4.59999952234645
 30
0.0
 11
15.5
 21
-4.59999952234645
 31
0.0
  0
LINE
  5
205
330
22
100
AcDbEntity
  8
0
  6
Continuous
 62
     7
100
AcDbLine
 10
0.0
 20
-1.800000002724772
 30
0.0
 11
4.300000003405955
 21
-1.800000002724772
 31
0.0
  0
LINE
  5
206
330
22
100
AcDbEntity
  8
0
  6
Continuous
 62
     7
100
AcDbLine
 10
0.0
 20
-2.600000002724784
 30
0.0
 11
4.0
 21
-2.600000002724784
 31
0.0
  0
LINE
  5
207
330
22
100
AcDbEntity
  8
0
  6
Continuous
 62
     7
100
AcDbLine
 10
0.0
 20
-1.100000002724783
 30
0.0
 11
15.50000000476837
 21
-1.100000002724783
 31
0.0
  0
LINE
  5
208
330
22
100
AcDbEntity
  8
0
  6
Continuous
 62
     7
100
AcDbLine
 10
0.0
 20
-0.5499999965940106
 30
0.0
 11
15.50000000476837
 21
-0.5499999965940106
 31
0.0
  0
LINE
  5
209
330
22
100
AcDbEntity
  8
0
  6
Continuous
 62
     7
100
AcDbLine
 10
0.0
 20
0.0
 30
0.0
 11
15.50000000476837
 21
0.0
 31
0.0
  0
LINE
  5
20A
330
22
100
AcDbEntity
  8
0
  6
Continuous
 62
     7
100
AcDbLine
 10
15.50000000476837
 20
-1.199999522346445
 30
0.0
 11
17.75230947359051
 21
-1.199999522346445
 31
0.0
  0
LINE
  5
20B
330
22
100
AcDbEntity
  8
0
  6
Continuous
 62
     7
100
AcDbLine
 10
15.50000000476837
 20
-3.799999522346453
 30
0.0
 11
19.25346420800161
 21
-3.799999522346453
 31
0.0
  0
ENDBLK
  5
20C
330
22
100
AcDbEntity
  8
0
100
AcDbBlockEnd
  0
BLOCK
  5
20D
330
23
100
AcDbEntity
  8
0
100
AcDbBlockBegin
  2
NHE1D-20-6
 70
     0
 10
0.0
 20
0.0
 30
0.0
  3
NHE1D-20-6
  1

  0
LINE
  5
20E
330
23
100
AcDbEntity
  8
0
  6
Continuous
 62
     7
100
AcDbLine
 10
-0.7471428571428192
 20
-4.399864000000007
 30
0.0
 11
-1.25
 21
-3.897006857142855
 31
0.0
  0
LINE
  5
20F
330
23
100
AcDbEntity
  8
0
  6
Continuous
 62
     2
100
AcDbLine
 10
0.0
 20
-5.067036246629313
 30
0.0
 11
0.0
 21
1.286482311164959
 31
0.0
  0
ARC
  5
210
330
23
100
AcDbEntity
  8
0
  6
Continuous
 62
     7
100
AcDbCircle
 10
0.0
 20
-2.549998923398334
 30
0.0
 40
2.050000596223346
100
AcDbArc
 50
179.9563015362348
 51
359.9999998959213
  0
LINE
  5
211
330
23
100
AcDbEntity
  8
0
  6
Continuous
 62
     7
100
AcDbLine
 10
1.25
 20
-3.897006857142855
 30
0.0
 11
0.747142857142876
 21
-4.399864000000007
 31
0.0
  0
LINE
  5
212
330
23
100
AcDbEntity
  8
0
  6
Continuous
 62
     7
100
AcDbLine
 10
-1.050000000000011
 20
0.6001360000000063
 30
0.0
 11
1.050000000000011
 21
0.6001360000000063
 31
0.0
  0
LINE
  5
213
330
23
100
AcDbEntity
  8
0
  6
Continuous
 62
     7
100
AcDbLine
 10
-1.25
 20
0.4001359999999893
 30
0.0
 11
1.25
 21
0.4001359999999893
 31
0.0
  0
LINE
  5
214
330
23
100
AcDbEntity
  8
0
  6
Continuous
 62
     7
100
AcDbLine
 10
-1.501428571428561
 20
0.0
 30
0.0
 11
1.5
 21
0.0
 31
0.0
  0
LINE
  5
215
330
23
100
AcDbEntity
  8
0
  6
Continuous
 62
     7
100
AcDbLine
 10
-1.25
 20
-3.897006857142855
 30
0.0
 11
1.25
 21
-3.897006857142855
 31
0.0
  0
LINE
  5
216
330
23
100
AcDbEntity
  8
0
  6
Continuous
 62
     7
100
AcDbLine
 10
-2.050000000000011
 20
-1.799999999999997
 30
0.0
 11
2.050000000000011
 21
-1.799999999999997
 31
0.0
  0
LINE
  5
217
330
23
100
AcDbEntity
  8
0
  6
Continuous
 62
     7
100
AcDbLine
 10
-2.050000000000011
 20
-2.600000000000008
 30
0.0
 11
2.049390723326041
 21
-2.600000000000008
 31
0.0
  0
LINE
  5
218
330
23
100
AcDbEntity
  8
0
  6
Continuous
 62
     7
100
AcDbLine
 10
1.499999993869266
 20
-0.5499999938692355
 30
0.0
 11
2.050000000000011
 21
-1.100000000000008
 31
0.0
  0
LINE
  5
219
330
23
100
AcDbEntity
  8
0
  6
Continuous
 62
     7
100
AcDbLine
 10
1.5
 20
-0.5499999999999972
 30
0.0
 11
1.5
 21
0.0000000027247751
 31
0.0
  0
LINE
  5
21A
330
23
100
AcDbEntity
  8
0
  6
Continuous
 62
     7
100
AcDbLine
 10
1.25
 20
-2.59986400000001
 30
0.0
 11
1.25
 21
-3.897006857142855
 31
0.0
  0
LINE
  5
21B
330
23
100
AcDbEntity
  8
0
  6
Continuous
 62
     7
100
AcDbLine
 10
2.050000000000011
 20
-1.100000000000008
 30
0.0
 11
2.050000000000011
 21
-2.548435428571437
 31
0.0
  0
LINE
  5
21C
330
23
100
AcDbEntity
  8
0
  6
Continuous
 62
     7
100
AcDbLine
 10
1.25
 20
0.4001359999999893
 30
0.0
 11
1.25
 21
0.0
 31
0.0
  0
LINE
  5
21D
330
23
100
AcDbEntity
  8
0
  6
Continuous
 62
     7
100
AcDbLine
 10
1.050000000000011
 20
0.6001360000000063
 30
0.0
 11
1.25
 21
0.4001359999999893
 31
0.0
  0
LINE
  5
21E
330
23
100
AcDbEntity
  8
0
  6
Continuous
 62
     7
100
AcDbLine
 10
-1.5
 20
-0.5471354166666771
 30
0.0
 11
-1.5
 21
0.0000000027247751
 31
0.0
  0
LINE
  5
21F
330
23
100
AcDbEntity
  8
0
  6
Continuous
 62
     7
100
AcDbLine
 10
-1.25
 20
-2.600000000000008
 30
0.0
 11
-1.25
 21
-3.897006857142855
 31
0.0
  0
LINE
  5
220
330
23
100
AcDbEntity
  8
0
  6
Continuous
 62
     7
100
AcDbLine
 10
-2.050000000000011
 20
-1.100000000000008
 30
0.0
 11
-1.501428571428561
 21
-0.5485714285714352
 31
0.0
  0
LINE
  5
221
330
23
100
AcDbEntity
  8
0
  6
Continuous
 62
     7
100
AcDbLine
 10
-2.050000000000011
 20
-1.100000000000008
 30
0.0
 11
-2.050000000000011
 21
-2.548435428571437
 31
0.0
  0
LINE
  5
222
330
23
100
AcDbEntity
  8
0
  6
Continuous
 62
     7
100
AcDbLine
 10
-1.25
 20
0.0
 30
0.0
 11
-1.25
 21
0.4001359999999893
 31
0.0
  0
LINE
  5
223
330
23
100
AcDbEntity
  8
0
  6
Continuous
 62
     7
100
AcDbLine
 10
-1.25
 20
0.4001359999999893
 30
0.0
 11
-1.050000000000011
 21
0.6001360000000063
 31
0.0
  0
LINE
  5
224
330
23
100
AcDbEntity
  8
0
  6
Continuous
 62
     2
100
AcDbLine
 10
-1.050000000000011
 20
-4.097006857142857
 30
0.0
 11
-1.050000000000011
 21
-2.600000000000008
 31
0.0
  0
LINE
  5
225
330
23
100
AcDbEntity
  8
0
  6
Continuous
 62
     2
100
AcDbLine
 10
1.050000000000011
 20
-4.097006857142857
 30
0.0
 11
1.050000000000011
 21
-2.600000000000008
 31
0.0
  0
LINE
  5
226
330
23
100
AcDbEntity
  8
0
  6
Continuous
 62
     2
100
AcDbLine
 10
-1.050000000000011
 20
0.0
 30
0.0
 11
-1.050000000000011
 21
0.6001360000000063
 31
0.0
  0
LINE
  5
227
330
23
100
AcDbEntity
  8
0
  6
Continuous
 62
     2
100
AcDbLine
 10
1.050000000000011
 20
0.0
 30
0.0
 11
1.050000000000011
 21
0.6001360000000063
 31
0.0
  0
ENDBLK
  5
228
330
23
100
AcDbEntity
  8
0
100
AcDbBlockEnd
  0
BLOCK
  5
229
330
24
100
AcDbEntity
  8
0
100
AcDbBlockBegin
  2
NHE1D-20-7
 70
     0
 10
0.0
 20
0.0
 30
0.0
  3
NHE1D-20-7
  1

  0
CIRCLE
  5
22A
330
24
100
AcDbEntity
  8
0
  6
Continuous
 62
     7
100
AcDbCircle
 10
0.0
 20
-1.849999516896943
 30
0.0
 40
0.5
  0
CIRCLE
  5
22B
330
24
100
AcDbEntity
  8
0
  6
Continuous
 62
     7
100
AcDbCircle
 10
0.0
 20
-3.149999522346362
 30
0.0
 40
0.5
  0
CIRCLE
  5
22C
330
24
100
AcDbEntity
  8
0
  6
Continuous
 62
     7
100
AcDbCircle
 10
0.0
 20
-1.849999516896943
 30
0.0
 40
0.29
  0
CIRCLE
  5
22D
330
24
100
AcDbEntity
  8
0
  6
Continuous
 62
     7
100
AcDbCircle
 10
0.0
 20
-3.149999522346362
 30
0.0
 40
0.29
  0
CIRCLE
  5
22E
330
24
100
AcDbEntity
  8
0
  6
Continuous
 62
     7
100
AcDbCircle
 10
0.0
 20
-2.499999519621652
 30
0.0
 40
1.3
  0
LINE
  5
22F
330
24
100
AcDbEntity
  8
0
  6
Continuous
 62
     2
100
AcDbLine
 10
-1.050000000000011
 20
0.0
 30
0.0
 11
-1.050000000000011
 21
0.6001360000000063
 31
0.0
  0
LINE
  5
230
330
24
100
AcDbEntity
  8
0
  6
Continuous
 62
     2
100
AcDbLine
 10
1.050000000000011
 20
0.0
 30
0.0
 11
1.050000000000011
 21
0.6001360000000063
 31
0.0
  0
LINE
  5
231
330
24
100
AcDbEntity
  8
0
  6
Continuous
 62
     7
100
AcDbLine
 10
1.25
 20
0.4001359999999893
 30
0.0
 11
1.050000000000011
 21
0.6001360000000063
 31
0.0
  0
LINE
  5
232
330
24
100
AcDbEntity
  8
0
  6
Continuous
 62
     7
100
AcDbLine
 10
1.25
 20
0.0
 30
0.0
 11
1.25
 21
0.4001359999999893
 31
0.0
  0
LINE
  5
233
330
24
100
AcDbEntity
  8
0
  6
Continuous
 62
     7
100
AcDbLine
 10
2.050000000000011
 20
-1.100000000000008
 30
0.0
 11
2.050000000000011
 21
-2.548435428571437
 31
0.0
  0
LINE
  5
234
330
24
100
AcDbEntity
  8
0
  6
Continuous
 62
     7
100
AcDbLine
 10
2.050000000000011
 20
-1.100000000000008
 30
0.0
 11
1.501428571428561
 21
-0.5485714285714352
 31
0.0
  0
LINE
  5
235
330
24
100
AcDbEntity
  8
0
  6
Continuous
 62
     7
100
AcDbLine
 10
1.5
 20
-0.5471354166666771
 30
0.0
 11
1.5
 21
0.0000000027247751
 31
0.0
  0
LINE
  5
236
330
24
100
AcDbEntity
  8
0
  6
Continuous
 62
     7
100
AcDbLine
 10
-1.050000000000011
 20
0.6001360000000063
 30
0.0
 11
-1.25
 21
0.4001359999999893
 31
0.0
  0
LINE
  5
237
330
24
100
AcDbEntity
  8
0
  6
Continuous
 62
     7
100
AcDbLine
 10
-1.25
 20
0.4001359999999893
 30
0.0
 11
-1.25
 21
0.0
 31
0.0
  0
LINE
  5
238
330
24
100
AcDbEntity
  8
0
  6
Continuous
 62
     7
100
AcDbLine
 10
-2.050000000000011
 20
-1.100000000000008
 30
0.0
 11
-2.050000000000011
 21
-2.548435428571437
 31
0.0
  0
LINE
  5
239
330
24
100
AcDbEntity
  8
0
  6
Continuous
 62
     7
100
AcDbLine
 10
-1.5
 20
-0.5499999999999972
 30
0.0
 11
-1.5
 21
0.0000000027247751
 31
0.0
  0
LINE
  5
23A
330
24
100
AcDbEntity
  8
0
  6
Continuous
 62
     7
100
AcDbLine
 10
-1.499999993869266
 20
-0.5499999938692355
 30
0.0
 11
-2.050000000000011
 21
-1.100000000000008
 31
0.0
  0
LINE
  5
23B
330
24
100
AcDbEntity
  8
0
  6
Continuous
 62
     7
100
AcDbLine
 10
1.501428571428561
 20
0.0
 30
0.0
 11
-1.5
 21
0.0
 31
0.0
  0
LINE
  5
23C
330
24
100
AcDbEntity
  8
0
  6
Continuous
 62
     7
100
AcDbLine
 10
1.25
 20
0.4001359999999893
 30
0.0
 11
-1.25
 21
0.4001359999999893
 31
0.0
  0
LINE
  5
23D
330
24
100
AcDbEntity
  8
0
  6
Continuous
 62
     7
100
AcDbLine
 10
1.050000000000011
 20
0.6001360000000063
 30
0.0
 11
-1.050000000000011
 21
0.6001360000000063
 31
0.0
  0
ARC
  5
23E
330
24
100
AcDbEntity
  8
0
  6
Continuous
 62
     7
100
AcDbCircle
 10
0.0
 20
-2.549998923398334
 30
0.0
 40
2.050000596223346
100
AcDbArc
 50
180.0000001040787
 51
0.0436984637651909
  0
LINE
  5
23F
330
24
100
AcDbEntity
  8
0
  6
Continuous
 62
     2
100
AcDbLine
 10
0.0
 20
-5.067036246629313
 30
0.0
 11
0.0
 21
1.286482311164959
 31
0.0
  0
ENDBLK
  5
240
330
24
100
AcDbEntity
  8
0
100
AcDbBlockEnd
  0
BLOCK
  5
241
330
25
100
AcDbEntity
  8
0
100
AcDbBlockBegin
  2
NHE1D-20-8
 70
     0
 10
0.0
 20
0.0
 30
0.0
  3
NHE1D-20-8
  1

  0
LINE
  5
242
330
25
100
AcDbEntity
  8
0
  6
Continuous
 62
     2
100
AcDbLine
 10
-1.410401753016856
 20
0.0
 30
0.0
 11
21.50288684079606
 21
0.0
 31
0.0
  0
LINE
  5
243
330
25
100
AcDbEntity
  8
0
  6
Continuous
 62
     2
100
AcDbLine
 10
17.25000000476837
 20
2.170000000000015
 30
0.0
 11
19.75000000476837
 21
-2.159999999999996
 31
0.0
  0
LINE
  5
244
330
25
100
AcDbEntity
  8
0
  6
Continuous
 62
     7
100
AcDbLine
 10
15.50000000476837
 20
-1.299999999999997
 30
0.0
 11
19.25346420800161
 21
-1.299999999999997
 31
0.0
  0
LINE
  5
245
330
25
100
AcDbEntity
  8
0
  6
Continuous
 62
     7
100
AcDbLine
 10
15.50000000476837
 20
1.300000000000011
 30
0.0
 11
17.75230947359051
 21
1.300000000000011
 31
0.0
  0
LINE
  5
246
330
25
100
AcDbEntity
  8
0
  6
Continuous
 62
     2
100
AcDbLine
 10
2.000000004768367
 20
2.94285714285715
 30
0.0
 11
2.000000004768367
 21
-3.299984673423466
 31
0.0
  0
LINE
  5
247
330
25
100
AcDbEntity
  8
0
  6
Continuous
 62
     7
100
AcDbLine
 10
3.900000004768343
 20
-1.5
 30
0.0
 11
3.900000004768343
 21
1.5
 31
0.0
  0
LINE
  5
248
330
25
100
AcDbEntity
  8
0
  6
Continuous
 62
     7
100
AcDbLine
 10
10.40000000476834
 20
-1.5
 30
0.0
 11
10.40000000476834
 21
1.5
 31
0.0
  0
LINE
  5
249
330
25
100
AcDbEntity
  8
0
  6
Continuous
 62
     7
100
AcDbLine
 10
8.000000004768367
 20
-0.5999999999999944
 30
0.0
 11
8.000000004768367
 21
0.9000000000000056
 31
0.0
  0
LINE
  5
24A
330
25
100
AcDbEntity
  8
0
  6
Continuous
 62
     7
100
AcDbLine
 10
9.600000004768387
 20
-0.5999999999999944
 30
0.0
 11
9.600000004768387
 21
0.9000000000000056
 31
0.0
  0
LINE
  5
24B
330
25
100
AcDbEntity
  8
0
  6
Continuous
 62
     7
100
AcDbLine
 10
0.0
 20
-2.049999999999996
 30
0.0
 11
0.0
 21
2.050000000000011
 31
0.0
  0
LINE
  5
24C
330
25
100
AcDbEntity
  8
0
  6
Continuous
 62
     7
100
AcDbLine
 10
15.50000000476837
 20
-2.049999999999996
 30
0.0
 11
15.50000000476837
 21
2.050000000000011
 31
0.0
  0
LINE
  5
24D
330
25
100
AcDbEntity
  8
0
  6
Continuous
 62
     7
100
AcDbLine
 10
0.0
 20
1.5
 30
0.0
 11
15.50000000476837
 21
1.5
 31
0.0
  0
LINE
  5
24E
330
25
100
AcDbEntity
  8
0
  6
Continuous
 62
     7
100
AcDbLine
 10
0.0
 20
-1.5
 30
0.0
 11
15.50000000476837
 21
-1.5
 31
0.0
  0
CIRCLE
  5
24F
330
25
100
AcDbEntity
  8
0
  6
Continuous
 62
     7
100
AcDbCircle
 10
2.000000004768367
 20
0.0
 30
0.0
 40
1.399999999999999
  0
CIRCLE
  5
250
330
25
100
AcDbEntity
  8
0
  6
Continuous
 62
     7
100
AcDbCircle
 10
2.000000004768367
 20
0.0
 30
0.0
 40
1.25
  0
CIRCLE
  5
251
330
25
100
AcDbEntity
  8
0
  6
Continuous
 62
     2
100
AcDbCircle
 10
2.000000004768367
 20
0.0
 30
0.0
 40
1.05
  0
LINE
  5
252
330
25
100
AcDbEntity
  8
0
  6
Continuous
 62
     7
100
AcDbLine
 10
0.9571978986753608
 20
-0.6892486978790089
 30
0.0
 11
2.689248702647375
 21
1.042802106093034
 31
0.0
  0
LINE
  5
253
330
25
100
AcDbEntity
  8
0
  6
Continuous
 62
     7
100
AcDbLine
 10
1.310751318931579
 20
-1.042802072252555
 30
0.0
 11
3.042802112443098
 21
0.6892487212589913
 31
0.0
  0
LINE
  5
254
330
25
100
AcDbEntity
  8
0
  6
Continuous
 62
     7
100
AcDbLine
 10
8.000000004768367
 20
0.9000000000000056
 30
0.0
 11
9.600000004768387
 21
0.9000000000000056
 31
0.0
  0
LINE
  5
255
330
25
100
AcDbEntity
  8
0
  6
Continuous
 62
     7
100
AcDbLine
 10
8.000000004768367
 20
-0.5999999999999944
 30
0.0
 11
9.600000004768387
 21
-0.5999999999999944
 31
0.0
  0
LINE
  5
256
330
25
100
AcDbEntity
  8
0
  6
Continuous
 62
     7
100
AcDbLine
 10
0.0
 20
2.050000000000011
 30
0.0
 11
15.50000000476837
 21
2.050000000000011
 31
0.0
  0
LINE
  5
257
330
25
100
AcDbEntity
  8
0
  6
Continuous
 62
     7
100
AcDbLine
 10
0.0
 20
-2.049999999999996
 30
0.0
 11
15.50000000476837
 21
-2.049999999999996
 31
0.0
  0
ENDBLK
  5
258
330
25
100
AcDbEntity
  8
0
100
AcDbBlockEnd
  0
BLOCK
  5
259
330
26
100
AcDbEntity
  8
0
100
AcDbBlockBegin
  2
NHE1D-20-9
 70
     0
 10
0.0
 20
0.0
 30
0.0
  3
NHE1D-20-9
  1

  0
LINE
  5
25A
330
26
100
AcDbEntity
  8
0
  6
Continuous
 62
     2
100
AcDbLine
 10
10.34000000476834
 20
7.647976315961244
 30
0.0
 11
14.67000000476838
 21
10.14797631596124
 31
0.0
  0
LINE
  5
25B
330
26
100
AcDbEntity
  8
0
  6
Continuous
 62
     7
100
AcDbLine
 10
10.40000001021792
 20
0.9479762348989313
 30
0.0
 11
12.05095566806369
 21
1.497976229666193
 31
0.0
  0
LINE
  5
25C
330
26
100
AcDbEntity
  8
0
  6
Continuous
 62
     7
100
AcDbLine
 10
12.05095566806369
 20
1.497976229666193
 30
0.0
 11
12.05095566806369
 21
5.897976315961244
 31
0.0
  0
LINE
  5
25D
330
26
100
AcDbEntity
  8
0
  6
Continuous
 62
     7
100
AcDbLine
 10
12.94904434147304
 20
4.897976311874074
 30
0.0
 11
12.94904434147304
 21
5.897976311874074
 31
0.0
  0
LINE
  5
25E
330
26
100
AcDbEntity
  8
0
  6
Continuous
 62
     7
100
AcDbLine
 10
12.94904434147304
 20
4.897976315961244
 30
0.0
 11
15.00000000476837
 21
4.897976315961244
 31
0.0
  0
LINE
  5
25F
330
26
100
AcDbEntity
  8
0
  6
Continuous
 62
     7
100
AcDbLine
 10
14.60000000476839
 20
4.897976315961244
 30
0.0
 11
14.60000000476839
 21
5.897976315961244
 31
0.0
  0
LINE
  5
260
330
26
100
AcDbEntity
  8
0
  6
Continuous
 62
     7
100
AcDbLine
 10
10.4000000047684
 20
-0.0020236840387469
 30
0.0
 11
10.4000000047684
 21
5.897976315961244
 31
0.0
  0
LINE
  5
261
330
26
100
AcDbEntity
  8
0
  6
Continuous
 62
     7
100
AcDbLine
 10
10.4000000047684
 20
5.897976315961244
 30
0.0
 11
14.60000000476839
 21
5.897976315961244
 31
0.0
  0
LINE
  5
262
330
26
100
AcDbEntity
  8
0
  6
Continuous
 62
     7
100
AcDbLine
 10
15.00000000476837
 20
3.897976315961244
 30
0.0
 11
10.4000000047684
 21
3.897976315961244
 31
0.0
  0
LINE
  5
263
330
26
100
AcDbEntity
  8
0
  6
Continuous
 62
     2
100
AcDbLine
 10
0.9500000047683554
 20
0.5979763159612475
 30
0.0
 11
0.9500000047683554
 21
-0.0020236840387469
 31
0.0
  0
LINE
  5
264
330
26
100
AcDbEntity
  8
0
  6
Continuous
 62
     2
100
AcDbLine
 10
3.050000004768378
 20
0.5979763159612475
 30
0.0
 11
3.050000004768378
 21
-0.0020236840387469
 31
0.0
  0
LINE
  5
265
330
26
100
AcDbEntity
  8
0
  6
Continuous
 62
     7
100
AcDbLine
 10
0.7514285761969291
 20
0.3979763159612446
 30
0.0
 11
3.251428576196928
 21
0.3979763159612446
 31
0.0
  0
LINE
  5
266
330
26
100
AcDbEntity
  8
0
  6
Continuous
 62
     7
100
AcDbLine
 10
3.05142857619694
 20
0.5979763159612475
 30
0.0
 11
3.251428576196928
 21
0.3979763159612446
 31
0.0
  0
LINE
  5
267
330
26
100
AcDbEntity
  8
0
  6
Continuous
 62
     7
100
AcDbLine
 10
0.7514285761969291
 20
0.3979763159612446
 30
0.0
 11
0.9514285761969743
 21
0.5979763159612475
 31
0.0
  0
LINE
  5
268
330
26
100
AcDbEntity
  8
0
  6
Continuous
 62
     7
100
AcDbLine
 10
3.251428576196928
 20
0.3979763159612446
 30
0.0
 11
3.251428576196928
 21
-0.0020236840387469
 31
0.0
  0
LINE
  5
269
330
26
100
AcDbEntity
  8
0
  6
Continuous
 62
     7
100
AcDbLine
 10
0.7514285761969291
 20
-0.0020236840387469
 30
0.0
 11
0.7514285761969291
 21
0.3979763159612446
 31
0.0
  0
LINE
  5
26A
330
26
100
AcDbEntity
  8
0
  6
Continuous
 62
     2
100
AcDbLine
 10
0.9500000047683554
 20
-2.602023684038755
 30
0.0
 11
0.9500000047683554
 21
-4.100595112610179
 31
0.0
  0
LINE
  5
26B
330
26
100
AcDbEntity
  8
0
  6
Continuous
 62
     2
100
AcDbLine
 10
3.050000004768378
 20
-2.602023684038755
 30
0.0
 11
3.050000004768378
 21
-4.103452255467316
 31
0.0
  0
LINE
  5
26C
330
26
100
AcDbEntity
  8
0
  6
Continuous
 62
     7
100
AcDbLine
 10
0.9514285761969743
 20
0.5979763159612475
 30
0.0
 11
3.05142857619694
 21
0.5979763159612475
 31
0.0
  0
LINE
  5
26D
330
26
100
AcDbEntity
  8
0
  6
Continuous
 62
     7
100
AcDbLine
 10
0.000000004768367
 20
-1.802023684038758
 30
0.0
 11
0.000000004768367
 21
0.0
 31
0.0
  0
LINE
  5
26E
330
26
100
AcDbEntity
  8
0
  6
Continuous
 62
     2
100
AcDbLine
 10
2.000000004768367
 20
1.284322627126215
 30
0.0
 11
2.000000004768367
 21
-5.069195930668058
 31
0.0
  0
LINE
  5
26F
330
26
100
AcDbEntity
  8
0
  6
Continuous
 62
     7
100
AcDbLine
 10
4.000000004768367
 20
-1.802023684038758
 30
0.0
 11
4.000000004768367
 21
-2.602023684038755
 31
0.0
  0
LINE
  5
270
330
26
100
AcDbEntity
  8
0
  6
Continuous
 62
     7
100
AcDbLine
 10
0.000000004768367
 20
-1.802023684038758
 30
0.0
 11
0.000000004768367
 21
-2.602023684038755
 31
0.0
  0
LINE
  5
271
330
26
100
AcDbEntity
  8
0
  6
Continuous
 62
     7
100
AcDbLine
 10
0.7514285761969291
 20
-2.602023684038755
 30
0.0
 11
0.7514285761969291
 21
-3.902023684038752
 31
0.0
  0
LINE
  5
272
330
26
100
AcDbEntity
  8
0
  6
Continuous
 62
     2
100
AcDbLine
 10
0.7514285761969291
 20
-3.902023684038752
 30
0.0
 11
3.251428576196928
 21
-3.902023684038752
 31
0.0
  0
LINE
  5
273
330
26
100
AcDbEntity
  8
0
  6
Continuous
 62
     7
100
AcDbLine
 10
1.251428576196928
 20
-4.402023684038752
 30
0.0
 11
0.7514285761969291
 21
-3.902023684038752
 31
0.0
  0
LINE
  5
274
330
26
100
AcDbEntity
  8
0
  6
Continuous
 62
     7
100
AcDbLine
 10
1.251428576196928
 20
-4.402023684038752
 30
0.0
 11
2.751428576196929
 21
-4.402023684038752
 31
0.0
  0
LINE
  5
275
330
26
100
AcDbEntity
  8
0
  6
Continuous
 62
     7
100
AcDbLine
 10
3.251428576196928
 20
-3.902023684038752
 30
0.0
 11
2.751428576196929
 21
-4.402023684038752
 31
0.0
  0
LINE
  5
276
330
26
100
AcDbEntity
  8
0
  6
Continuous
 62
     7
100
AcDbLine
 10
3.251428576196928
 20
-2.602023684038755
 30
0.0
 11
3.251428576196928
 21
-3.902023684038752
 31
0.0
  0
LINE
  5
277
330
26
100
AcDbEntity
  8
0
  6
Continuous
 62
     7
100
AcDbLine
 10
4.300000004768377
 20
-1.800000000000011
 30
0.0
 11
4.300000004768377
 21
-4.600000000000008
 31
0.0
  0
LINE
  5
278
330
26
100
AcDbEntity
  8
0
  6
Continuous
 62
     7
100
AcDbLine
 10
15.00000000476837
 20
-4.600000000000008
 30
0.0
 11
15.00000000476837
 21
4.897976315961244
 31
0.0
  0
LINE
  5
279
330
26
100
AcDbEntity
  8
0
  6
Continuous
 62
     7
100
AcDbLine
 10
11.20000000476835
 20
5.897976315961244
 30
0.0
 11
11.20000000476835
 21
8.14451211272798
 31
0.0
  0
LINE
  5
27A
330
26
100
AcDbEntity
  8
0
  6
Continuous
 62
     7
100
AcDbLine
 10
13.80000000476838
 20
5.897976315961244
 30
0.0
 11
13.80000000476838
 21
9.64566684713908
 31
0.0
  0
LINE
  5
27B
330
26
100
AcDbEntity
  8
0
  6
Continuous
 62
     7
100
AcDbLine
 10
4.300000003405955
 20
-4.600000000000008
 30
0.0
 11
15.0
 21
-4.600000000000008
 31
0.0
  0
LINE
  5
27C
330
26
100
AcDbEntity
  8
0
  6
Continuous
 62
     7
100
AcDbLine
 10
0.0
 20
0.0
 30
0.0
 11
15.0
 21
0.0
 31
0.0
  0
LINE
  5
27D
330
26
100
AcDbEntity
  8
0
  6
Continuous
 62
     7
100
AcDbLine
 10
0.000000004768367
 20
-1.800000000000011
 30
0.0
 11
4.300000004768377
 21
-1.800000000000011
 31
0.0
  0
LINE
  5
27E
330
26
100
AcDbEntity
  8
0
  6
Continuous
 62
     7
100
AcDbLine
 10
0.0
 20
-2.600000000000008
 30
0.0
 11
4.0
 21
-2.600000000000008
 31
0.0
  0
LINE
  5
27F
330
26
100
AcDbEntity
  8
0
  6
Continuous
 62
     7
100
AcDbLine
 10
0.0
 20
-1.100000008256415
 30
0.0
 11
15.0
 21
-1.100000008256415
 31
0.0
  0
LINE
  5
280
330
26
100
AcDbEntity
  8
0
  6
Continuous
 62
     7
100
AcDbLine
 10
0.0
 20
-0.5500000000000114
 30
0.0
 11
15.00000000476837
 21
-0.5500000000000114
 31
0.0
  0
LINE
  5
281
330
26
100
AcDbEntity
  8
0
  6
Continuous
 62
     7
100
AcDbLine
 10
10.39999999318803
 20
0.9479762301305639
 30
0.0
 11
15.0
 21
0.9479762301305639
 31
0.0
  0
LINE
  5
282
330
26
100
AcDbEntity
  8
0
  6
Continuous
 62
     7
100
AcDbLine
 10
10.40000001021792
 20
1.497976233536533
 30
0.0
 11
15.00000000476837
 21
1.497976233536533
 31
0.0
  0
ENDBLK
  5
283
330
26
100
AcDbEntity
  8
0
100
AcDbBlockEnd
  0
BLOCK
  5
284
330
27
100
AcDbEntity
  8
0
100
AcDbBlockBegin
  2
NHE1D-20-10
 70
     0
 10
0.0
 20
0.0
 30
0.0
  3
NHE1D-20-10
  1

  0
LINE
  5
285
330
27
100
AcDbEntity
  8
0
  6
Continuous
 62
     2
100
AcDbLine
 10
-2.159999999999968
 20
7.647976229666183
 30
0.0
 11
2.169999999999959
 21
10.14797622966618
 31
0.0
  0
LINE
  5
286
330
27
100
AcDbEntity
  8
0
  6
Continuous
 62
     7
100
AcDbLine
 10
-2.050000000000011
 20
5.897976229666184
 30
0.0
 11
2.049999999999954
 21
5.897976229666184
 31
0.0
  0
LINE
  5
287
330
27
100
AcDbEntity
  8
0
  6
Continuous
 62
     7
100
AcDbLine
 10
-2.050000000000011
 20
3.897976229666184
 30
0.0
 11
2.049999999999954
 21
3.897976229666184
 31
0.0
  0
LINE
  5
288
330
27
100
AcDbEntity
  8
0
  6
Continuous
 62
     7
100
AcDbLine
 10
-1.050000000000011
 20
0.5979763159612475
 30
0.0
 11
1.049999999999954
 21
0.5979763159612475
 31
0.0
  0
LINE
  5
289
330
27
100
AcDbEntity
  8
0
  6
Continuous
 62
     7
100
AcDbLine
 10
-1.25
 20
0.3979763159612446
 30
0.0
 11
-1.050000000000011
 21
0.5979763159612475
 31
0.0
  0
LINE
  5
28A
330
27
100
AcDbEntity
  8
0
  6
Continuous
 62
     7
100
AcDbLine
 10
1.049999999999954
 20
0.5979763159612475
 30
0.0
 11
1.25
 21
0.3979763159612446
 31
0.0
  0
LINE
  5
28B
330
27
100
AcDbEntity
  8
0
  6
Continuous
 62
     7
100
AcDbLine
 10
-1.25
 20
0.3979763159612446
 30
0.0
 11
1.25
 21
0.3979763159612446
 31
0.0
  0
LINE
  5
28C
330
27
100
AcDbEntity
  8
0
  6
Continuous
 62
     7
100
AcDbLine
 10
1.25
 20
0.3979763159612446
 30
0.0
 11
1.25
 21
0.0
 31
0.0
  0
LINE
  5
28D
330
27
100
AcDbEntity
  8
0
  6
Continuous
 62
     7
100
AcDbLine
 10
-1.25
 20
0.0
 30
0.0
 11
-1.25
 21
0.3979763159612446
 31
0.0
  0
LINE
  5
28E
330
27
100
AcDbEntity
  8
0
  6
Continuous
 62
     7
100
AcDbLine
 10
-2.04797631596125
 20
-1.102023684038755
 30
0.0
 11
-1.5
 21
-0.5511933247651939
 31
0.0
  0
LINE
  5
28F
330
27
100
AcDbEntity
  8
0
  6
Continuous
 62
     7
100
AcDbLine
 10
2.049999999999954
 20
-1.100000000000008
 30
0.0
 11
1.5
 21
-0.5500000000000114
 31
0.0
  0
LINE
  5
290
330
27
100
AcDbEntity
  8
0
  6
Continuous
 62
     7
100
AcDbLine
 10
1.25
 20
-2.600000000000008
 30
0.0
 11
1.25
 21
-3.899166541181614
 31
0.0
  0
LINE
  5
291
330
27
100
AcDbEntity
  8
0
  6
Continuous
 62
     7
100
AcDbLine
 10
-1.25
 20
-2.600000000000008
 30
0.0
 11
-1.25
 21
-3.899166541181614
 31
0.0
  0
LINE
  5
292
330
27
100
AcDbEntity
  8
0
  6
Continuous
 62
     7
100
AcDbLine
 10
-1.25
 20
-3.899166541181614
 30
0.0
 11
1.25
 21
-3.899166541181614
 31
0.0
  0
LINE
  5
293
330
27
100
AcDbEntity
  8
0
  6
Continuous
 62
     7
100
AcDbLine
 10
1.25
 20
-3.899166541181614
 30
0.0
 11
0.747142857142876
 21
-4.402023684038752
 31
0.0
  0
LINE
  5
294
330
27
100
AcDbEntity
  8
0
  6
Continuous
 62
     7
100
AcDbLine
 10
-0.747142857142876
 20
-4.402023684038752
 30
0.0
 11
-1.25
 21
-3.899166541181614
 31
0.0
  0
LINE
  5
295
330
27
100
AcDbEntity
  8
0
  6
Continuous
 62
     7
100
AcDbLine
 10
2.000595112610199
 20
-1.800000000000011
 30
0.0
 11
2.000595112610199
 21
-2.602023684038755
 31
0.0
  0
LINE
  5
296
330
27
100
AcDbEntity
  8
0
  6
Continuous
 62
     7
100
AcDbLine
 10
-1.9994048873898
 20
-1.800000000000011
 30
0.0
 11
-1.9994048873898
 21
-2.602023684038755
 31
0.0
  0
LINE
  5
297
330
27
100
AcDbEntity
  8
0
  6
Continuous
 62
     7
100
AcDbLine
 10
-0.747142857142876
 20
-4.402023684038752
 30
0.0
 11
0.747142857142876
 21
-4.402023684038752
 31
0.0
  0
LINE
  5
298
330
27
100
AcDbEntity
  8
0
  6
Continuous
 62
     7
100
AcDbLine
 10
-2.050000000000011
 20
-2.550595112610181
 30
0.0
 11
-2.050000000000011
 21
-1.102023684038755
 31
0.0
  0
LINE
  5
299
330
27
100
AcDbEntity
  8
0
  6
Continuous
 62
     7
100
AcDbLine
 10
2.049999999999954
 20
-2.641112856946989
 30
0.0
 11
2.049999999999954
 21
-1.100000008256415
 31
0.0
  0
ARC
  5
29A
330
27
100
AcDbEntity
  8
0
  6
Continuous
 62
     7
100
AcDbCircle
 10
0.0
 20
-2.550000000000011
 30
0.0
 40
2.049999999999999
100
AcDbArc
 50
180.0
 51
0.0
  0
LINE
  5
29B
330
27
100
AcDbEntity
  8
0
  6
Continuous
 62
     7
100
AcDbLine
 10
-2.050000000000011
 20
1.497976228169022
 30
0.0
 11
-2.050000000000011
 21
5.897976229666184
 31
0.0
  0
LINE
  5
29C
330
27
100
AcDbEntity
  8
0
  6
Continuous
 62
     7
100
AcDbLine
 10
2.049999999999954
 20
1.497976232092085
 30
0.0
 11
2.049999999999954
 21
5.897976229666184
 31
0.0
  0
LINE
  5
29D
330
27
100
AcDbEntity
  8
0
  6
Continuous
 62
     7
100
AcDbLine
 10
1.5
 20
0.9479762320920883
 30
0.0
 11
2.050000001444459
 21
1.497976233536533
 31
0.0
  0
LINE
  5
29E
330
27
100
AcDbEntity
  8
0
  6
Continuous
 62
     7
100
AcDbLine
 10
-2.050000005367508
 20
1.497976233536533
 30
0.0
 11
-1.5
 21
0.9479762281690256
 31
0.0
  0
LINE
  5
29F
330
27
100
AcDbEntity
  8
0
  6
Continuous
 62
     7
100
AcDbLine
 10
-1.5
 20
-0.5511933238986302
 30
0.0
 11
-1.5
 21
0.9479762301305639
 31
0.0
  0
LINE
  5
2A0
330
27
100
AcDbEntity
  8
0
  6
Continuous
 62
     7
100
AcDbLine
 10
1.5
 20
-0.5500000048504319
 30
0.0
 11
1.5
 21
0.9479762301305639
 31
0.0
  0
LINE
  5
2A1
330
27
100
AcDbEntity
  8
0
  6
Continuous
 62
     7
100
AcDbLine
 10
-1.500000001961552
 20
0.0
 30
0.0
 11
1.499999998038447
 21
0.0
 31
0.0
  0
LINE
  5
2A2
330
27
100
AcDbEntity
  8
0
  6
Continuous
 62
     7
100
AcDbLine
 10
-2.050000000000011
 20
-1.800000000000011
 30
0.0
 11
2.049999999999954
 21
-1.800000000000011
 31
0.0
  0
LINE
  5
2A3
330
27
100
AcDbEntity
  8
0
  6
Continuous
 62
     7
100
AcDbLine
 10
-1.9994048873898
 20
-2.600000000000008
 30
0.0
 11
2.000595112610199
 21
-2.600000000000008
 31
0.0
  0
LINE
  5
2A4
330
27
100
AcDbEntity
  8
0
  6
Continuous
 62
     7
100
AcDbLine
 10
-1.300000000000011
 20
5.897976229666184
 30
0.0
 11
-1.300000000000011
 21
8.14451202643292
 31
0.0
  0
LINE
  5
2A5
330
27
100
AcDbEntity
  8
0
  6
Continuous
 62
     7
100
AcDbLine
 10
1.299999999999954
 20
5.897976229666184
 30
0.0
 11
1.299999999999954
 21
9.645666760844008
 31
0.0
  0
LINE
  5
2A6
330
27
100
AcDbEntity
  8
0
  6
Continuous
 62
     2
100
AcDbLine
 10
0.0
 20
-5.546406049129259
 30
0.0
 11
0.0
 21
9.669348017065544
 31
0.0
  0
LINE
  5
2A7
330
27
100
AcDbEntity
  8
0
  6
Continuous
 62
     2
100
AcDbLine
 10
-1.024999999999977
 20
-4.124166541181608
 30
0.0
 11
-1.024999999999977
 21
-2.600000000000008
 31
0.0
  0
LINE
  5
2A8
330
27
100
AcDbEntity
  8
0
  6
Continuous
 62
     2
100
AcDbLine
 10
1.024999999999977
 20
-4.124166541181608
 30
0.0
 11
1.024999999999977
 21
-2.600000000000008
 31
0.0
  0
LINE
  5
2A9
330
27
100
AcDbEntity
  8
0
  6
Continuous
 62
     2
100
AcDbLine
 10
1.024999999999977
 20
-0.0000000014444481
 30
0.0
 11
1.024999999999977
 21
0.5979763159612475
 31
0.0
  0
LINE
  5
2AA
330
27
100
AcDbEntity
  8
0
  6
Continuous
 62
     2
100
AcDbLine
 10
-1.024999999999977
 20
-0.0000000014444481
 30
0.0
 11
-1.024999999999977
 21
0.5979763159612475
 31
0.0
  0
ENDBLK
  5
2AB
330
27
100
AcDbEntity
  8
0
100
AcDbBlockEnd
  0
BLOCK
  5
2AC
330
28
100
AcDbEntity
  8
0
100
AcDbBlockBegin
  2
NHE1D-20-11
 70
     0
 10
0.0
 20
0.0
 30
0.0
  3
NHE1D-20-11
  1

  0
LINE
  5
2AD
330
28
100
AcDbEntity
  8
0
  6
Continuous
 62
     2
100
AcDbLine
 10
0.0
 20
-5.546406049129259
 30
0.0
 11
0.0
 21
9.669348017065544
 31
0.0
  0
LINE
  5
2AE
330
28
100
AcDbEntity
  8
0
  6
Continuous
 62
     7
100
AcDbLine
 10
-1.299999999999954
 20
5.897976229666184
 30
0.0
 11
-1.299999999999954
 21
9.645666760844008
 31
0.0
  0
LINE
  5
2AF
330
28
100
AcDbEntity
  8
0
  6
Continuous
 62
     7
100
AcDbLine
 10
1.300000000000011
 20
5.897976229666184
 30
0.0
 11
1.300000000000011
 21
8.14451202643292
 31
0.0
  0
LINE
  5
2B0
330
28
100
AcDbEntity
  8
0
  6
Continuous
 62
     7
100
AcDbLine
 10
-1.5
 20
-0.5500000048504319
 30
0.0
 11
-1.5
 21
0.9479762301305639
 31
0.0
  0
LINE
  5
2B1
330
28
100
AcDbEntity
  8
0
  6
Continuous
 62
     7
100
AcDbLine
 10
1.5
 20
-0.5511933238986302
 30
0.0
 11
1.5
 21
0.9479762301305639
 31
0.0
  0
LINE
  5
2B2
330
28
100
AcDbEntity
  8
0
  6
Continuous
 62
     7
100
AcDbLine
 10
2.050000005367508
 20
1.497976233536533
 30
0.0
 11
1.5
 21
0.9479762281690256
 31
0.0
  0
LINE
  5
2B3
330
28
100
AcDbEntity
  8
0
  6
Continuous
 62
     7
100
AcDbLine
 10
-1.5
 20
0.9479762320920883
 30
0.0
 11
-2.050000001444459
 21
1.497976233536533
 31
0.0
  0
LINE
  5
2B4
330
28
100
AcDbEntity
  8
0
  6
Continuous
 62
     7
100
AcDbLine
 10
-2.049999999999954
 20
1.497976232092085
 30
0.0
 11
-2.049999999999954
 21
5.897976229666184
 31
0.0
  0
LINE
  5
2B5
330
28
100
AcDbEntity
  8
0
  6
Continuous
 62
     7
100
AcDbLine
 10
2.050000000000011
 20
1.497976228169022
 30
0.0
 11
2.050000000000011
 21
5.897976229666184
 31
0.0
  0
ARC
  5
2B6
330
28
100
AcDbEntity
  8
0
  6
Continuous
 62
     7
100
AcDbCircle
 10
0.0
 20
-2.550000000000011
 30
0.0
 40
2.049999999999999
100
AcDbArc
 50
180.0
 51
0.0
  0
LINE
  5
2B7
330
28
100
AcDbEntity
  8
0
  6
Continuous
 62
     7
100
AcDbLine
 10
-2.049999999999954
 20
-2.641112856946989
 30
0.0
 11
-2.049999999999954
 21
-1.100000008256415
 31
0.0
  0
LINE
  5
2B8
330
28
100
AcDbEntity
  8
0
  6
Continuous
 62
     7
100
AcDbLine
 10
2.050000000000011
 20
-2.550595112610181
 30
0.0
 11
2.050000000000011
 21
-1.102023684038755
 31
0.0
  0
LINE
  5
2B9
330
28
100
AcDbEntity
  8
0
  6
Continuous
 62
     7
100
AcDbLine
 10
-2.049999999999954
 20
-1.100000000000008
 30
0.0
 11
-1.5
 21
-0.5500000000000114
 31
0.0
  0
LINE
  5
2BA
330
28
100
AcDbEntity
  8
0
  6
Continuous
 62
     7
100
AcDbLine
 10
2.04797631596125
 20
-1.102023684038755
 30
0.0
 11
1.5
 21
-0.5511933247651939
 31
0.0
  0
LINE
  5
2BB
330
28
100
AcDbEntity
  8
0
  6
Continuous
 62
     7
100
AcDbLine
 10
2.050000000000011
 20
3.897976229666184
 30
0.0
 11
-2.049999999999954
 21
3.897976229666184
 31
0.0
  0
LINE
  5
2BC
330
28
100
AcDbEntity
  8
0
  6
Continuous
 62
     7
100
AcDbLine
 10
2.050000000000011
 20
5.897976229666184
 30
0.0
 11
-2.049999999999954
 21
5.897976229666184
 31
0.0
  0
LINE
  5
2BD
330
28
100
AcDbEntity
  8
0
  6
Continuous
 62
     2
100
AcDbLine
 10
2.159999999999968
 20
7.647976229666183
 30
0.0
 11
-2.169999999999959
 21
10.14797622966618
 31
0.0
  0
ENDBLK
  5
2BE
330
28
100
AcDbEntity
  8
0
100
AcDbBlockEnd
  0
BLOCK
  5
2BF
330
29
100
AcDbEntity
  8
0
100
AcDbBlockBegin
  2
NHE1D-20-12
 70
     0
 10
0.0
 20
0.0
 30
0.0
  3
NHE1D-20-12
  1

  0
CIRCLE
  5
2C0
330
29
100
AcDbEntity
  8
0
  6
Continuous
 62
     7
100
AcDbCircle
 10
12.5
 20
0.0
 30
0.0
 40
1.3
  0
ARC
  5
2C1
330
29
100
AcDbEntity
  8
0
  6
Continuous
 62
     7
100
AcDbCircle
 10
12.5
 20
0.0
 30
0.0
 40
2.1
100
AcDbArc
 50
282.3469323674128
 51
77.29365816157045
  0
ARC
  5
2C2
330
29
100
AcDbEntity
  8
0
  6
Continuous
 62
     7
100
AcDbCircle
 10
12.5
 20
0.0
 30
0.0
 40
2.1
100
AcDbArc
 50
102.7063418384295
 51
257.6530676325872
  0
LINE
  5
2C3
330
29
100
AcDbEntity
  8
0
  6
Continuous
 62
     2
100
AcDbLine
 10
-1.324720577365496
 20
0.0
 30
0.0
 11
16.23761911485025
 21
0.0
 31
0.0
  0
LINE
  5
2C4
330
29
100
AcDbEntity
  8
0
  6
Continuous
 62
     7
100
AcDbLine
 10
0.0
 20
1.5
 30
0.0
 11
11.0303061543301
 21
1.5
 31
0.0
  0
LINE
  5
2C5
330
29
100
AcDbEntity
  8
0
  6
Continuous
 62
     7
100
AcDbLine
 10
0.0
 20
2.049999999999996
 30
0.0
 11
0.0
 21
-2.049999999999996
 31
0.0
  0
LINE
  5
2C6
330
29
100
AcDbEntity
  8
0
  6
Continuous
 62
     7
100
AcDbLine
 10
15.0
 20
2.049999999999996
 30
0.0
 11
15.0
 21
-2.049999999999996
 31
0.0
  0
LINE
  5
2C7
330
29
100
AcDbEntity
  8
0
  6
Continuous
 62
     2
100
AcDbLine
 10
2.0
 20
2.834285714285712
 30
0.0
 11
2.0
 21
-3.351413244852025
 31
0.0
  0
LINE
  5
2C8
330
29
100
AcDbEntity
  8
0
  6
Continuous
 62
     7
100
AcDbLine
 10
0.9571428571428556
 20
-0.7142857142857082
 30
0.0
 11
2.688571428571436
 21
1.019999999999996
 31
0.0
  0
LINE
  5
2C9
330
29
100
AcDbEntity
  8
0
  6
Continuous
 62
     7
100
AcDbLine
 10
1.30857142857144
 20
-1.068571428571416
 30
0.0
 11
3.051993036971509
 21
0.6748501798286242
 31
0.0
  0
LINE
  5
2CA
330
29
100
AcDbEntity
  8
0
  6
Continuous
 62
     7
100
AcDbLine
 10
3.900000000000033
 20
-1.502857150350294
 30
0.0
 11
3.900000000000033
 21
1.500000006811958
 31
0.0
  0
LINE
  5
2CB
330
29
100
AcDbEntity
  8
0
  6
Continuous
 62
     7
100
AcDbLine
 10
10.40000000000003
 20
-1.502857150350294
 30
0.0
 11
10.40000000000003
 21
1.500000006811958
 31
0.0
  0
LINE
  5
2CC
330
29
100
AcDbEntity
  8
0
  6
Continuous
 62
     7
100
AcDbLine
 10
8.0
 20
-0.7000000068119477
 30
0.0
 11
8.0
 21
0.9000000000000056
 31
0.0
  0
LINE
  5
2CD
330
29
100
AcDbEntity
  8
0
  6
Continuous
 62
     7
100
AcDbLine
 10
9.600000000000022
 20
-0.7000000068119477
 30
0.0
 11
9.600000000000022
 21
0.9000000000000056
 31
0.0
  0
LINE
  5
2CE
330
29
100
AcDbEntity
  8
0
  6
Continuous
 62
     7
100
AcDbLine
 10
8.0
 20
0.9000000000000056
 30
0.0
 11
9.600000000000022
 21
0.9000000000000056
 31
0.0
  0
LINE
  5
2CF
330
29
100
AcDbEntity
  8
0
  6
Continuous
 62
     7
100
AcDbLine
 10
8.0
 20
-0.7000000000000029
 30
0.0
 11
9.600000000000022
 21
-0.7000000000000029
 31
0.0
  0
LINE
  5
2D0
330
29
100
AcDbEntity
  8
0
  6
Continuous
 62
     7
100
AcDbLine
 10
0.0
 20
2.049999999999996
 30
0.0
 11
15.0
 21
2.049999999999996
 31
0.0
  0
LINE
  5
2D1
330
29
100
AcDbEntity
  8
0
  6
Continuous
 62
     7
100
AcDbLine
 10
0.0
 20
-2.049999999999996
 30
0.0
 11
15.0
 21
-2.049999999999996
 31
0.0
  0
LINE
  5
2D2
330
29
100
AcDbEntity
  8
0
  6
Continuous
 62
     7
100
AcDbLine
 10
0.0
 20
-1.5
 30
0.0
 11
11.0303061543301
 21
-1.5
 31
0.0
  0
CIRCLE
  5
2D3
330
29
100
AcDbEntity
  8
0
  6
Continuous
 62
     7
100
AcDbCircle
 10
2.0
 20
0.0
 30
0.0
 40
1.399999999999999
  0
CIRCLE
  5
2D4
330
29
100
AcDbEntity
  8
0
  6
Continuous
 62
     2
100
AcDbCircle
 10
2.0
 20
0.0
 30
0.0
 40
1.05
  0
CIRCLE
  5
2D5
330
29
100
AcDbEntity
  8
0
  6
Continuous
 62
     7
100
AcDbCircle
 10
2.0
 20
0.0
 30
0.0
 40
1.25
  0
CIRCLE
  5
2D6
330
29
100
AcDbEntity
  8
0
  6
Continuous
 62
     7
100
AcDbCircle
 10
13.15000000272476
 20
0.0
 30
0.0
 40
0.5
  0
CIRCLE
  5
2D7
330
29
100
AcDbEntity
  8
0
  6
Continuous
 62
     7
100
AcDbCircle
 10
11.84999999727523
 20
0.0
 30
0.0
 40
0.5
  0
CIRCLE
  5
2D8
330
29
100
AcDbEntity
  8
0
  6
Continuous
 62
     7
100
AcDbCircle
 10
13.15000000272476
 20
0.0
 30
0.0
 40
0.29
  0
CIRCLE
  5
2D9
330
29
100
AcDbEntity
  8
0
  6
Continuous
 62
     7
100
AcDbCircle
 10
11.84999999727523
 20
0.0
 30
0.0
 40
0.29
  0
ENDBLK
  5
2DA
330
29
100
AcDbEntity
  8
0
100
AcDbBlockEnd
  0
BLOCK
  5
2B
330
2A
100
AcDbEntity
  8
0
 62
     0
100
AcDbBlockBegin
  2
_OPEN30
 70
     2
 10
0.0
 20
0.0
 30
0.0
  3
_OPEN30
  1

  0
LINE
  5
2C
330
2A
100
AcDbEntity
  8
0
  6
ByBlock
 62
     0
100
AcDbLine
 10
-1.0
 20
0.267949
 30
0.0
 11
0.0
 21
0.0
 31
0.0
  0
LINE
  5
2D
330
2A
100
AcDbEntity
  8
0
  6
ByBlock
 62
     0
100
AcDbLine
 10
0.0
 20
0.0
 30
0.0
 11
-1.0
 21
-0.267949
 31
0.0
  0
LINE
  5
2E
330
2A
100
AcDbEntity
  8
0
  6
ByBlock
 62
     0
100
AcDbLine
 10
0.0
 20
0.0
 30
0.0
 11
-1.0
 21
0.0
 31
0.0
  0
ENDBLK
  5
2F
330
2A
100
AcDbEntity
  8
0
 62
     0
100
AcDbBlockEnd
  0
ENDSEC
  0
SECTION
  2
ENTITIES
  0
INSERT
  5
2E3
330
A
100
AcDbEntity
  8
0
  6
ByBlock
100
AcDbBlockReference
  2
NHE1D-20-4
 10
-30.0
 20
90.0
 30
0.0
  0
INSERT
  5
2E4
330
A
100
AcDbEntity
  8
0
  6
ByBlock
100
AcDbBlockReference
  2
NHE1D-20-3
 10
110.0000029746968
 20
-0.0000051523258939
 30
0.0
  0
INSERT
  5
2E5
330
A
100
AcDbEntity
  8
0
  6
ByBlock
100
AcDbBlockReference
  2
NHE1D-20-2
 10
-110.3947918881025
 20
0.0000031530350562
 30
0.0
  0
INSERT
  5
2E6
330
A
100
AcDbEntity
  8
0
  6
ByBlock
100
AcDbBlockReference
  2
NHE1D-20-1
 10
-30.0
 20
0.0
 30
0.0
  0
MTEXT
  5
2E7
330
A
100
AcDbEntity
  8
0
  6
Continuous
 62
   255
100
AcDbMText
 10
-191.4334593338748
 20
128.8500061035156
 30
0.0
 40
4.5
 41
0.0
 71
     4
 72
     5
  1
\W1.089;\A1;3 FINGERS GRIPPERS
 73
     1
 44
1.0
1001
ACAD
1000
MTEXTBEGIN
1070
    73
1070
     1
1070
    44
1040
1.0
1070
    74
1070
     0
1000
MTEXTEND
  0
MTEXT
  5
2E8
330
A
100
AcDbEntity
  8
0
  6
Continuous
 62
   255
100
AcDbMText
 10
-168.9499963548448
 20
121.3500061035156
 30
0.0
 40
4.5
 41
0.0
 71
     4
 72
     5
  1
\W1.067;\A1;NHE1D-20
 73
     1
 44
1.0
1001
ACAD
1000
MTEXTBEGIN
1070
    73
1070
     1
1070
    44
1040
1.0
1070
    74
1070
     0
1000
MTEXTEND
  0
MTEXT
  5
2EF
330
A
100
AcDbEntity
  8
0
  6
Continuous
 62
     7
100
AcDbMText
 10
-185.6818181824515
 20
107.6000061035156
 30
0.0
 40
4.5
 41
0.0
 71
     4
 72
     5
  1
\W1.091;\A1;MODEL:NHE1D-20
 73
     1
 44
1.0
1001
ACAD
1000
MTEXTBEGIN
1070
    73
1070
     1
1070
    44
1040
1.0
1070
    74
1070
     0
1000
MTEXTEND
  0
LINE
  5
2F0
330
A
100
AcDbEntity
  8
0
  6
Continuous
 62
     7
100
AcDbLine
 10
-194.25
 20
132.6000061035156
 30
0.0
 11
194.8000030517578
 21
132.6000061035156
 31
0.0
  0
LINE
  5
2F1
330
A
100
AcDbEntity
  8
0
  6
Continuous
 62
     7
100
AcDbLine
 10
194.8000030517578
 20
132.6000061035156
 30
0.0
 11
194.8000030517578
 21
-133.5
 31
0.0
  0
LINE
  5
2F2
330
A
100
AcDbEntity
  8
0
  6
Continuous
 62
     7
100
AcDbLine
 10
-194.25
 20
132.6000061035156
 30
0.0
 11
-194.25
 21
-133.5
 31
0.0
  0
LINE
  5
2F3
330
A
100
AcDbEntity
  8
0
  6
Continuous
 62
     7
100
AcDbLine
 10
-194.25
 20
-133.5
 30
0.0
 11
194.8000030517578
 21
-133.5
 31
0.0
  0
LINE
  5
2F4
330
A
100
AcDbEntity
  8
0
  6
Continuous
 62
     7
100
AcDbLine
 10
109.8000030517578
 20
-118.5
 30
0.0
 11
109.8000030517578
 21
-133.5
 31
0.0
  0
LINE
  5
2F5
330
A
100
AcDbEntity
  8
0
  6
Continuous
 62
     7
100
AcDbLine
 10
109.8000030517578
 20
-118.5
 30
0.0
 11
194.8000030517578
 21
-118.5
 31
0.0
  0
LINE
  5
2F6
330
A
100
AcDbEntity
  8
0
  6
Continuous
 62
     7
100
AcDbLine
 10
109.8000030517578
 20
132.6000061035156
 30
0.0
 11
109.8000030517578
 21
117.6000061035156
 31
0.0
  0
LINE
  5
2F7
330
A
100
AcDbEntity
  8
0
  6
Continuous
 62
     7
100
AcDbLine
 10
109.8000030517578
 20
117.6000061035156
 30
0.0
 11
194.8000030517578
 21
117.6000061035156
 31
0.0
  0
LINE
  5
2F8
330
A
100
AcDbEntity
  8
0
  6
Continuous
 62
     7
100
AcDbLine
 10
-194.25
 20
117.6000061035156
 30
0.0
 11
-109.25
 21
117.6000061035156
 31
0.0
  0
LINE
  5
2F9
330
A
100
AcDbEntity
  8
0
  6
Continuous
 62
     7
100
AcDbLine
 10
-109.25
 20
132.6000061035156
 30
0.0
 11
-109.25
 21
117.6000061035156
 31
0.0
  0
MTEXT
  5
2FA
330
A
100
AcDbEntity
  8
0
  6
Continuous
 62
     7
100
AcDbMText
 10
135.2836132057677
 20
125.1000061035156
 30
0.0
 40
4.5
 41
0.0
 71
     4
 72
     5
  1
\W1.311;\A1;Ver. 1.0
 73
     1
 44
1.0
1001
ACAD
1000
MTEXTBEGIN
1070
    73
1070
     1
1070
    44
1040
1.0
1070
    74
1070
     0
1000
MTEXTEND
  0
MTEXT
  5
2FB
330
A
100
AcDbEntity
  8
0
  6
Continuous
 62
     7
100
AcDbMText
 10
115.5267199617605
 20
-126.0
 30
0.0
 40
6.300000190734863
 41
0.0
 71
     4
 72
     5
  1
\W1.121;\A1;KOGANEI CORP.
 73
     1
 44
1.0
1001
ACAD
1000
MTEXTBEGIN
1070
    73
1070
     1
1070
    44
1040
1.0
1070
    74
1070
     0
1000
MTEXTEND
  0
ENDSEC
  0
SECTION
  2
OBJECTS
  0
DICTIONARY
  5
19
330
0
100
AcDbDictionary
281
     1
  3
ACAD_COLOR
350
304
  3
ACAD_GROUP
350
1A
  3
ACAD_LAYOUT
350
307
  3
ACAD_MATERIAL
350
303
  3
ACAD_MLINESTYLE
350
1B
  3
ACAD_PLOTSETTINGS
350
308
  3
ACAD_PLOTSTYLENAME
350
301
  3
ACAD_TABLESTYLE
350
305
  3
ACDBHEADERROUNDTRIPXREC
350
313
  3
AcDbVariableDictionary
350
30E
  0
DICTIONARY
  5
304
102
{ACAD_REACTORS
330
19
102
}
330
19
100
AcDbDictionary
281
     1
  0
DICTIONARY
  5
1A
102
{ACAD_REACTORS
330
19
102
}
330
19
100
AcDbDictionary
281
     1
  0
DICTIONARY
  5
307
102
{ACAD_REACTORS
330
19
102
}
330
19
100
AcDbDictionary
281
     1
  3
Model
350
309
  3
レイアウト1
350
30A
  0
DICTIONARY
  5
303
102
{ACAD_REACTORS
330
19
102
}
330
19
100
AcDbDictionary
281
     1
  0
DICTIONARY
  5
1B
102
{ACAD_REACTORS
330
19
102
}
330
19
100
AcDbDictionary
281
     1
  3
STANDARD
350
1C
  0
DICTIONARY
  5
308
102
{ACAD_REACTORS
330
19
102
}
330
19
100
AcDbDictionary
281
     1
  0
ACDBDICTIONARYWDFLT
  5
301
102
{ACAD_REACTORS
330
19
102
}
330
19
100
AcDbDictionary
281
     1
  3
Normal
350
302
100
AcDbDictionaryWithDefault
340
302
  0
DICTIONARY
  5
305
102
{ACAD_REACTORS
330
19
102
}
330
19
100
AcDbDictionary
281
     1
  3
Standard
350
306
  0
DICTIONARY
  5
313
102
{ACAD_REACTORS
330
19
102
}
330
19
100
AcDbDictionary
281
     1
  0
DICTIONARY
  5
30E
102
{ACAD_REACTORS
330
19
102
}
330
19
100
AcDbDictionary
281
     1
  3
CTABLESTYLE
350
30F
  3
DIMASSOC
350
310
  3
PROJECTNAME
350
311
  0
LAYOUT
  5
309
102
{ACAD_XDICTIONARY
360
314
102
}
102
{ACAD_REACTORS
330
307
102
}
330
307
100
AcDbPlotSettings
  1

  2
DocuCentre 559
  4

  6

 40
0.0
 41
0.0
 42
0.0
 43
0.0
 44
0.0
 45
0.0
 46
0.0
 47
0.0
 48
0.0
 49
0.0
140
0.0
141
0.0
142
1.0
143
1.0
 70
  1712
 72
     0
 73
     0
 74
     0
  7

 75
     0
147
1.0
148
0.0
149
0.0
100
AcDbLayout
  1
Model
 70
     1
 71
     0
 10
0.0
 20
0.0
 11
12.0
 21
9.0
 12
0.0
 22
0.0
 32
0.0
 14
0.0
 24
0.0
 34
0.0
 15
0.0
 25
0.0
 35
0.0
146
0.0
 13
0.0
 23
0.0
 33
0.0
 16
1.0
 26
0.0
 36
0.0
 17
0.0
 27
1.0
 37
0.0
 76
     0
330
A
  0
LAYOUT
  5
30A
102
{ACAD_XDICTIONARY
360
316
102
}
102
{ACAD_REACTORS
330
307
102
}
330
307
100
AcDbPlotSettings
  1

  2
DocuCentre 559
  4

  6

 40
0.0
 41
0.0
 42
0.0
 43
0.0
 44
0.0
 45
0.0
 46
0.0
 47
0.0
 48
0.0
 49
0.0
140
0.0
141
0.0
142
1.0
143
1.0
 70
   688
 72
     0
 73
     0
 74
     5
  7

 75
    16
147
1.0
148
0.0
149
0.0
100
AcDbLayout
  1
レイアウト1
 70
     0
 71
     1
 10
0.0
 20
0.0
 11
12.0
 21
9.0
 12
0.0
 22
0.0
 32
0.0
 14
1.000000000000000E+20
 24
1.000000000000000E+20
 34
1.000000000000000E+20
 15
-1.000000000000000E+20
 25
-1.000000000000000E+20
 35
-1.000000000000000E+20
146
0.0
 13
0.0
 23
0.0
 33
0.0
 16
1.0
 26
0.0
 36
0.0
 17
0.0
 27
1.0
 37
0.0
 76
     0
330
B
  0
MLINESTYLE
  5
1C
102
{ACAD_REACTORS
330
1B
102
}
330
1B
100
AcDbMlineStyle
  2
STANDARD
 70
     0
  3

 62
     0
 51
90.0
 52
90.0
 71
     2
 49
0.5
 62
   256
  6
BYLAYER
 49
-0.5
 62
   256
  6
BYLAYER
  0
ACDBPLACEHOLDER
  5
302
102
{ACAD_REACTORS
330
301
102
}
330
301
  0
TABLESTYLE
  5
306
102
{ACAD_REACTORS
330
305
102
}
330
305
100
AcDbTableStyle
  3
Standard
 70
     0
 71
     0
 40
0.06
 41
0.06
280
     0
281
     0
  7
MX_NOTE_STANDARD
140
0.18
170
     2
 62
     0
 63
     7
283
     0
274
    -2
284
     1
 64
     0
275
    -2
285
     1
 65
     0
276
    -2
286
     1
 66
     0
277
    -2
287
     1
 67
     0
278
    -2
288
     1
 68
     0
279
    -2
289
     1
 69
     0
  7
MX_NOTE_STANDARD
140
0.25
170
     5
 62
     0
 63
     7
283
     0
274
    -2
284
     1
 64
     0
275
    -2
285
     1
 65
     0
276
    -2
286
     1
 66
     0
277
    -2
287
     1
 67
     0
278
    -2
288
     1
 68
     0
279
    -2
289
     1
 69
     0
  7
MX_NOTE_STANDARD
140
0.18
170
     5
 62
     0
 63
     7
283
     0
274
    -2
284
     1
 64
     0
275
    -2
285
     1
 65
     0
276
    -2
286
     1
 66
     0
277
    -2
287
     1
 67
     0
278
    -2
288
     1
 68
     0
279
    -2
289
     1
 69
     0
  0
DICTIONARYVAR
  5
30F
102
{ACAD_REACTORS
330
30E
102
}
330
30E
100
DictionaryVariables
280
     0
  1
STANDARD
  0
DICTIONARYVAR
  5
310
102
{ACAD_REACTORS
330
30E
102
}
330
30E
100
DictionaryVariables
280
     0
  1
1
  0
DICTIONARYVAR
  5
311
102
{ACAD_REACTORS
330
30E
102
}
330
30E
100
DictionaryVariables
280
     0
  1

  0
DICTIONARY
  5
314
330
309
100
AcDbDictionary
280
     1
281
     1
  3
ACAD_XREC_ROUNDTRIP
360
315
  0
DICTIONARY
  5
316
330
30A
100
AcDbDictionary
280
     1
281
     1
  3
ACAD_XREC_ROUNDTRIP
360
317
  0
XRECORD
  5
315
102
{ACAD_REACTORS
330
314
102
}
330
314
100
AcDbXrecord
280
     1
102
SHADEPLOT
 70
     0
102
SHADEPLOTRESLEVEL
 70
     2
102
SHADEPLOTCUSTOMDPI
 70
   300
  0
XRECORD
  5
317
102
{ACAD_REACTORS
330
316
102
}
330
316
100
AcDbXrecord
280
     1
102
SHADEPLOT
 70
     0
102
SHADEPLOTRESLEVEL
 70
     2
102
SHADEPLOTCUSTOMDPI
 70
   300
  0
ENDSEC
  0
EOF
