  0
SECTION
  2
HEADER
  9
$ACADVER
  1
AC1015
  9
$ACADMAINTVER
 70
    20
  9
$DWGCODEPAGE
  3
ANSI_932
  9
$INSBASE
 10
0.0
 20
0.0
 30
0.0
  9
$EXTMIN
 10
-194.25
 20
-133.5
 30
0.0
  9
$EXTMAX
 10
195.0953023707292
 20
132.6000061035156
 30
0.0
  9
$LIMMIN
 10
-210.0
 20
-148.5
  9
$LIMMAX
 10
210.0
 20
148.5
  9
$ORTHOMODE
 70
     0
  9
$REGENMODE
 70
     1
  9
$FILLMODE
 70
     1
  9
$QTEXTMODE
 70
     0
  9
$MIRRTEXT
 70
     1
  9
$LTSCALE
 40
1.0
  9
$ATTMODE
 70
     1
  9
$TEXTSIZE
 40
3.200000047683715
  9
$TRACEWID
 40
0.05
  9
$TEXTSTYLE
  7
MX_NOTE_STANDARD
  9
$CLAYER
  8
0
  9
$CELTYPE
  6
CONTINUOUS
  9
$CECOLOR
 62
   256
  9
$CELTSCALE
 40
1.0
  9
$DISPSILH
 70
     0
  9
$DIMSCALE
 40
1.0
  9
$DIMASZ
 40
2.5
  9
$DIMEXO
 40
1.5
  9
$DIMDLI
 40
3.75
  9
$DIMRND
 40
0.0
  9
$DIMDLE
 40
0.0
  9
$DIMEXE
 40
1.5
  9
$DIMTP
 40
0.0
  9
$DIMTM
 40
0.0
  9
$DIMTXT
 40
3.200000047683715
  9
$DIMCEN
 40
2.5
  9
$DIMTSZ
 40
0.0
  9
$DIMTOL
 70
     0
  9
$DIMLIM
 70
     0
  9
$DIMTIH
 70
     0
  9
$DIMTOH
 70
     0
  9
$DIMSE1
 70
     0
  9
$DIMSE2
 70
     0
  9
$DIMTAD
 70
     1
  9
$DIMZIN
 70
     8
  9
$DIMBLK
  1

  9
$DIMASO
 70
     1
  9
$DIMSHO
 70
     1
  9
$DIMPOST
  1

  9
$DIMAPOST
  1

  9
$DIMALT
 70
     0
  9
$DIMALTD
 70
     4
  9
$DIMALTF
 40
0.03937007874016
  9
$DIMLFAC
 40
1.0
  9
$DIMTOFL
 70
     1
  9
$DIMTVP
 40
0.0
  9
$DIMTIX
 70
     0
  9
$DIMSOXD
 70
     0
  9
$DIMSAH
 70
     1
  9
$DIMBLK1
  1
OPEN30
  9
$DIMBLK2
  1
OPEN30
  9
$DIMSTYLE
  2
MXDIMSTYLE
  9
$DIMCLRD
 70
     0
  9
$DIMCLRE
 70
     0
  9
$DIMCLRT
 70
     0
  9
$DIMTFAC
 40
1.0
  9
$DIMGAP
 40
1.0
  9
$DIMJUST
 70
     0
  9
$DIMSD1
 70
     0
  9
$DIMSD2
 70
     0
  9
$DIMTOLJ
 70
     0
  9
$DIMTZIN
 70
     0
  9
$DIMALTZ
 70
     0
  9
$DIMALTTZ
 70
     0
  9
$DIMUPT
 70
     1
  9
$DIMDEC
 70
     2
  9
$DIMTDEC
 70
     2
  9
$DIMALTU
 70
     2
  9
$DIMALTTD
 70
     4
  9
$DIMTXSTY
  7
MX_NOTE_STANDARD
  9
$DIMAUNIT
 70
     0
  9
$DIMADEC
 70
     0
  9
$DIMALTRND
 40
0.0
  9
$DIMAZIN
 70
     0
  9
$DIMDSEP
 70
    46
  9
$DIMATFIT
 70
     3
  9
$DIMFRAC
 70
     0
  9
$DIMLDRBLK
  1
OPEN30
  9
$DIMLUNIT
 70
     2
  9
$DIMLWD
 70
    -2
  9
$DIMLWE
 70
    -2
  9
$DIMTMOVE
 70
     0
  9
$LUNITS
 70
     2
  9
$LUPREC
 70
     4
  9
$SKETCHINC
 40
0.1
  9
$FILLETRAD
 40
0.0
  9
$AUNITS
 70
     0
  9
$AUPREC
 70
     0
  9
$MENU
  1
acad
  9
$ELEVATION
 40
0.0
  9
$PELEVATION
 40
0.0
  9
$THICKNESS
 40
0.0
  9
$LIMCHECK
 70
     0
  9
$CHAMFERA
 40
0.0
  9
$CHAMFERB
 40
0.0
  9
$CHAMFERC
 40
0.0
  9
$CHAMFERD
 40
0.0
  9
$SKPOLY
 70
     0
  9
$TDCREATE
 40
2453882.358090278
  9
$TDUCREATE
 40
2453881.983090278
  9
$TDUPDATE
 40
2453885.459645776
  9
$TDUUPDATE
 40
2453885.084645776
  9
$TDINDWG
 40
0.0011756481
  9
$TDUSRTIMER
 40
0.0011753009
  9
$USRTIMER
 70
     1
  9
$ANGBASE
 50
0.0
  9
$ANGDIR
 70
     0
  9
$PDMODE
 70
     0
  9
$PDSIZE
 40
0.0
  9
$PLINEWID
 40
0.0
  9
$SPLFRAME
 70
     0
  9
$SPLINETYPE
 70
     6
  9
$SPLINESEGS
 70
     8
  9
$HANDSEED
  5
314
  9
$SURFTAB1
 70
     6
  9
$SURFTAB2
 70
     6
  9
$SURFTYPE
 70
     6
  9
$SURFU
 70
     6
  9
$SURFV
 70
     6
  9
$UCSBASE
  2

  9
$UCSNAME
  2

  9
$UCSORG
 10
0.0
 20
0.0
 30
0.0
  9
$UCSXDIR
 10
1.0
 20
0.0
 30
0.0
  9
$UCSYDIR
 10
0.0
 20
1.0
 30
0.0
  9
$UCSORTHOREF
  2

  9
$UCSORTHOVIEW
 70
     0
  9
$UCSORGTOP
 10
0.0
 20
0.0
 30
0.0
  9
$UCSORGBOTTOM
 10
0.0
 20
0.0
 30
0.0
  9
$UCSORGLEFT
 10
0.0
 20
0.0
 30
0.0
  9
$UCSORGRIGHT
 10
0.0
 20
0.0
 30
0.0
  9
$UCSORGFRONT
 10
0.0
 20
0.0
 30
0.0
  9
$UCSORGBACK
 10
0.0
 20
0.0
 30
0.0
  9
$PUCSBASE
  2

  9
$PUCSNAME
  2

  9
$PUCSORG
 10
0.0
 20
0.0
 30
0.0
  9
$PUCSXDIR
 10
1.0
 20
0.0
 30
0.0
  9
$PUCSYDIR
 10
0.0
 20
1.0
 30
0.0
  9
$PUCSORTHOREF
  2

  9
$PUCSORTHOVIEW
 70
     0
  9
$PUCSORGTOP
 10
0.0
 20
0.0
 30
0.0
  9
$PUCSORGBOTTOM
 10
0.0
 20
0.0
 30
0.0
  9
$PUCSORGLEFT
 10
0.0
 20
0.0
 30
0.0
  9
$PUCSORGRIGHT
 10
0.0
 20
0.0
 30
0.0
  9
$PUCSORGFRONT
 10
0.0
 20
0.0
 30
0.0
  9
$PUCSORGBACK
 10
0.0
 20
0.0
 30
0.0
  9
$USERI1
 70
     0
  9
$USERI2
 70
     0
  9
$USERI3
 70
     0
  9
$USERI4
 70
     0
  9
$USERI5
 70
     0
  9
$USERR1
 40
0.0
  9
$USERR2
 40
0.0
  9
$USERR3
 40
0.0
  9
$USERR4
 40
0.0
  9
$USERR5
 40
0.0
  9
$WORLDVIEW
 70
     1
  9
$SHADEDGE
 70
     3
  9
$SHADEDIF
 70
    70
  9
$TILEMODE
 70
     1
  9
$MAXACTVP
 70
    16
  9
$PINSBASE
 10
0.0
 20
0.0
 30
0.0
  9
$PLIMCHECK
 70
     0
  9
$PEXTMIN
 10
1.000000000000000E+20
 20
1.000000000000000E+20
 30
1.000000000000000E+20
  9
$PEXTMAX
 10
-1.000000000000000E+20
 20
-1.000000000000000E+20
 30
-1.000000000000000E+20
  9
$PLIMMIN
 10
0.0
 20
0.0
  9
$PLIMMAX
 10
12.0
 20
9.0
  9
$UNITMODE
 70
     0
  9
$VISRETAIN
 70
     0
  9
$PLINEGEN
 70
     1
  9
$PSLTSCALE
 70
     0
  9
$TREEDEPTH
 70
  3020
  9
$CMLSTYLE
  2
STANDARD
  9
$CMLJUST
 70
     0
  9
$CMLSCALE
 40
1.0
  9
$PROXYGRAPHICS
 70
     1
  9
$MEASUREMENT
 70
     0
  9
$CELWEIGHT
370
    -1
  9
$ENDCAPS
280
     0
  9
$JOINSTYLE
280
     0
  9
$LWDISPLAY
290
     0
  9
$INSUNITS
 70
     0
  9
$HYPERLINKBASE
  1

  9
$STYLESHEET
  1

  9
$XEDIT
290
     1
  9
$CEPSNTYPE
380
     0
  9
$PSTYLEMODE
290
     1
  9
$FINGERPRINTGUID
  2
{6C6AF9D0-EB5E-444A-8F33-CDC46B1A2F4D}
  9
$VERSIONGUID
  2
{B6DA9E54-B293-4588-AB4E-F78480B54FD5}
  9
$EXTNAMES
290
     1
  9
$PSVPSCALE
 40
0.0
  9
$OLESTARTUP
290
     0
  0
ENDSEC
  0
SECTION
  2
CLASSES
  0
CLASS
  1
IMAGE
  2
AcDbRasterImage
  3
ISM
 90
    32895
280
     0
281
     1
  0
CLASS
  1
DICTIONARYVAR
  2
AcDbDictionaryVar
  3
ObjectDBX Classes
 90
        0
280
     0
281
     0
  0
CLASS
  1
RASTERVARIABLES
  2
AcDbRasterVariables
  3
ISM
 90
    32768
280
     0
281
     0
  0
CLASS
  1
IMAGEDEF
  2
AcDbRasterImageDef
  3
ISM
 90
    32768
280
     0
281
     0
  0
CLASS
  1
IMAGEDEF_REACTOR
  2
AcDbRasterImageDefReactor
  3
ISM
 90
    32769
280
     0
281
     0
  0
CLASS
  1
IDBUFFER
  2
AcDbIdBuffer
  3
ObjectDBX Classes
 90
    32768
280
     0
281
     0
  0
CLASS
  1
SPATIAL_FILTER
  2
AcDbSpatialFilter
  3
ObjectDBX Classes
 90
    32768
280
     0
281
     0
  0
CLASS
  1
SORTENTSTABLE
  2
AcDbSortentsTable
  3
ObjectDBX Classes
 90
    32768
280
     0
281
     0
  0
CLASS
  1
LAYER_INDEX
  2
AcDbLayerIndex
  3
ObjectDBX Classes
 90
    32768
280
     0
281
     0
  0
CLASS
  1
SPATIAL_INDEX
  2
AcDbSpatialIndex
  3
ObjectDBX Classes
 90
    32768
280
     0
281
     0
  0
CLASS
  1
OBJECT_PTR
  2
CAseDLPNTableRecord
  3
"ASE-LPNTableRecord"
 90
    32769
280
     0
281
     0
  0
CLASS
  1
LAYOUT
  2
AcDbLayout
  3
ObjectDBX Classes
 90
        0
280
     0
281
     0
  0
CLASS
  1
PLOTSETTINGS
  2
AcDbPlotSettings
  3
ObjectDBX Classes
 90
    32768
280
     0
281
     0
  0
CLASS
  1
ACDBDICTIONARYWDFLT
  2
AcDbDictionaryWithDefault
  3
ObjectDBX Classes
 90
        0
280
     0
281
     0
  0
CLASS
  1
ACDBPLACEHOLDER
  2
AcDbPlaceHolder
  3
ObjectDBX Classes
 90
        0
280
     0
281
     0
  0
CLASS
  1
TABLESTYLE
  2
AcDbTableStyle
  3
ObjectDBX Classes
 90
     2047
280
     0
281
     0
  0
ENDSEC
  0
SECTION
  2
TABLES
  0
TABLE
  2
VPORT
  5
7
330
0
100
AcDbSymbolTable
 70
     2
  0
VPORT
  5
30E
330
7
100
AcDbSymbolTableRecord
100
AcDbViewportTableRecord
  2
*Active
 70
     0
 10
0.0
 20
0.0
 11
1.0
 21
1.0
 12
1.565725912676839
 22
15.92624131847535
 13
0.0
 23
0.0
 14
1.0
 24
1.0
 15
0.0
 25
0.0
 16
0.0
 26
0.0
 36
1.0
 17
0.0
 27
0.0
 37
0.0
 40
333.6999095001735
 41
1.874251497005987
 42
50.0
 43
0.0
 44
0.0
 50
0.0
 51
0.0
 71
     0
 72
   100
 73
     1
 74
     1
 75
     0
 76
     0
 77
     0
 78
     0
281
     0
 65
     1
110
0.0
120
0.0
130
0.0
111
1.0
121
0.0
131
0.0
112
0.0
122
1.0
132
0.0
 79
     0
146
0.0
  0
ENDTAB
  0
TABLE
  2
LTYPE
  5
4
330
0
100
AcDbSymbolTable
 70
     2
  0
LTYPE
  5
11
330
4
100
AcDbSymbolTableRecord
100
AcDbLinetypeTableRecord
  2
BYBLOCK
 70
     0
  3

 72
    65
 73
     0
 40
0.0
  0
LTYPE
  5
12
330
4
100
AcDbSymbolTableRecord
100
AcDbLinetypeTableRecord
  2
BYLAYER
 70
     0
  3

 72
    65
 73
     0
 40
0.0
  0
LTYPE
  5
13
330
4
100
AcDbSymbolTableRecord
100
AcDbLinetypeTableRecord
  2
CONTINUOUS
 70
     0
  3
Solid line
 72
    65
 73
     0
 40
0.0
  0
LTYPE
  5
3D
330
4
100
AcDbSymbolTableRecord
100
AcDbLinetypeTableRecord
  2
CENTER
 70
     0
  3
Center ____ _ ____ _ ____ _ ____ _ ____ _ ____
 72
    65
 73
     4
 40
50.8
 49
31.75
 74
     0
 49
-6.349999999999999
 74
     0
 49
6.349999999999999
 74
     0
 49
-6.349999999999999
 74
     0
  0
ENDTAB
  0
TABLE
  2
LAYER
  5
2
330
0
100
AcDbSymbolTable
 70
     2
  0
LAYER
  5
14
330
2
100
AcDbSymbolTableRecord
100
AcDbLayerTableRecord
  2
0
 70
     0
 62
     7
  6
CONTINUOUS
370
    -3
390
2FE
  0
LAYER
  5
1D
330
2
100
AcDbSymbolTableRecord
100
AcDbLayerTableRecord
  2
DEFPOINTS
 70
     0
 62
     7
  6
CONTINUOUS
290
     0
370
    -3
390
2FE
  0
ENDTAB
  0
TABLE
  2
STYLE
  5
3
330
0
100
AcDbSymbolTable
 70
     2
  0
STYLE
  5
17
330
3
100
AcDbSymbolTableRecord
100
AcDbTextStyleTableRecord
  2
MX_NOTE_STANDARD
 70
     0
 40
0.0
 41
1.0
 50
0.0
 71
     0
 42
3.200000047683715
  3
txt.shx
  4
extfont.shx
  0
STYLE
  5
2FC
330
3
100
AcDbSymbolTableRecord
100
AcDbTextStyleTableRecord
  2
Standard
 70
     0
 40
0.0
 41
1.0
 50
0.0
 71
     0
 42
0.2
  3

  4

  0
ENDTAB
  0
TABLE
  2
VIEW
  5
5
330
0
100
AcDbSymbolTable
 70
     0
  0
ENDTAB
  0
TABLE
  2
UCS
  5
6
330
0
100
AcDbSymbolTable
 70
     0
  0
ENDTAB
  0
TABLE
  2
APPID
  5
8
330
0
100
AcDbSymbolTable
 70
     1
  0
APPID
  5
16
330
8
100
AcDbSymbolTableRecord
100
AcDbRegAppTableRecord
  2
ACAD
 70
     0
  0
ENDTAB
  0
TABLE
  2
DIMSTYLE
  5
9
330
0
100
AcDbSymbolTable
 70
     1
100
AcDbDimStyleTable
 71
     0
  0
DIMSTYLE
105
18
330
9
100
AcDbSymbolTableRecord
100
AcDbDimStyleTableRecord
  2
MXDIMSTYLE
 70
     0
 41
2.5
 42
1.5
 43
3.75
 44
1.5
 73
     0
 74
     0
 77
     1
 78
     8
140
3.200000047683715
141
2.5
143
0.03937007874016
147
1.0
171
     4
172
     1
173
     1
271
     2
272
     2
274
     4
283
     0
288
     1
340
17
341
2A
343
2A
344
2A
  0
ENDTAB
  0
TABLE
  2
BLOCK_RECORD
  5
1
330
0
100
AcDbSymbolTable
 70
    13
  0
BLOCK_RECORD
  5
A
330
1
100
AcDbSymbolTableRecord
100
AcDbBlockTableRecord
  2
*MODEL_SPACE
340
305
  0
BLOCK_RECORD
  5
B
330
1
100
AcDbSymbolTableRecord
100
AcDbBlockTableRecord
  2
*PAPER_SPACE
340
306
  0
BLOCK_RECORD
  5
1E
330
1
100
AcDbSymbolTableRecord
100
AcDbBlockTableRecord
  2
NHE1D-25-1
340
0
102
{BLKREFS
331
2E2
102
}
  0
BLOCK_RECORD
  5
1F
330
1
100
AcDbSymbolTableRecord
100
AcDbBlockTableRecord
  2
NHE1D-25-2
340
0
102
{BLKREFS
331
2E1
102
}
  0
BLOCK_RECORD
  5
20
330
1
100
AcDbSymbolTableRecord
100
AcDbBlockTableRecord
  2
NHE1D-25-3
340
0
102
{BLKREFS
331
2E0
102
}
  0
BLOCK_RECORD
  5
21
330
1
100
AcDbSymbolTableRecord
100
AcDbBlockTableRecord
  2
NHE1D-25-4
340
0
102
{BLKREFS
331
2DF
102
}
  0
BLOCK_RECORD
  5
22
330
1
100
AcDbSymbolTableRecord
100
AcDbBlockTableRecord
  2
NHE1D-25-5
340
0
  0
BLOCK_RECORD
  5
23
330
1
100
AcDbSymbolTableRecord
100
AcDbBlockTableRecord
  2
NHE1D-25-6
340
0
  0
BLOCK_RECORD
  5
24
330
1
100
AcDbSymbolTableRecord
100
AcDbBlockTableRecord
  2
NHE1D-25-7
340
0
  0
BLOCK_RECORD
  5
25
330
1
100
AcDbSymbolTableRecord
100
AcDbBlockTableRecord
  2
NHE1D-25-8
340
0
  0
BLOCK_RECORD
  5
26
330
1
100
AcDbSymbolTableRecord
100
AcDbBlockTableRecord
  2
NHE1D-25-9
340
0
  0
BLOCK_RECORD
  5
27
330
1
100
AcDbSymbolTableRecord
100
AcDbBlockTableRecord
  2
NHE1D-25-10
340
0
  0
BLOCK_RECORD
  5
28
330
1
100
AcDbSymbolTableRecord
100
AcDbBlockTableRecord
  2
NHE1D-25-11
340
0
  0
BLOCK_RECORD
  5
29
330
1
100
AcDbSymbolTableRecord
100
AcDbBlockTableRecord
  2
NHE1D-25-12
340
0
  0
BLOCK_RECORD
  5
2A
330
1
100
AcDbSymbolTableRecord
100
AcDbBlockTableRecord
  2
_OPEN30
340
0
  0
ENDTAB
  0
ENDSEC
  0
SECTION
  2
BLOCKS
  0
BLOCK
  5
D
330
A
100
AcDbEntity
  8
0
100
AcDbBlockBegin
  2
*MODEL_SPACE
 70
     0
 10
0.0
 20
0.0
 30
0.0
  3
*MODEL_SPACE
  1

  0
ENDBLK
  5
E
330
A
100
AcDbEntity
  8
0
100
AcDbBlockEnd
  0
BLOCK
  5
F
330
B
100
AcDbEntity
 67
     1
  8
0
100
AcDbBlockBegin
  2
*PAPER_SPACE
 70
     0
 10
0.0
 20
0.0
 30
0.0
  3
*PAPER_SPACE
  1

  0
ENDBLK
  5
10
330
B
100
AcDbEntity
 67
     1
  8
0
100
AcDbBlockEnd
  0
BLOCK
  5
30
330
1E
100
AcDbEntity
  8
0
100
AcDbBlockBegin
  2
NHE1D-25-1
 70
     0
 10
0.0
 20
0.0
 30
0.0
  3
NHE1D-25-1
  1

  0
CIRCLE
  5
31
330
1E
100
AcDbEntity
  8
0
  6
Continuous
 62
     7
100
AcDbCircle
 10
5.0
 20
-3.420989990234375
 30
0.0
 40
1.200000047683715
  0
CIRCLE
  5
32
330
1E
100
AcDbEntity
  8
0
  6
Continuous
 62
     7
100
AcDbCircle
 10
5.0
 20
3.420989990234375
 30
0.0
 40
1.200000047683715
  0
ARC
  5
33
330
1E
100
AcDbEntity
  8
0
  6
Continuous
 62
     7
100
AcDbCircle
 10
5.0
 20
6.399993896484375
 30
0.0
 40
1.0
100
AcDbArc
 50
0.0000025044781673
 51
180.0000006832453
  0
ARC
  5
34
330
1E
100
AcDbEntity
  8
0
  6
Continuous
 62
     7
100
AcDbCircle
 10
5.0
 20
6.399993896484375
 30
0.0
 40
1.25
100
AcDbArc
 50
341.3370775031194
 51
198.6629188544149
  0
ARC
  5
35
330
1E
100
AcDbEntity
  8
0
  6
Continuous
 62
     7
100
AcDbCircle
 10
5.0
 20
-6.399993896484375
 30
0.0
 40
1.0
100
AcDbArc
 50
179.9999906653326
 51
0.0000025044781673
  0
ARC
  5
36
330
1E
100
AcDbEntity
  8
0
  6
Continuous
 62
     7
100
AcDbCircle
 10
5.0
 20
-6.399993896484375
 30
0.0
 40
1.25
100
AcDbArc
 50
161.3370724941631
 51
18.66292750583689
  0
CIRCLE
  5
37
330
1E
100
AcDbEntity
  8
0
  6
Continuous
 62
     7
100
AcDbCircle
 10
39.0
 20
0.0
 30
0.0
 40
2.5
  0
CIRCLE
  5
38
330
1E
100
AcDbEntity
  8
0
  6
Continuous
 62
     7
100
AcDbCircle
 10
39.0
 20
0.0
 30
0.0
 40
4.25
  0
CIRCLE
  5
39
330
1E
100
AcDbEntity
  8
0
  6
Continuous
 62
     7
100
AcDbCircle
 10
39.0
 20
0.0
 30
0.0
 40
2.0
  0
CIRCLE
  5
3A
330
1E
100
AcDbEntity
  8
0
  6
Continuous
 62
     7
100
AcDbCircle
 10
57.0
 20
0.0
 30
0.0
 40
2.5
  0
CIRCLE
  5
3B
330
1E
100
AcDbEntity
  8
0
  6
Continuous
 62
     7
100
AcDbCircle
 10
57.0
 20
0.0
 30
0.0
 40
4.25
  0
CIRCLE
  5
3C
330
1E
100
AcDbEntity
  8
0
  6
Continuous
 62
     7
100
AcDbCircle
 10
57.0
 20
0.0
 30
0.0
 40
2.0
  0
LINE
  5
3E
330
1E
100
AcDbEntity
  8
0
  6
CENTER
 62
     2
100
AcDbLine
 10
-10.0
 20
0.0
 30
0.0
 11
77.0
 21
0.0
 31
0.0
  0
LINE
  5
3F
330
1E
100
AcDbEntity
  8
0
  6
Continuous
 62
     7
100
AcDbLine
 10
72.0
 20
29.5
 30
0.0
 11
72.0
 21
-29.5
 31
0.0
  0
LINE
  5
40
330
1E
100
AcDbEntity
  8
0
  6
Continuous
 62
     7
100
AcDbLine
 10
23.0
 20
-30.0
 30
0.0
 11
71.5
 21
-30.0
 31
0.0
  0
LINE
  5
41
330
1E
100
AcDbEntity
  8
0
  6
Continuous
 62
     7
100
AcDbLine
 10
71.5
 20
-30.0
 30
0.0
 11
72.0
 21
-29.5
 31
0.0
  0
LINE
  5
42
330
1E
100
AcDbEntity
  8
0
  6
Continuous
 62
     7
100
AcDbLine
 10
71.5
 20
30.0
 30
0.0
 11
71.5
 21
20.39608001708984
 31
0.0
  0
LINE
  5
43
330
1E
100
AcDbEntity
  8
0
  6
Continuous
 62
     2
100
AcDbLine
 10
5.0
 20
-5.12099003791809
 30
0.0
 11
5.0
 21
-1.720989942550659
 31
0.0
  0
LINE
  5
44
330
1E
100
AcDbEntity
  8
0
  6
Continuous
 62
     2
100
AcDbLine
 10
3.299999952316284
 20
-3.420989990234375
 30
0.0
 11
6.700000047683715
 21
-3.420989990234375
 31
0.0
  0
LINE
  5
45
330
1E
100
AcDbEntity
  8
0
  6
Continuous
 62
     2
100
AcDbLine
 10
5.0
 20
5.12099003791809
 30
0.0
 11
5.0
 21
1.720989942550659
 31
0.0
  0
LINE
  5
46
330
1E
100
AcDbEntity
  8
0
  6
Continuous
 62
     2
100
AcDbLine
 10
3.299999952316284
 20
3.420989990234375
 30
0.0
 11
6.700000047683715
 21
3.420989990234375
 31
0.0
  0
LINE
  5
47
330
1E
100
AcDbEntity
  8
0
  6
Continuous
 62
     7
100
AcDbLine
 10
6.0
 20
-6.0
 30
0.0
 11
7.0
 21
-6.0
 31
0.0
  0
LINE
  5
48
330
1E
100
AcDbEntity
  8
0
  6
Continuous
 62
     7
100
AcDbLine
 10
6.0
 20
-6.0
 30
0.0
 11
6.0
 21
-6.399993896484375
 31
0.0
  0
LINE
  5
49
330
1E
100
AcDbEntity
  8
0
  6
Continuous
 62
     7
100
AcDbLine
 10
4.0
 20
-6.0
 30
0.0
 11
4.0
 21
-6.399993896484375
 31
0.0
  0
LINE
  5
4A
330
1E
100
AcDbEntity
  8
0
  6
Continuous
 62
     7
100
AcDbLine
 10
6.0
 20
6.0
 30
0.0
 11
7.0
 21
6.0
 31
0.0
  0
LINE
  5
4B
330
1E
100
AcDbEntity
  8
0
  6
Continuous
 62
     7
100
AcDbLine
 10
6.0
 20
6.399993896484375
 30
0.0
 11
6.0
 21
6.0
 31
0.0
  0
LINE
  5
4C
330
1E
100
AcDbEntity
  8
0
  6
Continuous
 62
     7
100
AcDbLine
 10
4.0
 20
6.399993896484375
 30
0.0
 11
4.0
 21
6.0
 31
0.0
  0
LINE
  5
4D
330
1E
100
AcDbEntity
  8
0
  6
Continuous
 62
     7
100
AcDbLine
 10
1.0
 20
9.062171936035154
 30
0.0
 11
1.0
 21
-9.062168121337888
 31
0.0
  0
LINE
  5
4E
330
1E
100
AcDbEntity
  8
0
  6
Continuous
 62
     7
100
AcDbLine
 10
3.0
 20
-6.399993896484375
 30
0.0
 11
3.0
 21
-38.79292488098145
 31
0.0
  0
LINE
  5
4F
330
1E
100
AcDbEntity
  8
0
  6
Continuous
 62
     7
100
AcDbLine
 10
6.25
 20
6.399993896484375
 30
0.0
 11
7.5
 21
6.399993896484375
 31
0.0
  0
LINE
  5
50
330
1E
100
AcDbEntity
  8
0
  6
Continuous
 62
     7
100
AcDbLine
 10
6.25
 20
-6.399993896484375
 30
0.0
 11
7.5
 21
-6.399993896484375
 31
0.0
  0
LINE
  5
51
330
1E
100
AcDbEntity
  8
0
  6
Continuous
 62
     7
100
AcDbLine
 10
3.0
 20
6.399993896484375
 30
0.0
 11
3.75
 21
6.399993896484375
 31
0.0
  0
LINE
  5
52
330
1E
100
AcDbEntity
  8
0
  6
Continuous
 62
     7
100
AcDbLine
 10
3.0
 20
-6.399993896484375
 30
0.0
 11
3.75
 21
-6.399993896484375
 31
0.0
  0
LINE
  5
53
330
1E
100
AcDbEntity
  8
0
  6
Continuous
 62
     7
100
AcDbLine
 10
7.0
 20
6.0
 30
0.0
 11
7.0
 21
-6.0
 31
0.0
  0
LINE
  5
54
330
1E
100
AcDbEntity
  8
0
  6
Continuous
 62
     7
100
AcDbLine
 10
7.5
 20
6.399993896484375
 30
0.0
 11
7.5
 21
-6.399993896484375
 31
0.0
  0
LINE
  5
55
330
1E
100
AcDbEntity
  8
0
  6
Continuous
 62
     7
100
AcDbLine
 10
0.0
 20
6.0
 30
0.0
 11
4.0
 21
6.0
 31
0.0
  0
LINE
  5
56
330
1E
100
AcDbEntity
  8
0
  6
Continuous
 62
     7
100
AcDbLine
 10
0.0
 20
-6.0
 30
0.0
 11
4.0
 21
-6.0
 31
0.0
  0
LINE
  5
57
330
1E
100
AcDbEntity
  8
0
  6
Continuous
 62
     7
100
AcDbLine
 10
13.0
 20
13.5
 30
0.0
 11
13.0
 21
-13.49996948242187
 31
0.0
  0
LINE
  5
58
330
1E
100
AcDbEntity
  8
0
  6
Continuous
 62
     7
100
AcDbLine
 10
3.0
 20
13.5
 30
0.0
 11
13.0
 21
13.5
 31
0.0
  0
LINE
  5
59
330
1E
100
AcDbEntity
  8
0
  6
Continuous
 62
     7
100
AcDbLine
 10
3.0
 20
-13.49996948242187
 30
0.0
 11
13.0
 21
-13.49996948242187
 31
0.0
  0
LINE
  5
5A
330
1E
100
AcDbEntity
  8
0
  6
Continuous
 62
     7
100
AcDbLine
 10
3.0
 20
38.79293823242188
 30
0.0
 11
3.0
 21
6.399993896484375
 31
0.0
  0
LINE
  5
5B
330
1E
100
AcDbEntity
  8
0
  6
Continuous
 62
     7
100
AcDbLine
 10
0.0
 20
28.11473083496093
 30
0.0
 11
0.0
 21
-28.11472702026367
 31
0.0
  0
LINE
  5
5C
330
1E
100
AcDbEntity
  8
0
  6
Continuous
 62
     7
100
AcDbLine
 10
32.0
 20
16.0
 30
0.0
 11
10.0
 21
16.0
 31
0.0
  0
LINE
  5
5D
330
1E
100
AcDbEntity
  8
0
  6
Continuous
 62
     7
100
AcDbLine
 10
32.0
 20
-15.9999885559082
 30
0.0
 11
10.0
 21
-15.9999885559082
 31
0.0
  0
LINE
  5
5E
330
1E
100
AcDbEntity
  8
0
  6
Continuous
 62
     7
100
AcDbLine
 10
32.0
 20
30.0
 30
0.0
 11
32.0
 21
16.0
 31
0.0
  0
LINE
  5
5F
330
1E
100
AcDbEntity
  8
0
  6
Continuous
 62
     7
100
AcDbLine
 10
22.0
 20
-39.74901580810547
 30
0.0
 11
10.0
 21
-39.74901580810547
 31
0.0
  0
LINE
  5
60
330
1E
100
AcDbEntity
  8
0
  6
Continuous
 62
     7
100
AcDbLine
 10
23.0
 20
-30.0
 30
0.0
 11
23.0
 21
-38.74901580810547
 31
0.0
  0
LINE
  5
61
330
1E
100
AcDbEntity
  8
0
  6
Continuous
 62
     7
100
AcDbLine
 10
23.0
 20
30.0
 30
0.0
 11
23.0
 21
38.74901580810547
 31
0.0
  0
LINE
  5
62
330
1E
100
AcDbEntity
  8
0
  6
Continuous
 62
     7
100
AcDbLine
 10
22.0
 20
39.74901580810547
 30
0.0
 11
10.0
 21
39.74901580810547
 31
0.0
  0
LINE
  5
63
330
1E
100
AcDbEntity
  8
0
  6
Continuous
 62
     7
100
AcDbLine
 10
23.0
 20
30.0
 30
0.0
 11
71.5
 21
30.0
 31
0.0
  0
LINE
  5
64
330
1E
100
AcDbEntity
  8
0
  6
Continuous
 62
     7
100
AcDbLine
 10
22.99999971289037
 20
-38.74901609521509
 30
0.0
 11
22.0
 21
-39.74901580810547
 31
0.0
  0
LINE
  5
65
330
1E
100
AcDbEntity
  8
0
  6
Continuous
 62
     7
100
AcDbLine
 10
23.0
 20
38.74901580810547
 30
0.0
 11
22.0
 21
39.74901580810547
 31
0.0
  0
LINE
  5
66
330
1E
100
AcDbEntity
  8
0
  6
Continuous
 62
     7
100
AcDbLine
 10
23.0
 20
16.0
 30
0.0
 11
23.0
 21
-15.9999885559082
 31
0.0
  0
LINE
  5
67
330
1E
100
AcDbEntity
  8
0
  6
Continuous
 62
     7
100
AcDbLine
 10
22.0
 20
16.0
 30
0.0
 11
22.0
 21
-15.9999885559082
 31
0.0
  0
LINE
  5
68
330
1E
100
AcDbEntity
  8
0
  6
Continuous
 62
     7
100
AcDbLine
 10
10.0
 20
-38.79292488098145
 30
0.0
 11
3.0
 21
-38.79292488098145
 31
0.0
  0
LINE
  5
69
330
1E
100
AcDbEntity
  8
0
  6
Continuous
 62
     7
100
AcDbLine
 10
10.0
 20
38.79293823242188
 30
0.0
 11
3.0
 21
38.79293823242188
 31
0.0
  0
LINE
  5
6A
330
1E
100
AcDbEntity
  8
0
  6
Continuous
 62
     7
100
AcDbLine
 10
3.0
 20
-8.196136474609375
 30
0.0
 11
1.0
 21
-8.196136474609375
 31
0.0
  0
LINE
  5
6B
330
1E
100
AcDbEntity
  8
0
  6
Continuous
 62
     7
100
AcDbLine
 10
3.0
 20
-28.98074722290039
 30
0.0
 11
1.0
 21
-28.98074722290039
 31
0.0
  0
LINE
  5
6C
330
1E
100
AcDbEntity
  8
0
  6
Continuous
 62
     7
100
AcDbLine
 10
3.0
 20
-28.11472702026367
 30
0.0
 11
0.0
 21
-28.11472702026367
 31
0.0
  0
LINE
  5
6D
330
1E
100
AcDbEntity
  8
0
  6
Continuous
 62
     7
100
AcDbLine
 10
3.0
 20
-9.062168121337888
 30
0.0
 11
0.0
 21
-9.062168121337888
 31
0.0
  0
LINE
  5
6E
330
1E
100
AcDbEntity
  8
0
  6
Continuous
 62
     7
100
AcDbLine
 10
1.0
 20
-28.11472702026367
 30
0.0
 11
1.0
 21
-28.98074722290039
 31
0.0
  0
LINE
  5
6F
330
1E
100
AcDbEntity
  8
0
  6
Continuous
 62
     7
100
AcDbLine
 10
1.0
 20
28.11473083496093
 30
0.0
 11
1.0
 21
28.98074340820313
 31
0.0
  0
LINE
  5
70
330
1E
100
AcDbEntity
  8
0
  6
Continuous
 62
     7
100
AcDbLine
 10
3.0
 20
28.11473083496093
 30
0.0
 11
0.0
 21
28.11473083496093
 31
0.0
  0
LINE
  5
71
330
1E
100
AcDbEntity
  8
0
  6
Continuous
 62
     7
100
AcDbLine
 10
3.0
 20
9.062171936035154
 30
0.0
 11
0.0
 21
9.062171936035154
 31
0.0
  0
LINE
  5
72
330
1E
100
AcDbEntity
  8
0
  6
Continuous
 62
     7
100
AcDbLine
 10
3.0
 20
8.196136474609375
 30
0.0
 11
1.0
 21
8.196136474609375
 31
0.0
  0
LINE
  5
73
330
1E
100
AcDbEntity
  8
0
  6
Continuous
 62
     7
100
AcDbLine
 10
3.0
 20
28.98074340820313
 30
0.0
 11
1.0
 21
28.98074340820313
 31
0.0
  0
LINE
  5
74
330
1E
100
AcDbEntity
  8
0
  6
Continuous
 62
     7
100
AcDbLine
 10
10.0
 20
39.74901580810547
 30
0.0
 11
10.0
 21
13.5
 31
0.0
  0
LINE
  5
75
330
1E
100
AcDbEntity
  8
0
  6
Continuous
 62
     7
100
AcDbLine
 10
10.0
 20
-13.49996948242187
 30
0.0
 11
10.0
 21
-39.74901580810547
 31
0.0
  0
LINE
  5
76
330
1E
100
AcDbEntity
  8
0
  6
Continuous
 62
     7
100
AcDbLine
 10
7.0
 20
-13.49996948242187
 30
0.0
 11
7.0
 21
-19.02147674560547
 31
0.0
  0
LINE
  5
77
330
1E
100
AcDbEntity
  8
0
  6
Continuous
 62
     7
100
AcDbLine
 10
7.0
 20
-18.77147674560547
 30
0.0
 11
4.300003051757812
 21
-18.77147674560547
 31
0.0
  0
LINE
  5
78
330
1E
100
AcDbEntity
  8
0
  6
Continuous
 62
     7
100
AcDbLine
 10
10.0
 20
-19.02147674560547
 30
0.0
 11
7.0
 21
-19.02147674560547
 31
0.0
  0
LINE
  5
79
330
1E
100
AcDbEntity
  8
0
  6
Continuous
 62
     7
100
AcDbLine
 10
4.0
 20
-13.57148134463841
 30
0.0
 11
4.0
 21
-18.47147369384765
 31
0.0
  0
LINE
  5
7A
330
1E
100
AcDbEntity
  8
0
  6
Continuous
 62
     7
100
AcDbLine
 10
4.0
 20
-18.47147369384765
 30
0.0
 11
4.300003051757812
 21
-18.77147674560547
 31
0.0
  0
LINE
  5
7B
330
1E
100
AcDbEntity
  8
0
  6
Continuous
 62
     7
100
AcDbLine
 10
4.0
 20
-13.57148134463841
 30
0.0
 11
4.071511862216539
 21
-13.49996948242187
 31
0.0
  0
LINE
  5
7C
330
1E
100
AcDbEntity
  8
0
  6
Continuous
 62
     7
100
AcDbLine
 10
4.300003051757812
 20
-18.77147674560547
 30
0.0
 11
4.300003051757812
 21
-13.49996948242187
 31
0.0
  0
LINE
  5
7D
330
1E
100
AcDbEntity
  8
0
  6
Continuous
 62
     7
100
AcDbLine
 10
4.0
 20
13.57147851671186
 30
0.0
 11
4.071478516711864
 21
13.5
 31
0.0
  0
LINE
  5
7E
330
1E
100
AcDbEntity
  8
0
  6
Continuous
 62
     7
100
AcDbLine
 10
4.0
 20
18.47147369384765
 30
0.0
 11
4.300003051757812
 21
18.77147674560547
 31
0.0
  0
LINE
  5
7F
330
1E
100
AcDbEntity
  8
0
  6
Continuous
 62
     7
100
AcDbLine
 10
4.0
 20
13.57147851671186
 30
0.0
 11
4.0
 21
18.47147369384765
 31
0.0
  0
LINE
  5
80
330
1E
100
AcDbEntity
  8
0
  6
Continuous
 62
     7
100
AcDbLine
 10
7.0
 20
13.49996948242187
 30
0.0
 11
7.0
 21
19.02147674560547
 31
0.0
  0
LINE
  5
81
330
1E
100
AcDbEntity
  8
0
  6
Continuous
 62
     7
100
AcDbLine
 10
4.300003051757812
 20
18.77147674560547
 30
0.0
 11
4.300003051757812
 21
13.49996948242187
 31
0.0
  0
LINE
  5
82
330
1E
100
AcDbEntity
  8
0
  6
Continuous
 62
     7
100
AcDbLine
 10
7.0
 20
18.77147674560547
 30
0.0
 11
4.300003051757812
 21
18.77147674560547
 31
0.0
  0
LINE
  5
83
330
1E
100
AcDbEntity
  8
0
  6
Continuous
 62
     7
100
AcDbLine
 10
10.0
 20
19.02147674560547
 30
0.0
 11
7.0
 21
19.02147674560547
 31
0.0
  0
LINE
  5
84
330
1E
100
AcDbEntity
  8
0
  6
Continuous
 62
     7
100
AcDbLine
 10
0.0
 20
2.500007629394531
 30
0.0
 11
-2.699996948242187
 21
2.500007629394531
 31
0.0
  0
LINE
  5
85
330
1E
100
AcDbEntity
  8
0
  6
Continuous
 62
     7
100
AcDbLine
 10
0.0
 20
-2.499996185302734
 30
0.0
 11
-2.699996948242187
 21
-2.499996185302734
 31
0.0
  0
LINE
  5
86
330
1E
100
AcDbEntity
  8
0
  6
Continuous
 62
     7
100
AcDbLine
 10
-3.0
 20
2.200004577636718
 30
0.0
 11
-3.0
 21
-2.199993133544921
 31
0.0
  0
LINE
  5
87
330
1E
100
AcDbEntity
  8
0
  6
Continuous
 62
     7
100
AcDbLine
 10
-2.699996948242187
 20
2.500007629394531
 30
0.0
 11
-3.0
 21
2.200004577636718
 31
0.0
  0
LINE
  5
88
330
1E
100
AcDbEntity
  8
0
  6
Continuous
 62
     7
100
AcDbLine
 10
-3.0
 20
-2.199993133544921
 30
0.0
 11
-2.699996948242187
 21
-2.499996185302734
 31
0.0
  0
LINE
  5
89
330
1E
100
AcDbEntity
  8
0
  6
Continuous
 62
     7
100
AcDbLine
 10
-2.699996948242187
 20
2.500007629394531
 30
0.0
 11
-2.699996948242187
 21
-2.499996185302734
 31
0.0
  0
LINE
  5
8A
330
1E
100
AcDbEntity
  8
0
  6
Continuous
 62
     2
100
AcDbLine
 10
-6.0
 20
12.1243667602539
 30
0.0
 11
3.0
 21
12.1243667602539
 31
0.0
  0
LINE
  5
8B
330
1E
100
AcDbEntity
  8
0
  6
Continuous
 62
     7
100
AcDbLine
 10
-3.0
 20
9.92437744140625
 30
0.0
 11
-2.699996948242187
 21
9.624374389648435
 31
0.0
  0
LINE
  5
8C
330
1E
100
AcDbEntity
  8
0
  6
Continuous
 62
     7
100
AcDbLine
 10
-2.699996948242187
 20
14.62437438964844
 30
0.0
 11
-3.0
 21
14.32437133789062
 31
0.0
  0
LINE
  5
8D
330
1E
100
AcDbEntity
  8
0
  6
Continuous
 62
     7
100
AcDbLine
 10
0.0
 20
9.624374389648435
 30
0.0
 11
-2.699996948242187
 21
9.624374389648435
 31
0.0
  0
LINE
  5
8E
330
1E
100
AcDbEntity
  8
0
  6
Continuous
 62
     7
100
AcDbLine
 10
-2.699996948242187
 20
14.62437438964844
 30
0.0
 11
-2.699996948242187
 21
9.624374389648435
 31
0.0
  0
LINE
  5
8F
330
1E
100
AcDbEntity
  8
0
  6
Continuous
 62
     7
100
AcDbLine
 10
-3.0
 20
14.32437133789062
 30
0.0
 11
-3.0
 21
9.92437744140625
 31
0.0
  0
LINE
  5
90
330
1E
100
AcDbEntity
  8
0
  6
Continuous
 62
     7
100
AcDbLine
 10
0.0
 20
14.62437438964844
 30
0.0
 11
-2.699996948242187
 21
14.62437438964844
 31
0.0
  0
LINE
  5
91
330
1E
100
AcDbEntity
  8
0
  6
Continuous
 62
     7
100
AcDbLine
 10
-3.0
 20
-9.924373626708984
 30
0.0
 11
-2.699996948242187
 21
-9.624370574951173
 31
0.0
  0
LINE
  5
92
330
1E
100
AcDbEntity
  8
0
  6
Continuous
 62
     7
100
AcDbLine
 10
0.0
 20
-9.624370574951173
 30
0.0
 11
-2.699996948242187
 21
-9.624370574951173
 31
0.0
  0
LINE
  5
93
330
1E
100
AcDbEntity
  8
0
  6
Continuous
 62
     7
100
AcDbLine
 10
-2.699996948242187
 20
-14.62437057495117
 30
0.0
 11
-3.0
 21
-14.32436752319336
 31
0.0
  0
LINE
  5
94
330
1E
100
AcDbEntity
  8
0
  6
Continuous
 62
     2
100
AcDbLine
 10
-6.0
 20
-12.1243667602539
 30
0.0
 11
3.0
 21
-12.1243667602539
 31
0.0
  0
LINE
  5
95
330
1E
100
AcDbEntity
  8
0
  6
Continuous
 62
     7
100
AcDbLine
 10
-3.0
 20
-14.32436752319336
 30
0.0
 11
-3.0
 21
-9.924373626708984
 31
0.0
  0
LINE
  5
96
330
1E
100
AcDbEntity
  8
0
  6
Continuous
 62
     7
100
AcDbLine
 10
0.0
 20
-14.62437057495117
 30
0.0
 11
-2.699996948242187
 21
-14.62437057495117
 31
0.0
  0
LINE
  5
97
330
1E
100
AcDbEntity
  8
0
  6
Continuous
 62
     7
100
AcDbLine
 10
-2.699996948242187
 20
-14.62437057495117
 30
0.0
 11
-2.699996948242187
 21
-9.624370574951173
 31
0.0
  0
LINE
  5
98
330
1E
100
AcDbEntity
  8
0
  6
Continuous
 62
     2
100
AcDbLine
 10
39.0
 20
6.25
 30
0.0
 11
39.0
 21
-6.25
 31
0.0
  0
LINE
  5
99
330
1E
100
AcDbEntity
  8
0
  6
Continuous
 62
     2
100
AcDbLine
 10
57.0
 20
6.25
 30
0.0
 11
57.0
 21
-6.25
 31
0.0
  0
LINE
  5
9A
330
1E
100
AcDbEntity
  8
0
  6
Continuous
 62
     7
100
AcDbLine
 10
32.0
 20
-15.9999885559082
 30
0.0
 11
32.0
 21
-30.0
 31
0.0
  0
LINE
  5
9B
330
1E
100
AcDbEntity
  8
0
  6
Continuous
 62
     7
100
AcDbLine
 10
33.0
 20
20.39608001708984
 30
0.0
 11
72.0
 21
20.39608001708984
 31
0.0
  0
LINE
  5
9C
330
1E
100
AcDbEntity
  8
0
  6
Continuous
 62
     7
100
AcDbLine
 10
33.0
 20
-20.39608001708984
 30
0.0
 11
72.0
 21
-20.39608001708984
 31
0.0
  0
LINE
  5
9D
330
1E
100
AcDbEntity
  8
0
  6
Continuous
 62
     7
100
AcDbLine
 10
33.0
 20
-20.39608001708984
 30
0.0
 11
33.0
 21
20.39608001708984
 31
0.0
  0
LINE
  5
9E
330
1E
100
AcDbEntity
  8
0
  6
Continuous
 62
     7
100
AcDbLine
 10
71.5
 20
-20.39608001708984
 30
0.0
 11
71.5
 21
-30.0
 31
0.0
  0
LINE
  5
9F
330
1E
100
AcDbEntity
  8
0
  6
Continuous
 62
     7
100
AcDbLine
 10
71.5
 20
30.0
 30
0.0
 11
72.0
 21
29.5
 31
0.0
  0
ENDBLK
  5
A0
330
1E
100
AcDbEntity
  8
0
100
AcDbBlockEnd
  0
BLOCK
  5
A1
330
1F
100
AcDbEntity
  8
0
100
AcDbBlockBegin
  2
NHE1D-25-2
 70
     0
 10
0.0
 20
0.0
 30
0.0
  3
NHE1D-25-2
  1

  0
CIRCLE
  5
A2
330
1F
100
AcDbEntity
  8
0
  6
Continuous
 62
     7
100
AcDbCircle
 10
13.99999926498819
 20
0.0
 30
0.0
 40
2.5
  0
ARC
  5
A3
330
1F
100
AcDbEntity
  8
0
  6
Continuous
 62
     7
100
AcDbCircle
 10
0.0
 20
0.0
 30
0.0
 40
30.0
100
AcDbArc
 50
152.2309569008729
 51
207.7690331493789
  0
CIRCLE
  5
A4
330
1F
100
AcDbEntity
  8
0
  6
Continuous
 62
     7
100
AcDbCircle
 10
-11.0000009690834
 20
19.05256021979957
 30
0.0
 40
2.5
  0
ARC
  5
A5
330
1F
100
AcDbEntity
  8
0
  6
Continuous
 62
     7
100
AcDbCircle
 10
0.0
 20
0.0
 30
0.0
 40
40.0
100
AcDbArc
 50
96.42184167980072
 51
143.5781815678236
  0
ARC
  5
A6
330
1F
100
AcDbEntity
  8
0
  6
Continuous
 62
     7
100
AcDbCircle
 10
0.0
 20
0.0
 30
0.0
 40
40.0
100
AcDbArc
 50
216.4218065055519
 51
263.5781502340699
  0
CIRCLE
  5
A7
330
1F
100
AcDbEntity
  8
0
  6
Continuous
 62
     7
100
AcDbCircle
 10
-11.00000001753346
 20
-19.05255857166678
 30
0.0
 40
2.0
  0
ARC
  5
A8
330
1F
100
AcDbEntity
  8
0
  6
Continuous
 62
     7
100
AcDbCircle
 10
0.0
 20
0.0
 30
0.0
 40
30.0
100
AcDbArc
 50
272.2309120311699
 51
327.7690129136551
  0
CIRCLE
  5
A9
330
1F
100
AcDbEntity
  8
0
  6
Continuous
 62
     7
100
AcDbCircle
 10
-7.000007646927983
 20
-12.12436868023896
 30
0.0
 40
2.5
  0
CIRCLE
  5
AA
330
1F
100
AcDbEntity
  8
0
  6
Continuous
 62
     7
100
AcDbCircle
 10
-11.00000001753346
 20
-19.05255857166678
 30
0.0
 40
2.5
  0
CIRCLE
  5
AB
330
1F
100
AcDbEntity
  8
0
  6
Continuous
 62
     7
100
AcDbCircle
 10
-11.0000009690834
 20
19.05256021979957
 30
0.0
 40
2.0
  0
CIRCLE
  5
AC
330
1F
100
AcDbEntity
  8
0
  6
Continuous
 62
     7
100
AcDbCircle
 10
21.99999926498819
 20
0.0
 30
0.0
 40
2.0
  0
CIRCLE
  5
AD
330
1F
100
AcDbEntity
  8
0
  6
Continuous
 62
     7
100
AcDbCircle
 10
21.99999926498819
 20
0.0
 30
0.0
 40
2.5
  0
ARC
  5
AE
330
1F
100
AcDbEntity
  8
0
  6
Continuous
 62
     7
100
AcDbCircle
 10
0.0
 20
0.0
 30
0.0
 40
30.0
100
AcDbArc
 50
32.23091818467241
 51
87.76907628736525
  0
CIRCLE
  5
AF
330
1F
100
AcDbEntity
  8
0
  6
Continuous
 62
     7
100
AcDbCircle
 10
-7.000008598477904
 20
12.12437032837173
 30
0.0
 40
2.5
  0
ARC
  5
B0
330
1F
100
AcDbEntity
  8
0
  6
Continuous
 62
     7
100
AcDbCircle
 10
0.0
 20
0.0
 30
0.0
 40
40.0
100
AcDbArc
 50
336.4217976742844
 51
23.57815463069248
  0
CIRCLE
  5
B1
330
1F
100
AcDbEntity
  8
0
  6
Continuous
 62
     7
100
AcDbCircle
 10
0.0
 20
0.0
 30
0.0
 40
4.5
  0
CIRCLE
  5
B2
330
1F
100
AcDbEntity
  8
0
  6
Continuous
 62
     7
100
AcDbCircle
 10
9.249995450290924
 20
-16.021484375
 30
0.0
 40
3.0
  0
ARC
  5
B3
330
1F
100
AcDbEntity
  8
0
  6
Continuous
 62
     7
100
AcDbCircle
 10
15.00945208481241
 20
-20.00001525878907
 30
0.0
 40
4.0
100
AcDbArc
 50
89.99999499104367
 51
145.3640330823063
  0
ARC
  5
B4
330
1F
100
AcDbEntity
  8
0
  6
Continuous
 62
     7
100
AcDbCircle
 10
9.815753201755768
 20
-22.99858093261719
 30
0.0
 40
4.0
100
AcDbArc
 50
94.63586294678476
 51
149.9999966606958
  0
ARC
  5
B5
330
1F
100
AcDbEntity
  8
0
  6
Continuous
 62
     7
100
AcDbCircle
 10
-10.03320973247
 20
-4.599628395428367
 30
0.0
 40
3.0
100
AcDbArc
 50
59.99999734394111
 51
100.0000030105019
  0
ARC
  5
B6
330
1F
100
AcDbEntity
  8
0
  6
Continuous
 62
     7
100
AcDbCircle
 10
15.00945971420694
 20
19.99998474121093
 30
0.0
 40
4.0
100
AcDbArc
 50
214.6358697011836
 51
270.0
  0
CIRCLE
  5
B7
330
1F
100
AcDbEntity
  8
0
  6
Continuous
 62
     7
100
AcDbCircle
 10
9.249995450290924
 20
16.02146911621093
 30
0.0
 40
3.0
  0
ARC
  5
B8
330
1F
100
AcDbEntity
  8
0
  6
Continuous
 62
     7
100
AcDbCircle
 10
1.033194760593659
 20
-10.98883056640625
 30
0.0
 40
3.0
100
AcDbArc
 50
19.99999850756942
 51
59.99999734394111
  0
ARC
  5
B9
330
1F
100
AcDbEntity
  8
0
  6
Continuous
 62
     7
100
AcDbCircle
 10
8.99999926498819
 20
-6.389205932617188
 30
0.0
 40
3.0
100
AcDbArc
 50
179.9999974955218
 51
219.9999997469881
  0
ARC
  5
BA
330
1F
100
AcDbEntity
  8
0
  6
Continuous
 62
     7
100
AcDbCircle
 10
-24.82524945327353
 20
-2.998580932617187
 30
0.0
 40
4.0
100
AcDbArc
 50
330.0000016696521
 51
25.36402610053641
  0
CIRCLE
  5
BB
330
1F
100
AcDbEntity
  8
0
  6
Continuous
 62
     7
100
AcDbCircle
 10
-18.5000179011495
 20
-0.0000152587890625
 30
0.0
 40
3.0
  0
ARC
  5
BC
330
1F
100
AcDbEntity
  8
0
  6
Continuous
 62
     7
100
AcDbCircle
 10
-10.0332153041036
 20
4.599624633789063
 30
0.0
 40
3.0
100
AcDbArc
 50
260.000000290907
 51
300.000000834826
  0
ARC
  5
BD
330
1F
100
AcDbEntity
  8
0
  6
Continuous
 62
     7
100
AcDbCircle
 10
8.99999926498819
 20
6.389190673828125
 30
0.0
 40
3.0
100
AcDbArc
 50
139.9999986591501
 51
179.9999974955218
  0
ARC
  5
BE
330
1F
100
AcDbEntity
  8
0
  6
Continuous
 62
     7
100
AcDbCircle
 10
-24.82524055593214
 20
2.998574335752842
 30
0.0
 40
4.0
100
AcDbArc
 50
334.6358696253932
 51
30.00000333930423
  0
CIRCLE
  5
BF
330
1F
100
AcDbEntity
  8
0
  6
Continuous
 62
     7
100
AcDbCircle
 10
-18.5000179011495
 20
-0.0000152587890625
 30
0.0
 40
2.75
  0
ARC
  5
C0
330
1F
100
AcDbEntity
  8
0
  6
Continuous
 62
     7
100
AcDbCircle
 10
1.033194760593659
 20
10.98883056640625
 30
0.0
 40
3.0
100
AcDbArc
 50
299.9999974197315
 51
339.9999996711977
  0
CIRCLE
  5
C1
330
1F
100
AcDbEntity
  8
0
  6
Continuous
 62
     7
100
AcDbCircle
 10
-18.5000179011495
 20
-0.0000152587890625
 30
0.0
 40
1.443375706672668
  0
CIRCLE
  5
C2
330
1F
100
AcDbEntity
  8
0
  6
Continuous
 62
     7
100
AcDbCircle
 10
9.24999926498819
 20
-16.02146911621093
 30
0.0
 40
2.75
  0
CIRCLE
  5
C3
330
1F
100
AcDbEntity
  8
0
  6
Continuous
 62
     7
100
AcDbCircle
 10
9.24999926498819
 20
-16.02146911621093
 30
0.0
 40
1.443375706672668
  0
CIRCLE
  5
C4
330
1F
100
AcDbEntity
  8
0
  6
Continuous
 62
     7
100
AcDbCircle
 10
9.24997256210733
 20
16.02147674560546
 30
0.0
 40
1.443375706672668
  0
CIRCLE
  5
C5
330
1F
100
AcDbEntity
  8
0
  6
Continuous
 62
     7
100
AcDbCircle
 10
9.24997256210733
 20
16.02147674560546
 30
0.0
 40
2.75
  0
CIRCLE
  5
C6
330
1F
100
AcDbEntity
  8
0
  6
Continuous
 62
     7
100
AcDbCircle
 10
-26.0
 20
0.0
 30
0.0
 40
2.099999904632568
  0
ARC
  5
C7
330
1F
100
AcDbEntity
  8
0
  6
Continuous
 62
     2
100
AcDbCircle
 10
0.0
 20
-0.0000000000000071
 30
0.0
 40
26.0
100
AcDbArc
 50
166.74836818391
 51
193.2516058618239
  0
CIRCLE
  5
C8
330
1F
100
AcDbEntity
  8
0
  6
Continuous
 62
     7
100
AcDbCircle
 10
13.00000017499526
 20
-22.51666039736185
 30
0.0
 40
2.099999904632568
  0
ARC
  5
C9
330
1F
100
AcDbEntity
  8
0
  6
Continuous
 62
     2
100
AcDbCircle
 10
0.0
 20
-0.0000000000000071
 30
0.0
 40
26.0
100
AcDbArc
 50
286.7483802883219
 51
313.2516196737829
  0
CIRCLE
  5
CA
330
1F
100
AcDbEntity
  8
0
  6
Continuous
 62
     7
100
AcDbCircle
 10
13.00000017499525
 20
22.51666039736183
 30
0.0
 40
2.099999904632568
  0
ARC
  5
CB
330
1F
100
AcDbEntity
  8
0
  6
Continuous
 62
     2
100
AcDbCircle
 10
0.0
 20
-0.0000000000000071
 30
0.0
 40
26.0
100
AcDbArc
 50
46.74837850498418
 51
73.25161618289803
  0
LINE
  5
CC
330
1F
100
AcDbEntity
  8
0
  6
Continuous
 62
     7
100
AcDbLine
 10
36.99999163559366
 20
6.400009155273437
 30
0.0
 11
6.000018771641734
 21
6.400009155273437
 31
0.0
  0
LINE
  5
CD
330
1F
100
AcDbEntity
  8
0
  6
Continuous
 62
     7
100
AcDbLine
 10
29.9999992649882
 20
5.999984741210937
 30
0.0
 11
5.99999926498819
 21
5.999984741210937
 31
0.0
  0
LINE
  5
CE
330
1F
100
AcDbEntity
  8
0
  6
Continuous
 62
     7
100
AcDbLine
 10
37.65302659796515
 20
13.49998474121093
 30
0.0
 11
11.05044227947807
 21
13.49998474121093
 31
0.0
  0
LINE
  5
CF
330
1F
100
AcDbEntity
  8
0
  6
CENTER
 62
     2
100
AcDbLine
 10
42.99999926498818
 20
0.0
 30
0.0
 11
-32.00000073501181
 21
0.0
 31
0.0
  0
LINE
  5
D0
330
1F
100
AcDbEntity
  8
0
  6
Continuous
 62
     7
100
AcDbLine
 10
-4.4739103039105
 20
39.7490141587507
 30
0.0
 11
6.351664281380095
 21
20.99856929243835
 31
0.0
  0
LINE
  5
D1
330
1F
100
AcDbEntity
  8
0
  6
Continuous
 62
     7
100
AcDbLine
 10
-32.186710521018
 20
23.7490139971366
 30
0.0
 11
-21.36113905735809
 21
4.998574537647101
 31
0.0
  0
LINE
  5
D2
330
1F
100
AcDbEntity
  8
0
  6
Continuous
 62
     2
100
AcDbLine
 10
21.99999926498819
 20
3.821456909179687
 30
0.0
 11
21.99999926498819
 21
-3.68194580078125
 31
0.0
  0
LINE
  5
D3
330
1F
100
AcDbEntity
  8
0
  6
Continuous
 62
     7
100
AcDbLine
 10
29.9999992649882
 20
6.0
 30
0.0
 11
29.9999992649882
 21
-5.999984741210937
 31
0.0
  0
LINE
  5
D4
330
1F
100
AcDbEntity
  8
0
  6
Continuous
 62
     7
100
AcDbLine
 10
5.99999926498819
 20
6.389190673828125
 30
0.0
 11
5.99999926498819
 21
-6.389968872070312
 31
0.0
  0
LINE
  5
D5
330
1F
100
AcDbEntity
  8
0
  6
Continuous
 62
     7
100
AcDbLine
 10
-9.303855948739538
 20
-28.11473152006332
 30
0.0
 11
-19.69615400037995
 21
-22.11473533476059
 31
0.0
  0
LINE
  5
D6
330
1F
100
AcDbEntity
  8
0
  6
Continuous
 62
     2
100
AcDbLine
 10
-7.690529574766572
 20
-20.96328225696746
 30
0.0
 11
-14.18867342703706
 21
-17.21157708728972
 31
0.0
  0
LINE
  5
D7
330
1F
100
AcDbEntity
  8
0
  6
Continuous
 62
     7
100
AcDbLine
 10
-9.803869163238287
 20
-28.98074927890954
 30
0.0
 11
2.19613083676171
 21
-8.19613996113
 31
0.0
  0
LINE
  5
D8
330
1F
100
AcDbEntity
  8
0
  6
Continuous
 62
     7
100
AcDbLine
 10
-20.19615400038
 20
-22.98076072300139
 30
0.0
 11
-8.196154000379976
 21
-2.196151405221822
 31
0.0
  0
LINE
  5
D9
330
1F
100
AcDbEntity
  8
0
  6
Continuous
 62
     7
100
AcDbLine
 10
2.5331996629115
 20
-8.390746742135917
 30
0.0
 11
-8.533209612031045
 21
-2.001552253610512
 31
0.0
  0
LINE
  5
DA
330
1F
100
AcDbEntity
  8
0
  6
Continuous
 62
     7
100
AcDbLine
 10
1.696144051260517
 20
-9.062172978765431
 30
0.0
 11
-8.696154000380005
 21
-3.062176793462648
 31
0.0
  0
LINE
  5
DB
330
1F
100
AcDbEntity
  8
0
  6
Continuous
 62
     7
100
AcDbLine
 10
-20.19616486121467
 20
22.98075665000579
 30
0.0
 11
-9.803860202324898
 21
28.98075665000579
 31
0.0
  0
LINE
  5
DC
330
1F
100
AcDbEntity
  8
0
  6
Continuous
 62
     7
100
AcDbLine
 10
-30.51784180185419
 20
25.85848664862274
 30
0.0
 11
-17.21653636355464
 21
2.819950235996657
 31
0.0
  0
LINE
  5
DD
330
1F
100
AcDbEntity
  8
0
  6
Continuous
 62
     7
100
AcDbLine
 10
36.66061221912445
 20
15.99998474121093
 30
0.0
 11
15.00945971420694
 21
15.99998474121093
 31
0.0
  0
LINE
  5
DE
330
1F
100
AcDbEntity
  8
0
  6
Continuous
 62
     7
100
AcDbLine
 10
-19.69616486121467
 20
22.114731261765
 30
0.0
 11
-9.303860202324898
 21
28.11473126176501
 31
0.0
  0
LINE
  5
DF
330
1F
100
AcDbEntity
  8
0
  6
Continuous
 62
     7
100
AcDbLine
 10
-8.533217169240998
 20
2.001550087963536
 30
0.0
 11
2.533197061138565
 21
8.390747437511862
 31
0.0
  0
LINE
  5
E0
330
1F
100
AcDbEntity
  8
0
  6
Continuous
 62
     7
100
AcDbLine
 10
36.66059890016143
 20
-16.00001525878906
 30
0.0
 11
15.00945208481241
 21
-16.00001525878906
 31
0.0
  0
LINE
  5
E1
330
1F
100
AcDbEntity
  8
0
  6
Continuous
 62
     7
100
AcDbLine
 10
-9.803860202324898
 20
28.98075665000579
 30
0.0
 11
2.196139797675101
 21
8.196147332226246
 31
0.0
  0
LINE
  5
E2
330
1F
100
AcDbEntity
  8
0
  6
Continuous
 62
     7
100
AcDbLine
 10
-7.135150164657304
 20
39.35847598837881
 30
0.0
 11
6.166117340046568
 21
16.3200052786666
 31
0.0
  0
LINE
  5
E3
330
1F
100
AcDbEntity
  8
0
  6
Continuous
 62
     7
100
AcDbLine
 10
-8.69616486121467
 20
3.062172720467074
 30
0.0
 11
1.696139797675129
 21
9.062172720467088
 31
0.0
  0
LINE
  5
E4
330
1F
100
AcDbEntity
  8
0
  6
Continuous
 62
     7
100
AcDbLine
 10
-9.803855948739538
 20
-28.98075690830411
 30
0.0
 11
-20.19615400037995
 21
-22.98076072300137
 31
0.0
  0
LINE
  5
E5
330
1F
100
AcDbEntity
  8
0
  6
Continuous
 62
     7
100
AcDbLine
 10
-30.51786538104167
 20
-25.85845882075374
 30
0.0
 11
-17.21660135112398
 21
-2.819994129547588
 31
0.0
  0
LINE
  5
E6
330
1F
100
AcDbEntity
  8
0
  6
Continuous
 62
     7
100
AcDbLine
 10
-7.135194028849483
 20
-39.35846803637904
 30
0.0
 11
6.166098913067784
 21
-16.31995326812164
 31
0.0
  0
LINE
  5
E7
330
1F
100
AcDbEntity
  8
0
  6
Continuous
 62
     7
100
AcDbLine
 10
-17.97906880671868
 20
2.954411644918976
 30
0.0
 11
-10.55416235078974
 21
1.645200269674191
 31
0.0
  0
LINE
  5
E8
330
1F
100
AcDbEntity
  8
0
  6
Continuous
 62
     7
100
AcDbLine
 10
-20.19613843221725
 20
22.98077190879485
 30
0.0
 11
-8.196138432217225
 21
2.196162591015256
 31
0.0
  0
LINE
  5
E9
330
1F
100
AcDbEntity
  8
0
  6
Continuous
 62
     7
100
AcDbLine
 10
36.99999163559366
 20
-6.399993896484375
 30
0.0
 11
6.00001866174496
 21
-6.399993896484375
 31
0.0
  0
LINE
  5
EA
330
1F
100
AcDbEntity
  8
0
  6
Continuous
 62
     7
100
AcDbLine
 10
28.9999992649882
 20
6.0
 30
0.0
 11
28.9999992649882
 21
-5.999984741210937
 31
0.0
  0
LINE
  5
EB
330
1F
100
AcDbEntity
  8
0
  6
Continuous
 62
     7
100
AcDbLine
 10
6.99999926498819
 20
6.0
 30
0.0
 11
6.99999926498819
 21
-5.999984741210937
 31
0.0
  0
LINE
  5
EC
330
1F
100
AcDbEntity
  8
0
  6
Continuous
 62
     7
100
AcDbLine
 10
37.6530211271287
 20
-13.5
 30
0.0
 11
11.05044187624168
 21
-13.5
 31
0.0
  0
LINE
  5
ED
330
1F
100
AcDbEntity
  8
0
  6
Continuous
 62
     7
100
AcDbLine
 10
29.9999992649882
 20
-5.999984741210937
 30
0.0
 11
5.99999926498819
 21
-5.999984741210937
 31
0.0
  0
LINE
  5
EE
330
1F
100
AcDbEntity
  8
0
  6
Continuous
 62
     2
100
AcDbLine
 10
-14.30947802068894
 20
17.14183271888404
 30
0.0
 11
-7.811327561169121
 21
20.89354170325905
 31
0.0
  0
LINE
  5
EF
330
1F
100
AcDbEntity
  8
0
  6
Continuous
 62
     7
100
AcDbLine
 10
2.401890446940668
 20
8.639775975927017
 30
0.0
 11
6.064949898741531
 21
16.49523242393366
 31
0.0
  0
LINE
  5
F0
330
1F
100
AcDbEntity
  8
0
  6
Continuous
 62
     7
100
AcDbLine
 10
6.281310344933288
 20
6.400009155273436
 30
0.0
 11
11.25284013057338
 21
13.49998474121093
 31
0.0
  0
LINE
  5
F1
330
1F
100
AcDbEntity
  8
0
  6
Continuous
 62
     7
100
AcDbLine
 10
11.54812683870625
 20
-14.09311786928528
 30
0.0
 11
6.701865927115818
 21
-8.317568751528497
 31
0.0
  0
LINE
  5
F2
330
1F
100
AcDbEntity
  8
0
  6
Continuous
 62
     7
100
AcDbLine
 10
-8.683226001643078
 20
2.239758928479592
 30
0.0
 11
-17.31773524986056
 21
2.995240961488875
 31
0.0
  0
LINE
  5
F3
330
1F
100
AcDbEntity
  8
0
  6
Continuous
 62
     7
100
AcDbLine
 10
-17.97907339815336
 20
-2.954438515822493
 30
0.0
 11
-10.55415913933351
 21
-1.64522587706412
 31
0.0
  0
LINE
  5
F4
330
1F
100
AcDbEntity
  8
0
  6
Continuous
 62
     7
100
AcDbLine
 10
6.281307838643769
 20
-6.399993896484375
 30
0.0
 11
11.2527856767974
 21
-13.5
 31
0.0
  0
LINE
  5
F5
330
1F
100
AcDbEntity
  8
0
  6
Continuous
 62
     7
100
AcDbLine
 10
-4.473915913672228
 20
-39.74901352734921
 30
0.0
 11
6.351651703181729
 21
-20.99858073072292
 31
0.0
  0
LINE
  5
F6
330
1F
100
AcDbEntity
  8
0
  6
Continuous
 62
     7
100
AcDbLine
 10
-8.683241779915164
 20
-2.239809141760771
 30
0.0
 11
-17.31777553783797
 21
-2.995232958205466
 31
0.0
  0
LINE
  5
F7
330
1F
100
AcDbEntity
  8
0
  6
Continuous
 62
     7
100
AcDbLine
 10
-32.18671090039769
 20
-23.74900584045875
 30
0.0
 11
-21.36114777985393
 21
-4.998580831670056
 31
0.0
  0
LINE
  5
F8
330
1F
100
AcDbEntity
  8
0
  6
Continuous
 62
     7
100
AcDbLine
 10
2.401903170054055
 20
-8.63978063805848
 30
0.0
 11
6.064887733449325
 21
-16.49521868539145
 31
0.0
  0
LINE
  5
F9
330
1F
100
AcDbEntity
  8
0
  6
Continuous
 62
     7
100
AcDbLine
 10
6.43091408025154
 20
17.04752831707355
 30
0.0
 11
3.852272292656323
 21
9.962768486487206
 31
0.0
  0
LINE
  5
FA
330
1F
100
AcDbEntity
  8
0
  6
Continuous
 62
     7
100
AcDbLine
 10
6.430919210838197
 20
-17.0475410304054
 30
0.0
 11
3.852272204429624
 21
-9.962766861247644
 31
0.0
  0
LINE
  5
FB
330
1F
100
AcDbEntity
  8
0
  6
Continuous
 62
     7
100
AcDbLine
 10
11.54812741896789
 20
14.09310276646784
 30
0.0
 11
6.701865980759279
 21
8.317553556669221
 31
0.0
  0
LINE
  5
FC
330
1F
100
AcDbEntity
  8
0
  6
Continuous
 62
     7
100
AcDbLine
 10
36.99999163559366
 20
13.49998474121093
 30
0.0
 11
36.99999163559366
 21
-13.5
 31
0.0
  0
LINE
  5
FD
330
1F
100
AcDbEntity
  8
0
  6
Continuous
 62
     7
100
AcDbLine
 10
-30.19133545127264
 20
25.29294581178329
 30
0.0
 11
-6.808643361521291
 21
38.79294962648055
 31
0.0
  0
LINE
  5
FE
330
1F
100
AcDbEntity
  8
0
  6
Continuous
 62
     7
100
AcDbLine
 10
-12.95745037739098
 20
35.24293417695663
 30
0.0
 11
2.542536335805152
 21
8.396170154910354
 31
0.0
  0
LINE
  5
FF
330
1F
100
AcDbEntity
  8
0
  6
Continuous
 62
     7
100
AcDbLine
 10
-24.04257633796081
 20
28.84293360475205
 30
0.0
 11
-8.542584884635997
 21
1.996161372562241
 31
0.0
  0
LINE
  5
100
330
1F
100
AcDbEntity
  8
0
  6
Continuous
 62
     7
100
AcDbLine
 10
-6.808678751432211
 20
-38.79292699659533
 30
0.0
 11
-30.19135101943553
 21
-25.29293462598983
 31
0.0
  0
LINE
  5
101
330
1F
100
AcDbEntity
  8
0
  6
Continuous
 62
     7
100
AcDbLine
 10
-12.95743786474398
 20
-35.24293920362655
 30
0.0
 11
2.542547872862598
 21
-8.396176871350917
 31
0.0
  0
LINE
  5
102
330
1F
100
AcDbEntity
  8
0
  6
Continuous
 62
     7
100
AcDbLine
 10
-24.04256547712609
 20
-28.84293767774764
 30
0.0
 11
-8.542575202750725
 21
-1.996167487558111
 31
0.0
  0
LINE
  5
103
330
1F
100
AcDbEntity
  8
0
  6
Continuous
 62
     2
100
AcDbLine
 10
13.99999926498819
 20
3.821456909179687
 30
0.0
 11
13.99999926498819
 21
-3.68194580078125
 31
0.0
  0
LINE
  5
104
330
1F
100
AcDbEntity
  8
0
  6
Continuous
 62
     2
100
AcDbLine
 10
-10.30949225733277
 20
10.21363901275894
 30
0.0
 11
-3.811355012311679
 21
13.96534036773943
 31
0.0
  0
LINE
  5
105
330
1F
100
AcDbEntity
  8
0
  6
Continuous
 62
     2
100
AcDbLine
 10
-3.690537204161103
 20
-14.03509236553964
 30
0.0
 11
-10.18867444918223
 21
-10.28339101055917
 31
0.0
  0
LINE
  5
106
330
1F
100
AcDbEntity
  8
0
  6
CENTER
 62
     2
100
AcDbLine
 10
-21.50000096908334
 20
37.23909337285657
 30
0.0
 11
15.99999903091668
 21
-27.71281074520452
 31
0.0
  0
LINE
  5
107
330
1F
100
AcDbEntity
  8
0
  6
CENTER
 62
     2
100
AcDbLine
 10
-21.49999946639956
 20
-37.239090770132
 30
0.0
 11
16.00000053360043
 21
27.71281334792909
 31
0.0
  0
LINE
  5
108
330
1F
100
AcDbEntity
  8
0
  6
Continuous
 62
     7
100
AcDbLine
 10
7.806597285613179
 20
16.02147674560547
 30
0.0
 11
8.528284923860255
 21
14.77147708896714
 31
0.0
  0
LINE
  5
109
330
1F
100
AcDbEntity
  8
0
  6
Continuous
 62
     7
100
AcDbLine
 10
8.528284923860255
 20
14.77147708896714
 30
0.0
 11
9.971660200354406
 21
14.77147708896715
 31
0.0
  0
LINE
  5
10A
330
1F
100
AcDbEntity
  8
0
  6
Continuous
 62
     7
100
AcDbLine
 10
9.971660200354406
 20
14.77147708896715
 30
0.0
 11
10.69334783860148
 21
16.02147674560546
 31
0.0
  0
LINE
  5
10B
330
1F
100
AcDbEntity
  8
0
  6
Continuous
 62
     7
100
AcDbLine
 10
10.69334783860148
 20
16.02147674560546
 30
0.0
 11
9.971660200354406
 21
17.27147640224379
 31
0.0
  0
LINE
  5
10C
330
1F
100
AcDbEntity
  8
0
  6
Continuous
 62
     7
100
AcDbLine
 10
9.971660200354406
 20
17.27147640224379
 30
0.0
 11
8.528284923860255
 21
17.27147640224379
 31
0.0
  0
LINE
  5
10D
330
1F
100
AcDbEntity
  8
0
  6
Continuous
 62
     7
100
AcDbLine
 10
8.528284923860255
 20
17.27147640224379
 30
0.0
 11
7.806597285613179
 21
16.02147674560547
 31
0.0
  0
LINE
  5
10E
330
1F
100
AcDbEntity
  8
0
  6
Continuous
 62
     7
100
AcDbLine
 10
9.971686903235266
 20
-14.77146945957261
 30
0.0
 11
8.528311626741112
 21
-14.77146945957262
 31
0.0
  0
LINE
  5
10F
330
1F
100
AcDbEntity
  8
0
  6
Continuous
 62
     7
100
AcDbLine
 10
8.528311626741112
 20
-14.77146945957262
 30
0.0
 11
7.806623988494038
 21
-16.02146911621093
 31
0.0
  0
LINE
  5
110
330
1F
100
AcDbEntity
  8
0
  6
Continuous
 62
     7
100
AcDbLine
 10
10.69337454148234
 20
-16.02146911621094
 30
0.0
 11
9.971686903235266
 21
-14.77146945957261
 31
0.0
  0
LINE
  5
111
330
1F
100
AcDbEntity
  8
0
  6
Continuous
 62
     7
100
AcDbLine
 10
7.806623988494038
 20
-16.02146911621093
 30
0.0
 11
8.528311626741112
 21
-17.27146877284926
 31
0.0
  0
LINE
  5
112
330
1F
100
AcDbEntity
  8
0
  6
Continuous
 62
     7
100
AcDbLine
 10
8.528311626741112
 20
-17.27146877284926
 30
0.0
 11
9.971686903235266
 21
-17.27146877284926
 31
0.0
  0
LINE
  5
113
330
1F
100
AcDbEntity
  8
0
  6
Continuous
 62
     7
100
AcDbLine
 10
9.971686903235266
 20
-17.27146877284926
 30
0.0
 11
10.69337454148234
 21
-16.02146911621094
 31
0.0
  0
LINE
  5
114
330
1F
100
AcDbEntity
  8
0
  6
Continuous
 62
     7
100
AcDbLine
 10
-17.77833026290241
 20
1.24998439784926
 30
0.0
 11
-19.22170553939659
 21
1.249984397849257
 31
0.0
  0
LINE
  5
115
330
1F
100
AcDbEntity
  8
0
  6
Continuous
 62
     7
100
AcDbLine
 10
-19.22170553939659
 20
1.249984397849257
 30
0.0
 11
-19.94339317764366
 21
-0.0000152587890589
 31
0.0
  0
LINE
  5
116
330
1F
100
AcDbEntity
  8
0
  6
Continuous
 62
     7
100
AcDbLine
 10
-17.05664262465535
 20
-0.0000152587890661
 30
0.0
 11
-17.77833026290241
 21
1.24998439784926
 31
0.0
  0
LINE
  5
117
330
1F
100
AcDbEntity
  8
0
  6
Continuous
 62
     7
100
AcDbLine
 10
-19.94339317764366
 20
-0.0000152587890589
 30
0.0
 11
-19.22170553939659
 21
-1.250014915427389
 31
0.0
  0
LINE
  5
118
330
1F
100
AcDbEntity
  8
0
  6
Continuous
 62
     7
100
AcDbLine
 10
-19.22170553939659
 20
-1.250014915427389
 30
0.0
 11
-17.77833026290241
 21
-1.250014915427382
 31
0.0
  0
LINE
  5
119
330
1F
100
AcDbEntity
  8
0
  6
Continuous
 62
     7
100
AcDbLine
 10
-17.77833026290241
 20
-1.250014915427382
 30
0.0
 11
-17.05664262465535
 21
-0.0000152587890661
 31
0.0
  0
ARC
  5
11A
330
1F
100
AcDbEntity
  8
0
  6
Continuous
 62
     7
100
AcDbCircle
 10
9.815765954799699
 20
22.99856919149121
 30
0.0
 40
4.0
100
AcDbArc
 50
209.9999983303479
 51
265.3640278838741
  0
ENDBLK
  5
11B
330
1F
100
AcDbEntity
  8
0
100
AcDbBlockEnd
  0
BLOCK
  5
11C
330
20
100
AcDbEntity
  8
0
100
AcDbBlockBegin
  2
NHE1D-25-3
 70
     0
 10
0.0
 20
0.0
 30
0.0
  3
NHE1D-25-3
  1

  0
CIRCLE
  5
11D
330
20
100
AcDbEntity
  8
0
  6
Continuous
 62
     7
100
AcDbCircle
 10
25.99999999999999
 20
0.0
 30
0.0
 40
2.0
  0
CIRCLE
  5
11E
330
20
100
AcDbEntity
  8
0
  6
Continuous
 62
     7
100
AcDbCircle
 10
25.99999999999999
 20
0.0
 30
0.0
 40
2.5
  0
CIRCLE
  5
11F
330
20
100
AcDbEntity
  8
0
  6
Continuous
 62
     7
100
AcDbCircle
 10
0.0
 20
-0.0000000000000071
 30
0.0
 40
30.0
  0
ARC
  5
120
330
20
100
AcDbEntity
  8
0
  6
Continuous
 62
     7
100
AcDbCircle
 10
0.0
 20
0.0
 30
0.0
 40
40.0
100
AcDbArc
 50
156.4218215217981
 51
203.5781605925695
  0
ARC
  5
121
330
20
100
AcDbEntity
  8
0
  6
Continuous
 62
     7
100
AcDbCircle
 10
0.0
 20
0.0
 30
0.0
 40
40.0
100
AcDbArc
 50
36.42182141311528
 51
83.57815384879165
  0
ARC
  5
122
330
20
100
AcDbEntity
  8
0
  6
Continuous
 62
     7
100
AcDbCircle
 10
0.0
 20
0.0
 30
0.0
 40
40.0
100
AcDbArc
 50
276.42181960343
 51
323.5781639628606
  0
CIRCLE
  5
123
330
20
100
AcDbEntity
  8
0
  6
Continuous
 62
     7
100
AcDbCircle
 10
-32.99999972811686
 20
10.0
 30
0.0
 40
2.980400085449218
  0
CIRCLE
  5
124
330
20
100
AcDbEntity
  8
0
  6
Continuous
 62
     7
100
AcDbCircle
 10
-32.99999972811686
 20
10.0
 30
0.0
 40
3.5
  0
CIRCLE
  5
125
330
20
100
AcDbEntity
  8
0
  6
Continuous
 62
     7
100
AcDbCircle
 10
-32.99999972811686
 20
-10.0
 30
0.0
 40
3.5
  0
CIRCLE
  5
126
330
20
100
AcDbEntity
  8
0
  6
Continuous
 62
     7
100
AcDbCircle
 10
-32.99999972811686
 20
-10.0
 30
0.0
 40
2.980400085449218
  0
CIRCLE
  5
127
330
20
100
AcDbEntity
  8
0
  6
Continuous
 62
     7
100
AcDbCircle
 10
25.16025570401204
 20
-23.57883834838867
 30
0.0
 40
2.980400085449218
  0
CIRCLE
  5
128
330
20
100
AcDbEntity
  8
0
  6
Continuous
 62
     7
100
AcDbCircle
 10
25.16025570401204
 20
-23.57883834838867
 30
0.0
 40
3.5
  0
CIRCLE
  5
129
330
20
100
AcDbEntity
  8
0
  6
Continuous
 62
     7
100
AcDbCircle
 10
7.839752469148763
 20
-33.57883834838867
 30
0.0
 40
3.5
  0
CIRCLE
  5
12A
330
20
100
AcDbEntity
  8
0
  6
Continuous
 62
     7
100
AcDbCircle
 10
7.839752469148763
 20
-33.57883834838867
 30
0.0
 40
2.980400085449218
  0
CIRCLE
  5
12B
330
20
100
AcDbEntity
  8
0
  6
Continuous
 62
     7
100
AcDbCircle
 10
7.839752469148763
 20
33.57884216308593
 30
0.0
 40
3.5
  0
CIRCLE
  5
12C
330
20
100
AcDbEntity
  8
0
  6
Continuous
 62
     7
100
AcDbCircle
 10
7.839752469148763
 20
33.57884216308593
 30
0.0
 40
2.980400085449218
  0
CIRCLE
  5
12D
330
20
100
AcDbEntity
  8
0
  6
Continuous
 62
     7
100
AcDbCircle
 10
25.16025570401204
 20
23.57884216308594
 30
0.0
 40
3.5
  0
CIRCLE
  5
12E
330
20
100
AcDbEntity
  8
0
  6
Continuous
 62
     7
100
AcDbCircle
 10
25.16025570401204
 20
23.57884216308594
 30
0.0
 40
2.980400085449218
  0
CIRCLE
  5
12F
330
20
100
AcDbEntity
  8
0
  6
CENTER
 62
     2
100
AcDbCircle
 10
0.0
 20
0.0
 30
0.0
 40
26.0
  0
CIRCLE
  5
130
330
20
100
AcDbEntity
  8
0
  6
Continuous
 62
     7
100
AcDbCircle
 10
0.0
 20
0.0
 30
0.0
 40
13.0
  0
CIRCLE
  5
131
330
20
100
AcDbEntity
  8
0
  6
Continuous
 62
     7
100
AcDbCircle
 10
0.0
 20
0.0
 30
0.0
 40
4.5
  0
CIRCLE
  5
132
330
20
100
AcDbEntity
  8
0
  6
Continuous
 62
     7
100
AcDbCircle
 10
0.0
 20
-0.0000000000000071
 30
0.0
 40
9.0
  0
ARC
  5
133
330
20
100
AcDbEntity
  8
0
  6
Continuous
 62
     7
100
AcDbCircle
 10
1.238098416414388
 20
0.0
 30
0.0
 40
11.1428575515747
100
AcDbArc
 50
35.64412332024787
 51
324.3558594617065
  0
ARC
  5
134
330
20
100
AcDbEntity
  8
0
  6
Continuous
 62
     7
100
AcDbCircle
 10
11.50384548672688
 20
-4.333339691162108
 30
0.0
 40
2.476190567016601
100
AcDbArc
 50
58.22900986696797
 51
240.7351028634845
  0
CIRCLE
  5
135
330
20
100
AcDbEntity
  8
0
  6
Continuous
 62
     7
100
AcDbCircle
 10
10.93353271484373
 20
-4.09259796142578
 30
0.0
 40
0.9285714030265808
  0
CIRCLE
  5
136
330
20
100
AcDbEntity
  8
0
  6
Continuous
 62
     7
100
AcDbCircle
 10
10.93353271484373
 20
4.09259796142578
 30
0.0
 40
0.9285714030265808
  0
ARC
  5
137
330
20
100
AcDbEntity
  8
0
  6
Continuous
 62
     7
100
AcDbCircle
 10
11.50384548672688
 20
4.333335876464843
 30
0.0
 40
2.476190567016601
100
AcDbArc
 50
119.2648453784938
 51
301.7710064387579
  0
CIRCLE
  5
138
330
20
100
AcDbEntity
  8
0
  6
Continuous
 62
     7
100
AcDbCircle
 10
8.499996299722667
 20
14.7224251910256
 30
0.0
 40
2.5
  0
ARC
  5
139
330
20
100
AcDbEntity
  8
0
  6
Continuous
 62
     7
100
AcDbCircle
 10
-17.00000354281413
 20
0.0
 30
0.0
 40
1.5
100
AcDbArc
 50
270.0
 51
90.00000500895634
  0
ARC
  5
13A
330
20
100
AcDbEntity
  8
0
  6
Continuous
 62
     7
100
AcDbCircle
 10
-19.00000354281413
 20
0.0
 30
0.0
 40
1.5
100
AcDbArc
 50
89.99999499104367
 51
270.0
  0
ARC
  5
13B
330
20
100
AcDbEntity
  8
0
  6
Continuous
 62
     2
100
AcDbCircle
 10
0.0
 20
0.0
 30
0.0
 40
16.99999237060546
100
AcDbArc
 50
44.78885187362089
 51
75.21118379539635
  0
ARC
  5
13C
330
20
100
AcDbEntity
  8
0
  6
Continuous
 62
     2
100
AcDbCircle
 10
0.0
 20
0.0
 30
0.0
 40
16.99999237060546
100
AcDbArc
 50
284.788816090918
 51
315.2111531353355
  0
LINE
  5
13D
330
20
100
AcDbEntity
  8
0
  6
CENTER
 62
     2
100
AcDbLine
 10
-44.0000114440918
 20
0.0
 30
0.0
 11
29.99999999999999
 21
0.0
 31
0.0
  0
LINE
  5
13E
330
20
100
AcDbEntity
  8
0
  6
CENTER
 62
     2
100
AcDbLine
 10
22.00000163099701
 20
-38.10511990756547
 30
0.0
 11
-14.99999836900299
 21
25.98075882225479
 31
0.0
  0
LINE
  5
13F
330
20
100
AcDbEntity
  8
0
  6
CENTER
 62
     2
100
AcDbLine
 10
21.99999410505659
 20
38.10510687225451
 30
0.0
 11
-14.99999826554888
 21
-25.98075864306704
 31
0.0
  0
LINE
  5
140
330
20
100
AcDbEntity
  8
0
  6
Continuous
 62
     7
100
AcDbLine
 10
32.18670928542329
 20
23.74901567172093
 30
0.0
 11
26.54498399100261
 21
13.97726099482351
 31
0.0
  0
LINE
  5
141
330
20
100
AcDbEntity
  8
0
  6
Continuous
 62
     7
100
AcDbLine
 10
4.47391340595476
 20
39.74901380960311
 30
0.0
 11
-1.167810407963841
 21
29.97726169701047
 31
0.0
  0
LINE
  5
142
330
20
100
AcDbEntity
  8
0
  6
Continuous
 62
     7
100
AcDbLine
 10
-36.66060555964673
 20
16.0
 30
0.0
 11
-25.37715508089905
 21
16.0
 31
0.0
  0
LINE
  5
143
330
20
100
AcDbEntity
  8
0
  6
Continuous
 62
     7
100
AcDbLine
 10
-36.66062914278177
 20
-15.9999885559082
 30
0.0
 11
-25.37716229626172
 21
-15.9999885559082
 31
0.0
  0
LINE
  5
144
330
20
100
AcDbEntity
  8
0
  6
Continuous
 62
     7
100
AcDbLine
 10
32.18670322378593
 20
-23.7490238869712
 30
0.0
 11
26.54497883725481
 21
-13.97727078258465
 31
0.0
  0
LINE
  5
145
330
20
100
AcDbEntity
  8
0
  6
Continuous
 62
     7
100
AcDbLine
 10
4.473894988402121
 20
-39.74901588256935
 30
0.0
 11
-1.167830473656948
 21
-29.97726091531377
 31
0.0
  0
LINE
  5
146
330
20
100
AcDbEntity
  8
0
  6
Continuous
 62
     7
100
AcDbLine
 10
13.16506520505315
 20
17.8025615454553
 30
0.0
 11
12.16506139035589
 21
16.07050416172431
 31
0.0
  0
LINE
  5
147
330
20
100
AcDbEntity
  8
0
  6
Continuous
 62
     7
100
AcDbLine
 10
8.834938263849082
 20
20.30256154545531
 30
0.0
 11
7.834934449151815
 21
18.57050416172431
 31
0.0
  0
LINE
  5
148
330
20
100
AcDbEntity
  8
0
  6
Continuous
 62
     7
100
AcDbLine
 10
8.614358620018421
 20
18.12050339878486
 30
0.0
 11
8.074826292973069
 21
17.18600601278902
 31
0.0
  0
LINE
  5
149
330
20
100
AcDbEntity
  8
0
  6
Continuous
 62
     7
100
AcDbLine
 10
11.38563721948928
 20
16.52050492466377
 30
0.0
 11
10.84610489244393
 21
15.58600753866794
 31
0.0
  0
LINE
  5
14A
330
20
100
AcDbEntity
  8
0
  6
Continuous
 62
     7
100
AcDbLine
 10
8.614359382538779
 20
-18.12050817503414
 30
0.0
 11
8.074824077137362
 21
-17.18600563037437
 31
0.0
  0
LINE
  5
14B
330
20
100
AcDbEntity
  8
0
  6
Continuous
 62
     7
100
AcDbLine
 10
13.16506239129482
 20
-17.80256012740831
 30
0.0
 11
12.16506215287624
 21
-16.07050893797358
 31
0.0
  0
LINE
  5
14C
330
20
100
AcDbEntity
  8
0
  6
Continuous
 62
     7
100
AcDbLine
 10
8.834935450090755
 20
-20.30256012740832
 30
0.0
 11
7.834935211672174
 21
-18.5705089379736
 31
0.0
  0
LINE
  5
14D
330
20
100
AcDbEntity
  8
0
  6
Continuous
 62
     7
100
AcDbLine
 10
12.16506139035589
 20
16.07050416172433
 30
0.0
 11
7.834934449151815
 21
18.57050416172433
 31
0.0
  0
LINE
  5
14E
330
20
100
AcDbEntity
  8
0
  6
Continuous
 62
     7
100
AcDbLine
 10
12.16506215287624
 20
-16.07050893797361
 30
0.0
 11
7.834935211672174
 21
-18.57050893797361
 31
0.0
  0
LINE
  5
14F
330
20
100
AcDbEntity
  8
0
  6
Continuous
 62
     7
100
AcDbLine
 10
11.38563798200964
 20
-16.52050970091305
 30
0.0
 11
10.84610411570561
 21
-15.586009648843
 31
0.0
  0
LINE
  5
150
330
20
100
AcDbEntity
  8
0
  6
Continuous
 62
     7
100
AcDbLine
 10
-21.99999972811687
 20
20.39607834763482
 30
0.0
 11
-21.99999972811687
 21
-20.39607834763483
 31
0.0
  0
LINE
  5
151
330
20
100
AcDbEntity
  8
0
  6
Continuous
 62
     7
100
AcDbLine
 10
-6.663520734033312
 20
-29.25059813793743
 30
0.0
 11
28.66352156799159
 21
-8.854520389116533
 31
0.0
  0
LINE
  5
152
330
20
100
AcDbEntity
  8
0
  6
Continuous
 62
     7
100
AcDbLine
 10
28.6635204240868
 20
8.854524092121454
 30
0.0
 11
-6.663516955184533
 21
29.2505989987892
 31
0.0
  0
LINE
  5
153
330
20
100
AcDbEntity
  8
0
  6
Continuous
 62
     2
100
AcDbLine
 10
-18.00000354281413
 20
3.5
 30
0.0
 11
-18.00000354281413
 21
-3.5
 31
0.0
  0
LINE
  5
154
330
20
100
AcDbEntity
  8
0
  6
Continuous
 62
     2
100
AcDbLine
 10
-19.00000354281413
 20
3.5
 30
0.0
 11
-19.00000354281413
 21
-3.5
 31
0.0
  0
LINE
  5
155
330
20
100
AcDbEntity
  8
0
  6
Continuous
 62
     2
100
AcDbLine
 10
-17.00000354281413
 20
3.5
 30
0.0
 11
-17.00000354281413
 21
-3.5
 31
0.0
  0
LINE
  5
156
330
20
100
AcDbEntity
  8
0
  6
Continuous
 62
     7
100
AcDbLine
 10
-17.00000354281413
 20
-1.5
 30
0.0
 11
-19.00000354281413
 21
-1.5
 31
0.0
  0
LINE
  5
157
330
20
100
AcDbEntity
  8
0
  6
Continuous
 62
     7
100
AcDbLine
 10
-17.00000354281413
 20
1.5
 30
0.0
 11
-19.00000354281413
 21
1.5
 31
0.0
  0
LINE
  5
158
330
20
100
AcDbEntity
  8
0
  6
Continuous
 62
     7
100
AcDbLine
 10
-31.26793608158154
 20
10.0
 30
0.0
 11
-32.1339679048492
 21
11.5000111188711
 31
0.0
  0
LINE
  5
159
330
20
100
AcDbEntity
  8
0
  6
Continuous
 62
     7
100
AcDbLine
 10
-32.1339679048492
 20
11.5000111188711
 30
0.0
 11
-33.86603155138452
 21
11.5000111188711
 31
0.0
  0
LINE
  5
15A
330
20
100
AcDbEntity
  8
0
  6
Continuous
 62
     7
100
AcDbLine
 10
-33.86603155138452
 20
11.5000111188711
 30
0.0
 11
-34.73206337465219
 21
10.0
 31
0.0
  0
LINE
  5
15B
330
20
100
AcDbEntity
  8
0
  6
Continuous
 62
     7
100
AcDbLine
 10
-34.73206337465219
 20
10.0
 30
0.0
 11
-33.86603155138452
 21
8.499988881128899
 31
0.0
  0
LINE
  5
15C
330
20
100
AcDbEntity
  8
0
  6
Continuous
 62
     7
100
AcDbLine
 10
-33.86603155138452
 20
8.499988881128899
 30
0.0
 11
-32.1339679048492
 21
8.499988881128899
 31
0.0
  0
LINE
  5
15D
330
20
100
AcDbEntity
  8
0
  6
Continuous
 62
     7
100
AcDbLine
 10
-32.1339679048492
 20
8.499988881128899
 30
0.0
 11
-31.26793608158154
 21
10.0
 31
0.0
  0
LINE
  5
15E
330
20
100
AcDbEntity
  8
0
  6
Continuous
 62
     7
100
AcDbLine
 10
-31.26793608158154
 20
-10.0
 30
0.0
 11
-32.1339679048492
 21
-8.499988881128899
 31
0.0
  0
LINE
  5
15F
330
20
100
AcDbEntity
  8
0
  6
Continuous
 62
     7
100
AcDbLine
 10
-33.86603155138452
 20
-8.499988881128899
 30
0.0
 11
-34.73206337465219
 21
-10.0
 31
0.0
  0
LINE
  5
160
330
20
100
AcDbEntity
  8
0
  6
Continuous
 62
     7
100
AcDbLine
 10
-34.73206337465219
 20
-10.0
 30
0.0
 11
-33.86603155138452
 21
-11.5000111188711
 31
0.0
  0
LINE
  5
161
330
20
100
AcDbEntity
  8
0
  6
Continuous
 62
     7
100
AcDbLine
 10
-32.1339679048492
 20
-11.5000111188711
 30
0.0
 11
-31.26793608158154
 21
-10.0
 31
0.0
  0
LINE
  5
162
330
20
100
AcDbEntity
  8
0
  6
Continuous
 62
     7
100
AcDbLine
 10
-33.86603155138452
 20
-11.5000111188711
 30
0.0
 11
-32.1339679048492
 21
-11.5000111188711
 31
0.0
  0
LINE
  5
163
330
20
100
AcDbEntity
  8
0
  6
Continuous
 62
     7
100
AcDbLine
 10
-32.1339679048492
 20
-8.499988881128899
 30
0.0
 11
-33.86603155138452
 21
-8.499988881128899
 31
0.0
  0
LINE
  5
164
330
20
100
AcDbEntity
  8
0
  6
Continuous
 62
     7
100
AcDbLine
 10
9.571816115684086
 20
-33.57883834838867
 30
0.0
 11
8.705784292416424
 21
-32.07882722951757
 31
0.0
  0
LINE
  5
165
330
20
100
AcDbEntity
  8
0
  6
Continuous
 62
     7
100
AcDbLine
 10
6.973720645881101
 20
-32.07882722951757
 30
0.0
 11
6.10768882261344
 21
-33.57883834838867
 31
0.0
  0
LINE
  5
166
330
20
100
AcDbEntity
  8
0
  6
Continuous
 62
     7
100
AcDbLine
 10
6.10768882261344
 20
-33.57883834838867
 30
0.0
 11
6.973720645881101
 21
-35.07884946725977
 31
0.0
  0
LINE
  5
167
330
20
100
AcDbEntity
  8
0
  6
Continuous
 62
     7
100
AcDbLine
 10
8.705784292416424
 20
-35.07884946725977
 30
0.0
 11
9.571816115684086
 21
-33.57883834838867
 31
0.0
  0
LINE
  5
168
330
20
100
AcDbEntity
  8
0
  6
Continuous
 62
     7
100
AcDbLine
 10
6.973720645881101
 20
-35.07884946725977
 30
0.0
 11
8.705784292416424
 21
-35.07884946725977
 31
0.0
  0
LINE
  5
169
330
20
100
AcDbEntity
  8
0
  6
Continuous
 62
     7
100
AcDbLine
 10
8.705784292416424
 20
-32.07882722951757
 30
0.0
 11
6.973720645881101
 21
-32.07882722951757
 31
0.0
  0
LINE
  5
16A
330
20
100
AcDbEntity
  8
0
  6
Continuous
 62
     7
100
AcDbLine
 10
26.89231935054737
 20
-23.57883834838867
 30
0.0
 11
26.0262875272797
 21
-22.07882722951756
 31
0.0
  0
LINE
  5
16B
330
20
100
AcDbEntity
  8
0
  6
Continuous
 62
     7
100
AcDbLine
 10
24.29422388074439
 20
-22.07882722951756
 30
0.0
 11
23.42819205747672
 21
-23.57883834838867
 31
0.0
  0
LINE
  5
16C
330
20
100
AcDbEntity
  8
0
  6
Continuous
 62
     7
100
AcDbLine
 10
23.42819205747672
 20
-23.57883834838867
 30
0.0
 11
24.29422388074439
 21
-25.07884946725977
 31
0.0
  0
LINE
  5
16D
330
20
100
AcDbEntity
  8
0
  6
Continuous
 62
     7
100
AcDbLine
 10
26.0262875272797
 20
-25.07884946725977
 30
0.0
 11
26.89231935054737
 21
-23.57883834838867
 31
0.0
  0
LINE
  5
16E
330
20
100
AcDbEntity
  8
0
  6
Continuous
 62
     7
100
AcDbLine
 10
24.29422388074439
 20
-25.07884946725977
 30
0.0
 11
26.0262875272797
 21
-25.07884946725977
 31
0.0
  0
LINE
  5
16F
330
20
100
AcDbEntity
  8
0
  6
Continuous
 62
     7
100
AcDbLine
 10
26.0262875272797
 20
-22.07882722951756
 30
0.0
 11
24.29422388074439
 21
-22.07882722951756
 31
0.0
  0
LINE
  5
170
330
20
100
AcDbEntity
  8
0
  6
Continuous
 62
     7
100
AcDbLine
 10
9.571816115684086
 20
33.57884216308593
 30
0.0
 11
8.705784292416424
 21
35.07885328195704
 31
0.0
  0
LINE
  5
171
330
20
100
AcDbEntity
  8
0
  6
Continuous
 62
     7
100
AcDbLine
 10
6.973720645881101
 20
35.07885328195704
 30
0.0
 11
6.10768882261344
 21
33.57884216308593
 31
0.0
  0
LINE
  5
172
330
20
100
AcDbEntity
  8
0
  6
Continuous
 62
     7
100
AcDbLine
 10
6.10768882261344
 20
33.57884216308593
 30
0.0
 11
6.973720645881101
 21
32.07883104421484
 31
0.0
  0
LINE
  5
173
330
20
100
AcDbEntity
  8
0
  6
Continuous
 62
     7
100
AcDbLine
 10
8.705784292416424
 20
32.07883104421484
 30
0.0
 11
9.571816115684086
 21
33.57884216308593
 31
0.0
  0
LINE
  5
174
330
20
100
AcDbEntity
  8
0
  6
Continuous
 62
     7
100
AcDbLine
 10
6.973720645881101
 20
32.07883104421484
 30
0.0
 11
8.705784292416424
 21
32.07883104421484
 31
0.0
  0
LINE
  5
175
330
20
100
AcDbEntity
  8
0
  6
Continuous
 62
     7
100
AcDbLine
 10
8.705784292416424
 20
35.07885328195704
 30
0.0
 11
6.973720645881101
 21
35.07885328195704
 31
0.0
  0
LINE
  5
176
330
20
100
AcDbEntity
  8
0
  6
Continuous
 62
     7
100
AcDbLine
 10
26.89231935054737
 20
23.57884216308594
 30
0.0
 11
26.0262875272797
 21
25.07885328195704
 31
0.0
  0
LINE
  5
177
330
20
100
AcDbEntity
  8
0
  6
Continuous
 62
     7
100
AcDbLine
 10
24.29422388074439
 20
25.07885328195704
 30
0.0
 11
23.42819205747672
 21
23.57884216308594
 31
0.0
  0
LINE
  5
178
330
20
100
AcDbEntity
  8
0
  6
Continuous
 62
     7
100
AcDbLine
 10
23.42819205747672
 20
23.57884216308594
 30
0.0
 11
24.29422388074439
 21
22.07883104421484
 31
0.0
  0
LINE
  5
179
330
20
100
AcDbEntity
  8
0
  6
Continuous
 62
     7
100
AcDbLine
 10
26.0262875272797
 20
22.07883104421484
 30
0.0
 11
26.89231935054737
 21
23.57884216308594
 31
0.0
  0
LINE
  5
17A
330
20
100
AcDbEntity
  8
0
  6
Continuous
 62
     7
100
AcDbLine
 10
24.29422388074439
 20
22.07883104421484
 30
0.0
 11
26.0262875272797
 21
22.07883104421484
 31
0.0
  0
LINE
  5
17B
330
20
100
AcDbEntity
  8
0
  6
Continuous
 62
     7
100
AcDbLine
 10
26.0262875272797
 20
25.07885328195704
 30
0.0
 11
24.29422388074439
 21
25.07885328195704
 31
0.0
  0
CIRCLE
  5
17C
330
20
100
AcDbEntity
  8
0
  6
Continuous
 62
     7
100
AcDbCircle
 10
-13.00000017499526
 20
22.51666039736184
 30
0.0
 40
2.5
  0
CIRCLE
  5
17D
330
20
100
AcDbEntity
  8
0
  6
Continuous
 62
     7
100
AcDbCircle
 10
-13.00000017499526
 20
22.51666039736184
 30
0.0
 40
2.0
  0
CIRCLE
  5
17E
330
20
100
AcDbEntity
  8
0
  6
Continuous
 62
     7
100
AcDbCircle
 10
-13.00000017499526
 20
-22.51666039736185
 30
0.0
 40
2.0
  0
CIRCLE
  5
17F
330
20
100
AcDbEntity
  8
0
  6
Continuous
 62
     7
100
AcDbCircle
 10
-13.00000017499526
 20
-22.51666039736185
 30
0.0
 40
2.5
  0
CIRCLE
  5
180
330
20
100
AcDbEntity
  8
0
  6
Continuous
 62
     7
100
AcDbCircle
 10
8.499996299722667
 20
-14.7224251910256
 30
0.0
 40
2.5
  0
ENDBLK
  5
181
330
20
100
AcDbEntity
  8
0
100
AcDbBlockEnd
  0
BLOCK
  5
182
330
21
100
AcDbEntity
  8
0
100
AcDbBlockBegin
  2
NHE1D-25-4
 70
     0
 10
0.0
 20
0.0
 30
0.0
  3
NHE1D-25-4
  1

  0
LINE
  5
183
330
21
100
AcDbEntity
  8
0
  6
Continuous
 62
     2
100
AcDbLine
 10
-4.5
 20
-22.00001525878906
 30
0.0
 11
4.5
 21
-22.00001525878906
 31
0.0
  0
ARC
  5
184
330
21
100
AcDbEntity
  8
0
  6
Continuous
 62
     7
100
AcDbCircle
 10
5.0
 20
12.09999847412109
 30
0.0
 40
1.25
100
AcDbArc
 50
179.9999993167547
 51
359.9999974955218
  0
ARC
  5
185
330
21
100
AcDbEntity
  8
0
  6
Continuous
 62
     7
100
AcDbCircle
 10
5.0
 20
24.89998626708985
 30
0.0
 40
1.25
100
AcDbArc
 50
359.9999974955218
 51
180.0000025044782
  0
ARC
  5
186
330
21
100
AcDbEntity
  8
0
  6
Continuous
 62
     7
100
AcDbCircle
 10
5.0
 20
20.59613800048828
 30
0.0
 40
1.0
100
AcDbArc
 50
359.9999974955218
 51
180.0000093346674
  0
ARC
  5
187
330
21
100
AcDbEntity
  8
0
  6
Continuous
 62
     7
100
AcDbCircle
 10
36.0
 20
11.0
 30
0.0
 40
2.165063619613647
100
AcDbArc
 50
89.99999344871278
 51
270.0000050089563
  0
ARC
  5
188
330
21
100
AcDbEntity
  8
0
  6
Continuous
 62
     7
100
AcDbCircle
 10
36.0
 20
10.0
 30
0.0
 40
2.165063619613647
100
AcDbArc
 50
89.99999344871278
 51
166.6475632431827
  0
ARC
  5
189
330
21
100
AcDbEntity
  8
0
  6
Continuous
 62
     7
100
AcDbCircle
 10
35.78564071655273
 20
10.0
 30
0.0
 40
1.385639309883117
100
AcDbArc
 50
89.99999180254238
 51
205.3038111528136
  0
LINE
  5
18A
330
21
100
AcDbEntity
  8
0
  6
Continuous
 62
     7
100
AcDbLine
 10
32.0
 20
30.0
 30
0.0
 11
71.5
 21
30.0
 31
0.0
  0
LINE
  5
18B
330
21
100
AcDbEntity
  8
0
  6
CENTER
 62
     2
100
AcDbLine
 10
-10.0
 20
0.0
 30
0.0
 11
77.0
 21
0.0
 31
0.0
  0
LINE
  5
18C
330
21
100
AcDbEntity
  8
0
  6
Continuous
 62
     7
100
AcDbLine
 10
72.0
 20
-22.0
 30
0.0
 11
72.0
 21
29.5
 31
0.0
  0
LINE
  5
18D
330
21
100
AcDbEntity
  8
0
  6
Continuous
 62
     7
100
AcDbLine
 10
23.0
 20
-29.99999809265137
 30
0.0
 11
33.0
 21
-29.99999809265137
 31
0.0
  0
LINE
  5
18E
330
21
100
AcDbEntity
  8
0
  6
Continuous
 62
     7
100
AcDbLine
 10
72.00000480853531
 20
29.50000661746389
 30
0.0
 11
71.50000427774056
 21
30.00000714825865
 31
0.0
  0
LINE
  5
18F
330
21
100
AcDbEntity
  8
0
  6
Continuous
 62
     7
100
AcDbLine
 10
71.5
 20
-22.0
 30
0.0
 11
71.5
 21
-6.66351318359375
 31
0.0
  0
LINE
  5
190
330
21
100
AcDbEntity
  8
0
  6
Continuous
 62
     7
100
AcDbLine
 10
22.0
 20
-40.00000762939452
 30
0.0
 11
10.0
 21
-40.00000762939452
 31
0.0
  0
LINE
  5
191
330
21
100
AcDbEntity
  8
0
  6
Continuous
 62
     7
100
AcDbLine
 10
23.0
 20
-39.00000810247366
 30
0.0
 11
23.0
 21
-29.99999809265137
 31
0.0
  0
LINE
  5
192
330
21
100
AcDbEntity
  8
0
  6
Continuous
 62
     7
100
AcDbLine
 10
22.0
 20
4.473907470703125
 30
0.0
 11
10.0
 21
4.473907470703125
 31
0.0
  0
LINE
  5
193
330
21
100
AcDbEntity
  8
0
  6
Continuous
 62
     7
100
AcDbLine
 10
22.0
 20
32.18670654296875
 30
0.0
 11
10.0
 21
32.18670654296875
 31
0.0
  0
LINE
  5
194
330
21
100
AcDbEntity
  8
0
  6
Continuous
 62
     7
100
AcDbLine
 10
23.0
 20
-1.16781997680664
 30
0.0
 11
23.0
 21
31.18670654296875
 31
0.0
  0
LINE
  5
195
330
21
100
AcDbEntity
  8
0
  6
Continuous
 62
     7
100
AcDbLine
 10
10.0
 20
-40.00000762939452
 30
0.0
 11
10.0
 21
7.135169982910156
 31
0.0
  0
LINE
  5
196
330
21
100
AcDbEntity
  8
0
  6
Continuous
 62
     7
100
AcDbLine
 10
22.00000163092807
 20
-40.0000064715456
 30
0.0
 11
23.0
 21
-39.00000810247366
 31
0.0
  0
LINE
  5
197
330
21
100
AcDbEntity
  8
0
  6
Continuous
 62
     7
100
AcDbLine
 10
23.0
 20
31.18670654296875
 30
0.0
 11
22.0
 21
32.18670654296875
 31
0.0
  0
LINE
  5
198
330
21
100
AcDbEntity
  8
0
  6
Continuous
 62
     7
100
AcDbLine
 10
32.0
 20
-1.16781997680664
 30
0.0
 11
23.0
 21
-1.16781997680664
 31
0.0
  0
LINE
  5
199
330
21
100
AcDbEntity
  8
0
  6
Continuous
 62
     7
100
AcDbLine
 10
32.0
 20
26.54497528076172
 30
0.0
 11
23.0
 21
26.54497528076172
 31
0.0
  0
LINE
  5
19A
330
21
100
AcDbEntity
  8
0
  6
Continuous
 62
     7
100
AcDbLine
 10
32.0
 20
-29.99999809265137
 30
0.0
 11
32.0
 21
-1.16781997680664
 31
0.0
  0
LINE
  5
19B
330
21
100
AcDbEntity
  8
0
  6
Continuous
 62
     7
100
AcDbLine
 10
22.0
 20
4.473907470703125
 30
0.0
 11
22.0
 21
32.18670654296875
 31
0.0
  0
LINE
  5
19C
330
21
100
AcDbEntity
  8
0
  6
Continuous
 62
     7
100
AcDbLine
 10
22.00000567702545
 20
4.473901631362878
 30
0.0
 11
23.00000134381844
 21
3.473905964569894
 31
0.0
  0
LINE
  5
19D
330
21
100
AcDbEntity
  8
0
  6
Continuous
 62
     7
100
AcDbLine
 10
13.0
 20
7.135169982910156
 30
0.0
 11
13.0
 21
30.51785278320313
 31
0.0
  0
LINE
  5
19E
330
21
100
AcDbEntity
  8
0
  6
Continuous
 62
     7
100
AcDbLine
 10
13.0
 20
7.135169982910156
 30
0.0
 11
10.0
 21
7.135169982910156
 31
0.0
  0
LINE
  5
19F
330
21
100
AcDbEntity
  8
0
  6
Continuous
 62
     7
100
AcDbLine
 10
10.0
 20
6.80866241455078
 30
0.0
 11
3.0
 21
6.80866241455078
 31
0.0
  0
LINE
  5
1A0
330
21
100
AcDbEntity
  8
0
  6
Continuous
 62
     7
100
AcDbLine
 10
13.0
 20
30.51785278320313
 30
0.0
 11
10.0
 21
30.51785278320313
 31
0.0
  0
LINE
  5
1A1
330
21
100
AcDbEntity
  8
0
  6
Continuous
 62
     7
100
AcDbLine
 10
13.0
 20
30.19133758544922
 30
0.0
 11
3.0
 21
30.19133758544922
 31
0.0
  0
LINE
  5
1A2
330
21
100
AcDbEntity
  8
0
  6
Continuous
 62
     7
100
AcDbLine
 10
3.0
 20
-36.99999809265137
 30
0.0
 11
3.0
 21
12.09999847412109
 31
0.0
  0
LINE
  5
1A3
330
21
100
AcDbEntity
  8
0
  6
Continuous
 62
     7
100
AcDbLine
 10
10.0
 20
30.19133758544922
 30
0.0
 11
10.0
 21
32.18670654296875
 31
0.0
  0
LINE
  5
1A4
330
21
100
AcDbEntity
  8
0
  6
Continuous
 62
     7
100
AcDbLine
 10
10.0
 20
-36.99999809265137
 30
0.0
 11
3.0
 21
-36.99999809265137
 31
0.0
  0
LINE
  5
1A5
330
21
100
AcDbEntity
  8
0
  6
Continuous
 62
     7
100
AcDbLine
 10
23.0
 20
-36.66060638427734
 30
0.0
 11
10.0
 21
-36.66060638427734
 31
0.0
  0
LINE
  5
1A6
330
21
100
AcDbEntity
  8
0
  6
Continuous
 62
     7
100
AcDbLine
 10
22.0
 20
-40.00000762939452
 30
0.0
 11
22.0
 21
-36.66060638427734
 31
0.0
  0
LINE
  5
1A7
330
21
100
AcDbEntity
  8
0
  6
Continuous
 62
     7
100
AcDbLine
 10
3.0
 20
-30.00000762939453
 30
0.0
 11
1.0
 21
-30.00000762939453
 31
0.0
  0
LINE
  5
1A8
330
21
100
AcDbEntity
  8
0
  6
Continuous
 62
     7
100
AcDbLine
 10
3.0
 20
-29.00000762939453
 30
0.0
 11
0.0
 21
-29.00000762939453
 31
0.0
  0
LINE
  5
1A9
330
21
100
AcDbEntity
  8
0
  6
Continuous
 62
     7
100
AcDbLine
 10
3.0
 20
-7.000007629394531
 30
0.0
 11
0.0
 21
-7.000007629394531
 31
0.0
  0
LINE
  5
1AA
330
21
100
AcDbEntity
  8
0
  6
Continuous
 62
     7
100
AcDbLine
 10
3.0
 20
-6.000007629394531
 30
0.0
 11
1.0
 21
-6.000007629394531
 31
0.0
  0
LINE
  5
1AB
330
21
100
AcDbEntity
  8
0
  6
Continuous
 62
     7
100
AcDbLine
 10
0.0
 20
-29.00000762939453
 30
0.0
 11
0.0
 21
-7.000007629394531
 31
0.0
  0
LINE
  5
1AC
330
21
100
AcDbEntity
  8
0
  6
Continuous
 62
     7
100
AcDbLine
 10
1.0
 20
-30.00000762939453
 30
0.0
 11
1.0
 21
-29.00000762939453
 31
0.0
  0
LINE
  5
1AD
330
21
100
AcDbEntity
  8
0
  6
Continuous
 62
     7
100
AcDbLine
 10
1.0
 20
-7.000007629394531
 30
0.0
 11
1.0
 21
-6.000007629394531
 31
0.0
  0
LINE
  5
1AE
330
21
100
AcDbEntity
  8
0
  6
Continuous
 62
     7
100
AcDbLine
 10
7.5
 20
12.09999847412109
 30
0.0
 11
7.5
 21
24.89998626708985
 31
0.0
  0
LINE
  5
1AF
330
21
100
AcDbEntity
  8
0
  6
Continuous
 62
     7
100
AcDbLine
 10
3.0
 20
24.89998626708985
 30
0.0
 11
3.75
 21
24.89998626708985
 31
0.0
  0
LINE
  5
1B0
330
21
100
AcDbEntity
  8
0
  6
Continuous
 62
     7
100
AcDbLine
 10
3.0
 20
12.09999847412109
 30
0.0
 11
3.75
 21
12.09999847412109
 31
0.0
  0
LINE
  5
1B1
330
21
100
AcDbEntity
  8
0
  6
Continuous
 62
     7
100
AcDbLine
 10
6.25
 20
24.89998626708985
 30
0.0
 11
7.5
 21
24.89998626708985
 31
0.0
  0
LINE
  5
1B2
330
21
100
AcDbEntity
  8
0
  6
Continuous
 62
     7
100
AcDbLine
 10
6.25
 20
12.09999847412109
 30
0.0
 11
7.5
 21
12.09999847412109
 31
0.0
  0
LINE
  5
1B3
330
21
100
AcDbEntity
  8
0
  6
Continuous
 62
     7
100
AcDbLine
 10
4.0
 20
20.19614410400391
 30
0.0
 11
1.0
 21
20.19614410400391
 31
0.0
  0
LINE
  5
1B4
330
21
100
AcDbEntity
  8
0
  6
Continuous
 62
     7
100
AcDbLine
 10
1.0
 20
19.6961441040039
 30
0.0
 11
0.0
 21
19.6961441040039
 31
0.0
  0
LINE
  5
1B5
330
21
100
AcDbEntity
  8
0
  6
Continuous
 62
     7
100
AcDbLine
 10
3.0
 20
9.803840637207031
 30
0.0
 11
1.0
 21
9.803840637207031
 31
0.0
  0
LINE
  5
1B6
330
21
100
AcDbEntity
  8
0
  6
Continuous
 62
     7
100
AcDbLine
 10
3.0
 20
9.303840637207031
 30
0.0
 11
0.0
 21
9.303840637207031
 31
0.0
  0
LINE
  5
1B7
330
21
100
AcDbEntity
  8
0
  6
Continuous
 62
     7
100
AcDbLine
 10
1.0
 20
9.803840637207031
 30
0.0
 11
1.0
 21
20.19614410400391
 31
0.0
  0
LINE
  5
1B8
330
21
100
AcDbEntity
  8
0
  6
Continuous
 62
     7
100
AcDbLine
 10
7.0
 20
12.09999847412109
 30
0.0
 11
7.0
 21
20.19614410400391
 31
0.0
  0
LINE
  5
1B9
330
21
100
AcDbEntity
  8
0
  6
Continuous
 62
     7
100
AcDbLine
 10
4.0
 20
20.19614410400391
 30
0.0
 11
4.0
 21
20.59613800048828
 31
0.0
  0
LINE
  5
1BA
330
21
100
AcDbEntity
  8
0
  6
Continuous
 62
     7
100
AcDbLine
 10
6.0
 20
20.19614410400391
 30
0.0
 11
6.0
 21
20.59613800048828
 31
0.0
  0
LINE
  5
1BB
330
21
100
AcDbEntity
  8
0
  6
Continuous
 62
     7
100
AcDbLine
 10
6.0
 20
20.19614410400391
 30
0.0
 11
7.0
 21
20.19614410400391
 31
0.0
  0
LINE
  5
1BC
330
21
100
AcDbEntity
  8
0
  6
Continuous
 62
     7
100
AcDbLine
 10
0.0
 20
-1.696159362792968
 30
0.0
 11
0.0
 21
19.6961441040039
 31
0.0
  0
LINE
  5
1BD
330
21
100
AcDbEntity
  8
0
  6
Continuous
 62
     7
100
AcDbLine
 10
3.0
 20
20.19614410400391
 30
0.0
 11
3.0
 21
30.19133758544922
 31
0.0
  0
LINE
  5
1BE
330
21
100
AcDbEntity
  8
0
  6
Continuous
 62
     7
100
AcDbLine
 10
6.25
 20
20.19614410400391
 30
0.0
 11
6.25
 21
24.89998626708985
 31
0.0
  0
LINE
  5
1BF
330
21
100
AcDbEntity
  8
0
  6
Continuous
 62
     7
100
AcDbLine
 10
3.75
 20
20.19614410400391
 30
0.0
 11
3.75
 21
24.89998626708985
 31
0.0
  0
LINE
  5
1C0
330
21
100
AcDbEntity
  8
0
  6
Continuous
 62
     7
100
AcDbLine
 10
3.0
 20
-1.696159362792968
 30
0.0
 11
0.0
 21
-1.696159362792968
 31
0.0
  0
LINE
  5
1C1
330
21
100
AcDbEntity
  8
0
  6
Continuous
 62
     7
100
AcDbLine
 10
3.0
 20
-2.196144104003906
 30
0.0
 11
1.0
 21
-2.196144104003906
 31
0.0
  0
LINE
  5
1C2
330
21
100
AcDbEntity
  8
0
  6
Continuous
 62
     7
100
AcDbLine
 10
1.0
 20
-2.196144104003906
 30
0.0
 11
1.0
 21
-1.696159362792968
 31
0.0
  0
LINE
  5
1C3
330
21
100
AcDbEntity
  8
0
  6
Continuous
 62
     7
100
AcDbLine
 10
10.0
 20
-12.25000381469726
 30
0.0
 11
7.0
 21
-12.25000381469726
 31
0.0
  0
LINE
  5
1C4
330
21
100
AcDbEntity
  8
0
  6
Continuous
 62
     7
100
AcDbLine
 10
7.0
 20
-12.00000381469726
 30
0.0
 11
4.300003051757812
 21
-12.00000381469726
 31
0.0
  0
LINE
  5
1C5
330
21
100
AcDbEntity
  8
0
  6
Continuous
 62
     7
100
AcDbLine
 10
10.0
 20
-6.064899444580078
 30
0.0
 11
3.0
 21
-6.064899444580078
 31
0.0
  0
LINE
  5
1C6
330
21
100
AcDbEntity
  8
0
  6
Continuous
 62
     7
100
AcDbLine
 10
4.000002752803993
 20
-11.70000583020373
 30
0.0
 11
4.30000199232154
 21
-12.00000506972128
 31
0.0
  0
LINE
  5
1C7
330
21
100
AcDbEntity
  8
0
  6
Continuous
 62
     7
100
AcDbLine
 10
4.000005450202252
 20
-6.800006562691351
 30
0.0
 11
4.300004689719798
 21
-6.500007323173804
 31
0.0
  0
LINE
  5
1C8
330
21
100
AcDbEntity
  8
0
  6
Continuous
 62
     7
100
AcDbLine
 10
4.0
 20
-11.70000457763672
 30
0.0
 11
4.0
 21
-6.800003051757812
 31
0.0
  0
LINE
  5
1C9
330
21
100
AcDbEntity
  8
0
  6
Continuous
 62
     7
100
AcDbLine
 10
7.0
 20
-12.25000381469726
 30
0.0
 11
7.0
 21
-6.064899444580078
 31
0.0
  0
LINE
  5
1CA
330
21
100
AcDbEntity
  8
0
  6
Continuous
 62
     7
100
AcDbLine
 10
4.300003051757812
 20
-6.500003814697265
 30
0.0
 11
4.300003051757812
 21
-12.00000381469726
 31
0.0
  0
LINE
  5
1CB
330
21
100
AcDbEntity
  8
0
  6
Continuous
 62
     7
100
AcDbLine
 10
7.0
 20
-6.500003814697265
 30
0.0
 11
4.300003051757812
 21
-6.500003814697265
 31
0.0
  0
LINE
  5
1CC
330
21
100
AcDbEntity
  8
0
  6
Continuous
 62
     7
100
AcDbLine
 10
7.0
 20
-6.429439544677734
 30
0.0
 11
3.0
 21
-6.429439544677734
 31
0.0
  0
LINE
  5
1CD
330
21
100
AcDbEntity
  8
0
  6
Continuous
 62
     7
100
AcDbLine
 10
4.0
 20
-11.54814147949219
 30
0.0
 11
3.0
 21
-11.54814147949219
 31
0.0
  0
LINE
  5
1CE
330
21
100
AcDbEntity
  8
0
  6
Continuous
 62
     7
100
AcDbLine
 10
32.0
 20
26.54497528076172
 30
0.0
 11
32.0
 21
30.0
 31
0.0
  0
LINE
  5
1CF
330
21
100
AcDbEntity
  8
0
  6
Continuous
 62
     7
100
AcDbLine
 10
0.0
 20
-16.50001144409179
 30
0.0
 11
-2.699996948242187
 21
-16.50001144409179
 31
0.0
  0
LINE
  5
1D0
330
21
100
AcDbEntity
  8
0
  6
Continuous
 62
     7
100
AcDbLine
 10
-3.0
 20
-11.80001449584961
 30
0.0
 11
-3.0
 21
-16.20000839233398
 31
0.0
  0
LINE
  5
1D1
330
21
100
AcDbEntity
  8
0
  6
Continuous
 62
     7
100
AcDbLine
 10
-2.699996948242187
 20
-11.50001144409179
 30
0.0
 11
-2.699996948242187
 21
-16.50001144409179
 31
0.0
  0
LINE
  5
1D2
330
21
100
AcDbEntity
  8
0
  6
Continuous
 62
     7
100
AcDbLine
 10
0.0
 20
-11.50001144409179
 30
0.0
 11
-2.699996948242187
 21
-11.50001144409179
 31
0.0
  0
LINE
  5
1D3
330
21
100
AcDbEntity
  8
0
  6
Continuous
 62
     2
100
AcDbLine
 10
-6.0
 20
-14.00001525878906
 30
0.0
 11
3.0
 21
-14.00001525878906
 31
0.0
  0
LINE
  5
1D4
330
21
100
AcDbEntity
  8
0
  6
Continuous
 62
     7
100
AcDbLine
 10
-2.699996948242187
 20
-11.50001144409179
 30
0.0
 11
-3.0
 21
-11.80001449584961
 31
0.0
  0
LINE
  5
1D5
330
21
100
AcDbEntity
  8
0
  6
Continuous
 62
     7
100
AcDbLine
 10
-3.0
 20
-16.20000839233398
 30
0.0
 11
-2.699996948242187
 21
-16.50001144409179
 31
0.0
  0
LINE
  5
1D6
330
21
100
AcDbEntity
  8
0
  6
Continuous
 62
     2
100
AcDbLine
 10
-6.0
 20
7.0
 30
0.0
 11
3.0
 21
7.0
 31
0.0
  0
LINE
  5
1D7
330
21
100
AcDbEntity
  8
0
  6
Continuous
 62
     7
100
AcDbLine
 10
-3.0
 20
9.199996948242189
 30
0.0
 11
-3.0
 21
4.800003051757812
 31
0.0
  0
LINE
  5
1D8
330
21
100
AcDbEntity
  8
0
  6
Continuous
 62
     7
100
AcDbLine
 10
-2.699996948242187
 20
9.5
 30
0.0
 11
-2.699996948242187
 21
4.5
 31
0.0
  0
LINE
  5
1D9
330
21
100
AcDbEntity
  8
0
  6
Continuous
 62
     7
100
AcDbLine
 10
0.0
 20
4.5
 30
0.0
 11
-2.699996948242187
 21
4.5
 31
0.0
  0
LINE
  5
1DA
330
21
100
AcDbEntity
  8
0
  6
Continuous
 62
     7
100
AcDbLine
 10
0.0
 20
9.5
 30
0.0
 11
-2.699996948242187
 21
9.5
 31
0.0
  0
LINE
  5
1DB
330
21
100
AcDbEntity
  8
0
  6
Continuous
 62
     7
100
AcDbLine
 10
-2.699996948242187
 20
9.5
 30
0.0
 11
-3.0
 21
9.199996948242189
 31
0.0
  0
LINE
  5
1DC
330
21
100
AcDbEntity
  8
0
  6
Continuous
 62
     7
100
AcDbLine
 10
-3.0
 20
4.800003051757812
 30
0.0
 11
-2.699996948242187
 21
4.5
 31
0.0
  0
LINE
  5
1DD
330
21
100
AcDbEntity
  8
0
  6
Continuous
 62
     7
100
AcDbLine
 10
71.5
 20
28.66352081298828
 30
0.0
 11
71.5
 21
30.0
 31
0.0
  0
LINE
  5
1DE
330
21
100
AcDbEntity
  8
0
  6
Continuous
 62
     7
100
AcDbLine
 10
72.0
 20
-22.0
 30
0.0
 11
33.0
 21
-22.0
 31
0.0
  0
LINE
  5
1DF
330
21
100
AcDbEntity
  8
0
  6
Continuous
 62
     7
100
AcDbLine
 10
72.0
 20
-6.66351318359375
 30
0.0
 11
33.0
 21
-6.66351318359375
 31
0.0
  0
LINE
  5
1E0
330
21
100
AcDbEntity
  8
0
  6
Continuous
 62
     7
100
AcDbLine
 10
72.0
 20
28.66352081298828
 30
0.0
 11
33.0
 21
28.66352081298828
 31
0.0
  0
LINE
  5
1E1
330
21
100
AcDbEntity
  8
0
  6
Continuous
 62
     7
100
AcDbLine
 10
33.0
 20
-29.99999809265137
 30
0.0
 11
33.0
 21
-22.0
 31
0.0
  0
LINE
  5
1E2
330
21
100
AcDbEntity
  8
0
  6
Continuous
 62
     7
100
AcDbLine
 10
33.0
 20
-6.66351318359375
 30
0.0
 11
33.0
 21
28.66352081298828
 31
0.0
  0
LINE
  5
1E3
330
21
100
AcDbEntity
  8
0
  6
Continuous
 62
     7
100
AcDbLine
 10
72.0
 20
8.834938049316406
 30
0.0
 11
36.0
 21
8.834938049316406
 31
0.0
  0
LINE
  5
1E4
330
21
100
AcDbEntity
  8
0
  6
Continuous
 62
     7
100
AcDbLine
 10
72.0
 20
13.16506195068359
 30
0.0
 11
36.0
 21
13.16506195068359
 31
0.0
  0
LINE
  5
1E5
330
21
100
AcDbEntity
  8
0
  6
Continuous
 62
     7
100
AcDbLine
 10
72.0
 20
12.16506195068359
 30
0.0
 11
36.0
 21
12.16506195068359
 31
0.0
  0
LINE
  5
1E6
330
21
100
AcDbEntity
  8
0
  6
Continuous
 62
     7
100
AcDbLine
 10
72.0
 20
11.38563537597656
 30
0.0
 11
36.0
 21
11.38563537597656
 31
0.0
  0
ENDBLK
  5
1E7
330
21
100
AcDbEntity
  8
0
100
AcDbBlockEnd
  0
BLOCK
  5
1E8
330
22
100
AcDbEntity
  8
0
100
AcDbBlockBegin
  2
NHE1D-25-5
 70
     0
 10
0.0
 20
0.0
 30
0.0
  3
NHE1D-25-5
  1

  0
LINE
  5
1E9
330
22
100
AcDbEntity
  8
0
  6
Continuous
 62
     2
100
AcDbLine
 10
17.25000000476837
 20
-0.3299995223464407
 30
0.0
 11
19.75000000476837
 21
-4.659999522346453
 31
0.0
  0
LINE
  5
1EA
330
22
100
AcDbEntity
  8
0
  6
Continuous
 62
     2
100
AcDbLine
 10
0.9500000047683554
 20
0.6001359972752312
 30
0.0
 11
0.9500000047683554
 21
0.0
 31
0.0
  0
LINE
  5
1EB
330
22
100
AcDbEntity
  8
0
  6
Continuous
 62
     2
100
AcDbLine
 10
3.050000004768378
 20
0.6001359972752312
 30
0.0
 11
3.050000004768378
 21
0.0
 31
0.0
  0
LINE
  5
1EC
330
22
100
AcDbEntity
  8
0
  6
Continuous
 62
     7
100
AcDbLine
 10
0.7514285761969291
 20
0.4001359972752141
 30
0.0
 11
3.251428576196928
 21
0.4001359972752141
 31
0.0
  0
LINE
  5
1ED
330
22
100
AcDbEntity
  8
0
  6
Continuous
 62
     7
100
AcDbLine
 10
3.05142857619694
 20
0.6001359972752312
 30
0.0
 11
3.251428576196928
 21
0.4001359972752141
 31
0.0
  0
LINE
  5
1EE
330
22
100
AcDbEntity
  8
0
  6
Continuous
 62
     7
100
AcDbLine
 10
0.7514285761969291
 20
0.4001359972752141
 30
0.0
 11
0.9514285761969174
 21
0.6001359972752312
 31
0.0
  0
LINE
  5
1EF
330
22
100
AcDbEntity
  8
0
  6
Continuous
 62
     7
100
AcDbLine
 10
3.251428576196928
 20
0.4001359972752141
 30
0.0
 11
3.251428576196928
 21
0.0
 31
0.0
  0
LINE
  5
1F0
330
22
100
AcDbEntity
  8
0
  6
Continuous
 62
     7
100
AcDbLine
 10
0.7514285761969291
 20
0.0
 30
0.0
 11
0.7514285761969291
 21
0.4001359972752141
 31
0.0
  0
LINE
  5
1F1
330
22
100
AcDbEntity
  8
0
  6
Continuous
 62
     2
100
AcDbLine
 10
0.9500000047683554
 20
-2.599864002724785
 30
0.0
 11
0.9500000047683554
 21
-4.098435431296209
 31
0.0
  0
LINE
  5
1F2
330
22
100
AcDbEntity
  8
0
  6
Continuous
 62
     2
100
AcDbLine
 10
3.050000004768378
 20
-2.599864002724785
 30
0.0
 11
3.050000004768378
 21
-4.101292574153347
 31
0.0
  0
LINE
  5
1F3
330
22
100
AcDbEntity
  8
0
  6
Continuous
 62
     7
100
AcDbLine
 10
0.9514285761969174
 20
0.6001359972752312
 30
0.0
 11
3.05142857619694
 21
0.6001359972752312
 31
0.0
  0
LINE
  5
1F4
330
22
100
AcDbEntity
  8
0
  6
Continuous
 62
     7
100
AcDbLine
 10
0.000000004768367
 20
-1.799864002724774
 30
0.0
 11
0.000000004768367
 21
0.0
 31
0.0
  0
LINE
  5
1F5
330
22
100
AcDbEntity
  8
0
  6
Continuous
 62
     2
100
AcDbLine
 10
2.000000004768367
 20
1.286482308440184
 30
0.0
 11
2.000000004768367
 21
-5.067036249354088
 31
0.0
  0
LINE
  5
1F6
330
22
100
AcDbEntity
  8
0
  6
Continuous
 62
     7
100
AcDbLine
 10
4.000000004768367
 20
-1.800000002724772
 30
0.0
 11
4.000000004768367
 21
-2.600000002724784
 31
0.0
  0
LINE
  5
1F7
330
22
100
AcDbEntity
  8
0
  6
Continuous
 62
     7
100
AcDbLine
 10
0.000000004768367
 20
-1.799864002724774
 30
0.0
 11
0.000000004768367
 21
-2.600000002724784
 31
0.0
  0
LINE
  5
1F8
330
22
100
AcDbEntity
  8
0
  6
Continuous
 62
     7
100
AcDbLine
 10
0.7514285761969291
 20
-2.599864002724785
 30
0.0
 11
0.7514285761969291
 21
-3.899864002724783
 31
0.0
  0
LINE
  5
1F9
330
22
100
AcDbEntity
  8
0
  6
Continuous
 62
     2
100
AcDbLine
 10
0.7514285761969291
 20
-3.899864002724783
 30
0.0
 11
3.251428576196928
 21
-3.899864002724783
 31
0.0
  0
LINE
  5
1FA
330
22
100
AcDbEntity
  8
0
  6
Continuous
 62
     7
100
AcDbLine
 10
1.251428576196928
 20
-4.399864002724783
 30
0.0
 11
0.7514285761969291
 21
-3.899864002724783
 31
0.0
  0
LINE
  5
1FB
330
22
100
AcDbEntity
  8
0
  6
Continuous
 62
     7
100
AcDbLine
 10
1.251428576196928
 20
-4.399864002724783
 30
0.0
 11
2.751428576196929
 21
-4.399864002724783
 31
0.0
  0
LINE
  5
1FC
330
22
100
AcDbEntity
  8
0
  6
Continuous
 62
     7
100
AcDbLine
 10
3.251428576196928
 20
-3.899864002724783
 30
0.0
 11
2.751428576196929
 21
-4.399864002724783
 31
0.0
  0
LINE
  5
1FD
330
22
100
AcDbEntity
  8
0
  6
Continuous
 62
     7
100
AcDbLine
 10
3.251428576196928
 20
-2.599864002724785
 30
0.0
 11
3.251428576196928
 21
-3.899864002724783
 31
0.0
  0
LINE
  5
1FE
330
22
100
AcDbEntity
  8
0
  6
Continuous
 62
     7
100
AcDbLine
 10
4.300000004768377
 20
-1.800000002724772
 30
0.0
 11
4.300000004768377
 21
-4.59999952234645
 31
0.0
  0
LINE
  5
1FF
330
22
100
AcDbEntity
  8
0
  6
Continuous
 62
     7
100
AcDbLine
 10
15.50000000476837
 20
-4.59999952234645
 30
0.0
 11
15.50000000476837
 21
0.0
 31
0.0
  0
LINE
  5
200
330
22
100
AcDbEntity
  8
0
  6
Continuous
 62
     7
100
AcDbLine
 10
4.300000003405955
 20
-4.59999952234645
 30
0.0
 11
15.5
 21
-4.59999952234645
 31
0.0
  0
LINE
  5
201
330
22
100
AcDbEntity
  8
0
  6
Continuous
 62
     7
100
AcDbLine
 10
0.0
 20
-1.800000002724772
 30
0.0
 11
4.300000003405955
 21
-1.800000002724772
 31
0.0
  0
LINE
  5
202
330
22
100
AcDbEntity
  8
0
  6
Continuous
 62
     7
100
AcDbLine
 10
0.0
 20
-2.600000002724784
 30
0.0
 11
4.0
 21
-2.600000002724784
 31
0.0
  0
LINE
  5
203
330
22
100
AcDbEntity
  8
0
  6
Continuous
 62
     7
100
AcDbLine
 10
0.0
 20
-1.100000002724783
 30
0.0
 11
15.50000000476837
 21
-1.100000002724783
 31
0.0
  0
LINE
  5
204
330
22
100
AcDbEntity
  8
0
  6
Continuous
 62
     7
100
AcDbLine
 10
0.0
 20
-0.5499999965940106
 30
0.0
 11
15.50000000476837
 21
-0.5499999965940106
 31
0.0
  0
LINE
  5
205
330
22
100
AcDbEntity
  8
0
  6
Continuous
 62
     7
100
AcDbLine
 10
0.0
 20
0.0
 30
0.0
 11
15.50000000476837
 21
0.0
 31
0.0
  0
LINE
  5
206
330
22
100
AcDbEntity
  8
0
  6
Continuous
 62
     7
100
AcDbLine
 10
15.50000000476837
 20
-1.199999522346445
 30
0.0
 11
17.75230947359051
 21
-1.199999522346445
 31
0.0
  0
LINE
  5
207
330
22
100
AcDbEntity
  8
0
  6
Continuous
 62
     7
100
AcDbLine
 10
15.50000000476837
 20
-3.799999522346453
 30
0.0
 11
19.25346420800161
 21
-3.799999522346453
 31
0.0
  0
ENDBLK
  5
208
330
22
100
AcDbEntity
  8
0
100
AcDbBlockEnd
  0
BLOCK
  5
209
330
23
100
AcDbEntity
  8
0
100
AcDbBlockBegin
  2
NHE1D-25-6
 70
     0
 10
0.0
 20
0.0
 30
0.0
  3
NHE1D-25-6
  1

  0
LINE
  5
20A
330
23
100
AcDbEntity
  8
0
  6
Continuous
 62
     7
100
AcDbLine
 10
-0.7471428571428192
 20
-4.399864000000007
 30
0.0
 11
-1.25
 21
-3.897006857142855
 31
0.0
  0
LINE
  5
20B
330
23
100
AcDbEntity
  8
0
  6
Continuous
 62
     2
100
AcDbLine
 10
0.0
 20
-5.067036246629313
 30
0.0
 11
0.0
 21
1.286482311164959
 31
0.0
  0
ARC
  5
20C
330
23
100
AcDbEntity
  8
0
  6
Continuous
 62
     7
100
AcDbCircle
 10
0.0
 20
-2.549998923398334
 30
0.0
 40
2.050000596223346
100
AcDbArc
 50
179.9563015362348
 51
359.9999998959213
  0
LINE
  5
20D
330
23
100
AcDbEntity
  8
0
  6
Continuous
 62
     7
100
AcDbLine
 10
1.25
 20
-3.897006857142855
 30
0.0
 11
0.747142857142876
 21
-4.399864000000007
 31
0.0
  0
LINE
  5
20E
330
23
100
AcDbEntity
  8
0
  6
Continuous
 62
     7
100
AcDbLine
 10
-1.050000000000011
 20
0.6001360000000063
 30
0.0
 11
1.050000000000011
 21
0.6001360000000063
 31
0.0
  0
LINE
  5
20F
330
23
100
AcDbEntity
  8
0
  6
Continuous
 62
     7
100
AcDbLine
 10
-1.25
 20
0.4001359999999893
 30
0.0
 11
1.25
 21
0.4001359999999893
 31
0.0
  0
LINE
  5
210
330
23
100
AcDbEntity
  8
0
  6
Continuous
 62
     7
100
AcDbLine
 10
-1.501428571428561
 20
0.0
 30
0.0
 11
1.5
 21
0.0
 31
0.0
  0
LINE
  5
211
330
23
100
AcDbEntity
  8
0
  6
Continuous
 62
     7
100
AcDbLine
 10
-1.25
 20
-3.897006857142855
 30
0.0
 11
1.25
 21
-3.897006857142855
 31
0.0
  0
LINE
  5
212
330
23
100
AcDbEntity
  8
0
  6
Continuous
 62
     7
100
AcDbLine
 10
-2.050000000000011
 20
-1.799999999999997
 30
0.0
 11
2.050000000000011
 21
-1.799999999999997
 31
0.0
  0
LINE
  5
213
330
23
100
AcDbEntity
  8
0
  6
Continuous
 62
     7
100
AcDbLine
 10
-2.050000000000011
 20
-2.600000000000008
 30
0.0
 11
2.049390723326041
 21
-2.600000000000008
 31
0.0
  0
LINE
  5
214
330
23
100
AcDbEntity
  8
0
  6
Continuous
 62
     7
100
AcDbLine
 10
1.499999993869266
 20
-0.5499999938692355
 30
0.0
 11
2.050000000000011
 21
-1.100000000000008
 31
0.0
  0
LINE
  5
215
330
23
100
AcDbEntity
  8
0
  6
Continuous
 62
     7
100
AcDbLine
 10
1.5
 20
-0.5499999999999972
 30
0.0
 11
1.5
 21
0.0000000027247751
 31
0.0
  0
LINE
  5
216
330
23
100
AcDbEntity
  8
0
  6
Continuous
 62
     7
100
AcDbLine
 10
1.25
 20
-2.59986400000001
 30
0.0
 11
1.25
 21
-3.897006857142855
 31
0.0
  0
LINE
  5
217
330
23
100
AcDbEntity
  8
0
  6
Continuous
 62
     7
100
AcDbLine
 10
2.050000000000011
 20
-1.100000000000008
 30
0.0
 11
2.050000000000011
 21
-2.548435428571437
 31
0.0
  0
LINE
  5
218
330
23
100
AcDbEntity
  8
0
  6
Continuous
 62
     7
100
AcDbLine
 10
1.25
 20
0.4001359999999893
 30
0.0
 11
1.25
 21
0.0
 31
0.0
  0
LINE
  5
219
330
23
100
AcDbEntity
  8
0
  6
Continuous
 62
     7
100
AcDbLine
 10
1.050000000000011
 20
0.6001360000000063
 30
0.0
 11
1.25
 21
0.4001359999999893
 31
0.0
  0
LINE
  5
21A
330
23
100
AcDbEntity
  8
0
  6
Continuous
 62
     7
100
AcDbLine
 10
-1.5
 20
-0.5471354166666771
 30
0.0
 11
-1.5
 21
0.0000000027247751
 31
0.0
  0
LINE
  5
21B
330
23
100
AcDbEntity
  8
0
  6
Continuous
 62
     7
100
AcDbLine
 10
-1.25
 20
-2.600000000000008
 30
0.0
 11
-1.25
 21
-3.897006857142855
 31
0.0
  0
LINE
  5
21C
330
23
100
AcDbEntity
  8
0
  6
Continuous
 62
     7
100
AcDbLine
 10
-2.050000000000011
 20
-1.100000000000008
 30
0.0
 11
-1.501428571428561
 21
-0.5485714285714352
 31
0.0
  0
LINE
  5
21D
330
23
100
AcDbEntity
  8
0
  6
Continuous
 62
     7
100
AcDbLine
 10
-2.050000000000011
 20
-1.100000000000008
 30
0.0
 11
-2.050000000000011
 21
-2.548435428571437
 31
0.0
  0
LINE
  5
21E
330
23
100
AcDbEntity
  8
0
  6
Continuous
 62
     7
100
AcDbLine
 10
-1.25
 20
0.0
 30
0.0
 11
-1.25
 21
0.4001359999999893
 31
0.0
  0
LINE
  5
21F
330
23
100
AcDbEntity
  8
0
  6
Continuous
 62
     7
100
AcDbLine
 10
-1.25
 20
0.4001359999999893
 30
0.0
 11
-1.050000000000011
 21
0.6001360000000063
 31
0.0
  0
LINE
  5
220
330
23
100
AcDbEntity
  8
0
  6
Continuous
 62
     2
100
AcDbLine
 10
-1.050000000000011
 20
-4.097006857142857
 30
0.0
 11
-1.050000000000011
 21
-2.600000000000008
 31
0.0
  0
LINE
  5
221
330
23
100
AcDbEntity
  8
0
  6
Continuous
 62
     2
100
AcDbLine
 10
1.050000000000011
 20
-4.097006857142857
 30
0.0
 11
1.050000000000011
 21
-2.600000000000008
 31
0.0
  0
LINE
  5
222
330
23
100
AcDbEntity
  8
0
  6
Continuous
 62
     2
100
AcDbLine
 10
-1.050000000000011
 20
0.0
 30
0.0
 11
-1.050000000000011
 21
0.6001360000000063
 31
0.0
  0
LINE
  5
223
330
23
100
AcDbEntity
  8
0
  6
Continuous
 62
     2
100
AcDbLine
 10
1.050000000000011
 20
0.0
 30
0.0
 11
1.050000000000011
 21
0.6001360000000063
 31
0.0
  0
ENDBLK
  5
224
330
23
100
AcDbEntity
  8
0
100
AcDbBlockEnd
  0
BLOCK
  5
225
330
24
100
AcDbEntity
  8
0
100
AcDbBlockBegin
  2
NHE1D-25-7
 70
     0
 10
0.0
 20
0.0
 30
0.0
  3
NHE1D-25-7
  1

  0
CIRCLE
  5
226
330
24
100
AcDbEntity
  8
0
  6
Continuous
 62
     7
100
AcDbCircle
 10
0.0
 20
-1.849999516896943
 30
0.0
 40
0.5
  0
CIRCLE
  5
227
330
24
100
AcDbEntity
  8
0
  6
Continuous
 62
     7
100
AcDbCircle
 10
0.0
 20
-3.149999522346362
 30
0.0
 40
0.5
  0
CIRCLE
  5
228
330
24
100
AcDbEntity
  8
0
  6
Continuous
 62
     7
100
AcDbCircle
 10
0.0
 20
-1.849999516896943
 30
0.0
 40
0.29
  0
CIRCLE
  5
229
330
24
100
AcDbEntity
  8
0
  6
Continuous
 62
     7
100
AcDbCircle
 10
0.0
 20
-3.149999522346362
 30
0.0
 40
0.29
  0
CIRCLE
  5
22A
330
24
100
AcDbEntity
  8
0
  6
Continuous
 62
     7
100
AcDbCircle
 10
0.0
 20
-2.499999519621652
 30
0.0
 40
1.3
  0
LINE
  5
22B
330
24
100
AcDbEntity
  8
0
  6
Continuous
 62
     2
100
AcDbLine
 10
-1.050000000000011
 20
0.0
 30
0.0
 11
-1.050000000000011
 21
0.6001360000000063
 31
0.0
  0
LINE
  5
22C
330
24
100
AcDbEntity
  8
0
  6
Continuous
 62
     2
100
AcDbLine
 10
1.050000000000011
 20
0.0
 30
0.0
 11
1.050000000000011
 21
0.6001360000000063
 31
0.0
  0
LINE
  5
22D
330
24
100
AcDbEntity
  8
0
  6
Continuous
 62
     7
100
AcDbLine
 10
1.25
 20
0.4001359999999893
 30
0.0
 11
1.050000000000011
 21
0.6001360000000063
 31
0.0
  0
LINE
  5
22E
330
24
100
AcDbEntity
  8
0
  6
Continuous
 62
     7
100
AcDbLine
 10
1.25
 20
0.0
 30
0.0
 11
1.25
 21
0.4001359999999893
 31
0.0
  0
LINE
  5
22F
330
24
100
AcDbEntity
  8
0
  6
Continuous
 62
     7
100
AcDbLine
 10
2.050000000000011
 20
-1.100000000000008
 30
0.0
 11
2.050000000000011
 21
-2.548435428571437
 31
0.0
  0
LINE
  5
230
330
24
100
AcDbEntity
  8
0
  6
Continuous
 62
     7
100
AcDbLine
 10
2.050000000000011
 20
-1.100000000000008
 30
0.0
 11
1.501428571428561
 21
-0.5485714285714352
 31
0.0
  0
LINE
  5
231
330
24
100
AcDbEntity
  8
0
  6
Continuous
 62
     7
100
AcDbLine
 10
1.5
 20
-0.5471354166666771
 30
0.0
 11
1.5
 21
0.0000000027247751
 31
0.0
  0
LINE
  5
232
330
24
100
AcDbEntity
  8
0
  6
Continuous
 62
     7
100
AcDbLine
 10
-1.050000000000011
 20
0.6001360000000063
 30
0.0
 11
-1.25
 21
0.4001359999999893
 31
0.0
  0
LINE
  5
233
330
24
100
AcDbEntity
  8
0
  6
Continuous
 62
     7
100
AcDbLine
 10
-1.25
 20
0.4001359999999893
 30
0.0
 11
-1.25
 21
0.0
 31
0.0
  0
LINE
  5
234
330
24
100
AcDbEntity
  8
0
  6
Continuous
 62
     7
100
AcDbLine
 10
-2.050000000000011
 20
-1.100000000000008
 30
0.0
 11
-2.050000000000011
 21
-2.548435428571437
 31
0.0
  0
LINE
  5
235
330
24
100
AcDbEntity
  8
0
  6
Continuous
 62
     7
100
AcDbLine
 10
-1.5
 20
-0.5499999999999972
 30
0.0
 11
-1.5
 21
0.0000000027247751
 31
0.0
  0
LINE
  5
236
330
24
100
AcDbEntity
  8
0
  6
Continuous
 62
     7
100
AcDbLine
 10
-1.499999993869266
 20
-0.5499999938692355
 30
0.0
 11
-2.050000000000011
 21
-1.100000000000008
 31
0.0
  0
LINE
  5
237
330
24
100
AcDbEntity
  8
0
  6
Continuous
 62
     7
100
AcDbLine
 10
1.501428571428561
 20
0.0
 30
0.0
 11
-1.5
 21
0.0
 31
0.0
  0
LINE
  5
238
330
24
100
AcDbEntity
  8
0
  6
Continuous
 62
     7
100
AcDbLine
 10
1.25
 20
0.4001359999999893
 30
0.0
 11
-1.25
 21
0.4001359999999893
 31
0.0
  0
LINE
  5
239
330
24
100
AcDbEntity
  8
0
  6
Continuous
 62
     7
100
AcDbLine
 10
1.050000000000011
 20
0.6001360000000063
 30
0.0
 11
-1.050000000000011
 21
0.6001360000000063
 31
0.0
  0
ARC
  5
23A
330
24
100
AcDbEntity
  8
0
  6
Continuous
 62
     7
100
AcDbCircle
 10
0.0
 20
-2.549998923398334
 30
0.0
 40
2.050000596223346
100
AcDbArc
 50
180.0000001040787
 51
0.0436984637651909
  0
LINE
  5
23B
330
24
100
AcDbEntity
  8
0
  6
Continuous
 62
     2
100
AcDbLine
 10
0.0
 20
-5.067036246629313
 30
0.0
 11
0.0
 21
1.286482311164959
 31
0.0
  0
ENDBLK
  5
23C
330
24
100
AcDbEntity
  8
0
100
AcDbBlockEnd
  0
BLOCK
  5
23D
330
25
100
AcDbEntity
  8
0
100
AcDbBlockBegin
  2
NHE1D-25-8
 70
     0
 10
0.0
 20
0.0
 30
0.0
  3
NHE1D-25-8
  1

  0
LINE
  5
23E
330
25
100
AcDbEntity
  8
0
  6
Continuous
 62
     2
100
AcDbLine
 10
-1.410401753016856
 20
0.0
 30
0.0
 11
21.50288684079606
 21
0.0
 31
0.0
  0
LINE
  5
23F
330
25
100
AcDbEntity
  8
0
  6
Continuous
 62
     2
100
AcDbLine
 10
17.25000000476837
 20
2.170000000000015
 30
0.0
 11
19.75000000476837
 21
-2.159999999999996
 31
0.0
  0
LINE
  5
240
330
25
100
AcDbEntity
  8
0
  6
Continuous
 62
     7
100
AcDbLine
 10
15.50000000476837
 20
-1.299999999999997
 30
0.0
 11
19.25346420800161
 21
-1.299999999999997
 31
0.0
  0
LINE
  5
241
330
25
100
AcDbEntity
  8
0
  6
Continuous
 62
     7
100
AcDbLine
 10
15.50000000476837
 20
1.300000000000011
 30
0.0
 11
17.75230947359051
 21
1.300000000000011
 31
0.0
  0
LINE
  5
242
330
25
100
AcDbEntity
  8
0
  6
Continuous
 62
     2
100
AcDbLine
 10
2.000000004768367
 20
2.94285714285715
 30
0.0
 11
2.000000004768367
 21
-3.299984673423466
 31
0.0
  0
LINE
  5
243
330
25
100
AcDbEntity
  8
0
  6
Continuous
 62
     7
100
AcDbLine
 10
3.900000004768343
 20
-1.5
 30
0.0
 11
3.900000004768343
 21
1.5
 31
0.0
  0
LINE
  5
244
330
25
100
AcDbEntity
  8
0
  6
Continuous
 62
     7
100
AcDbLine
 10
10.40000000476834
 20
-1.5
 30
0.0
 11
10.40000000476834
 21
1.5
 31
0.0
  0
LINE
  5
245
330
25
100
AcDbEntity
  8
0
  6
Continuous
 62
     7
100
AcDbLine
 10
8.000000004768367
 20
-0.5999999999999944
 30
0.0
 11
8.000000004768367
 21
0.9000000000000056
 31
0.0
  0
LINE
  5
246
330
25
100
AcDbEntity
  8
0
  6
Continuous
 62
     7
100
AcDbLine
 10
9.600000004768387
 20
-0.5999999999999944
 30
0.0
 11
9.600000004768387
 21
0.9000000000000056
 31
0.0
  0
LINE
  5
247
330
25
100
AcDbEntity
  8
0
  6
Continuous
 62
     7
100
AcDbLine
 10
0.0
 20
-2.049999999999996
 30
0.0
 11
0.0
 21
2.050000000000011
 31
0.0
  0
LINE
  5
248
330
25
100
AcDbEntity
  8
0
  6
Continuous
 62
     7
100
AcDbLine
 10
15.50000000476837
 20
-2.049999999999996
 30
0.0
 11
15.50000000476837
 21
2.050000000000011
 31
0.0
  0
LINE
  5
249
330
25
100
AcDbEntity
  8
0
  6
Continuous
 62
     7
100
AcDbLine
 10
0.0
 20
1.5
 30
0.0
 11
15.50000000476837
 21
1.5
 31
0.0
  0
LINE
  5
24A
330
25
100
AcDbEntity
  8
0
  6
Continuous
 62
     7
100
AcDbLine
 10
0.0
 20
-1.5
 30
0.0
 11
15.50000000476837
 21
-1.5
 31
0.0
  0
CIRCLE
  5
24B
330
25
100
AcDbEntity
  8
0
  6
Continuous
 62
     7
100
AcDbCircle
 10
2.000000004768367
 20
0.0
 30
0.0
 40
1.399999999999999
  0
CIRCLE
  5
24C
330
25
100
AcDbEntity
  8
0
  6
Continuous
 62
     7
100
AcDbCircle
 10
2.000000004768367
 20
0.0
 30
0.0
 40
1.25
  0
CIRCLE
  5
24D
330
25
100
AcDbEntity
  8
0
  6
Continuous
 62
     2
100
AcDbCircle
 10
2.000000004768367
 20
0.0
 30
0.0
 40
1.05
  0
LINE
  5
24E
330
25
100
AcDbEntity
  8
0
  6
Continuous
 62
     7
100
AcDbLine
 10
0.9571978986753608
 20
-0.6892486978790089
 30
0.0
 11
2.689248702647375
 21
1.042802106093034
 31
0.0
  0
LINE
  5
24F
330
25
100
AcDbEntity
  8
0
  6
Continuous
 62
     7
100
AcDbLine
 10
1.310751318931579
 20
-1.042802072252555
 30
0.0
 11
3.042802112443098
 21
0.6892487212589913
 31
0.0
  0
LINE
  5
250
330
25
100
AcDbEntity
  8
0
  6
Continuous
 62
     7
100
AcDbLine
 10
8.000000004768367
 20
0.9000000000000056
 30
0.0
 11
9.600000004768387
 21
0.9000000000000056
 31
0.0
  0
LINE
  5
251
330
25
100
AcDbEntity
  8
0
  6
Continuous
 62
     7
100
AcDbLine
 10
8.000000004768367
 20
-0.5999999999999944
 30
0.0
 11
9.600000004768387
 21
-0.5999999999999944
 31
0.0
  0
LINE
  5
252
330
25
100
AcDbEntity
  8
0
  6
Continuous
 62
     7
100
AcDbLine
 10
0.0
 20
2.050000000000011
 30
0.0
 11
15.50000000476837
 21
2.050000000000011
 31
0.0
  0
LINE
  5
253
330
25
100
AcDbEntity
  8
0
  6
Continuous
 62
     7
100
AcDbLine
 10
0.0
 20
-2.049999999999996
 30
0.0
 11
15.50000000476837
 21
-2.049999999999996
 31
0.0
  0
ENDBLK
  5
254
330
25
100
AcDbEntity
  8
0
100
AcDbBlockEnd
  0
BLOCK
  5
255
330
26
100
AcDbEntity
  8
0
100
AcDbBlockBegin
  2
NHE1D-25-9
 70
     0
 10
0.0
 20
0.0
 30
0.0
  3
NHE1D-25-9
  1

  0
LINE
  5
256
330
26
100
AcDbEntity
  8
0
  6
Continuous
 62
     2
100
AcDbLine
 10
10.34000000476834
 20
7.647976315961244
 30
0.0
 11
14.67000000476838
 21
10.14797631596124
 31
0.0
  0
LINE
  5
257
330
26
100
AcDbEntity
  8
0
  6
Continuous
 62
     7
100
AcDbLine
 10
10.40000001021792
 20
0.9479762348989313
 30
0.0
 11
12.05095566806369
 21
1.497976229666193
 31
0.0
  0
LINE
  5
258
330
26
100
AcDbEntity
  8
0
  6
Continuous
 62
     7
100
AcDbLine
 10
12.05095566806369
 20
1.497976229666193
 30
0.0
 11
12.05095566806369
 21
5.897976315961244
 31
0.0
  0
LINE
  5
259
330
26
100
AcDbEntity
  8
0
  6
Continuous
 62
     7
100
AcDbLine
 10
12.94904434147304
 20
4.897976311874074
 30
0.0
 11
12.94904434147304
 21
5.897976311874074
 31
0.0
  0
LINE
  5
25A
330
26
100
AcDbEntity
  8
0
  6
Continuous
 62
     7
100
AcDbLine
 10
12.94904434147304
 20
4.897976315961244
 30
0.0
 11
15.00000000476837
 21
4.897976315961244
 31
0.0
  0
LINE
  5
25B
330
26
100
AcDbEntity
  8
0
  6
Continuous
 62
     7
100
AcDbLine
 10
14.60000000476839
 20
4.897976315961244
 30
0.0
 11
14.60000000476839
 21
5.897976315961244
 31
0.0
  0
LINE
  5
25C
330
26
100
AcDbEntity
  8
0
  6
Continuous
 62
     7
100
AcDbLine
 10
10.4000000047684
 20
-0.0020236840387469
 30
0.0
 11
10.4000000047684
 21
5.897976315961244
 31
0.0
  0
LINE
  5
25D
330
26
100
AcDbEntity
  8
0
  6
Continuous
 62
     7
100
AcDbLine
 10
10.4000000047684
 20
5.897976315961244
 30
0.0
 11
14.60000000476839
 21
5.897976315961244
 31
0.0
  0
LINE
  5
25E
330
26
100
AcDbEntity
  8
0
  6
Continuous
 62
     7
100
AcDbLine
 10
15.00000000476837
 20
3.897976315961244
 30
0.0
 11
10.4000000047684
 21
3.897976315961244
 31
0.0
  0
LINE
  5
25F
330
26
100
AcDbEntity
  8
0
  6
Continuous
 62
     2
100
AcDbLine
 10
0.9500000047683554
 20
0.5979763159612475
 30
0.0
 11
0.9500000047683554
 21
-0.0020236840387469
 31
0.0
  0
LINE
  5
260
330
26
100
AcDbEntity
  8
0
  6
Continuous
 62
     2
100
AcDbLine
 10
3.050000004768378
 20
0.5979763159612475
 30
0.0
 11
3.050000004768378
 21
-0.0020236840387469
 31
0.0
  0
LINE
  5
261
330
26
100
AcDbEntity
  8
0
  6
Continuous
 62
     7
100
AcDbLine
 10
0.7514285761969291
 20
0.3979763159612446
 30
0.0
 11
3.251428576196928
 21
0.3979763159612446
 31
0.0
  0
LINE
  5
262
330
26
100
AcDbEntity
  8
0
  6
Continuous
 62
     7
100
AcDbLine
 10
3.05142857619694
 20
0.5979763159612475
 30
0.0
 11
3.251428576196928
 21
0.3979763159612446
 31
0.0
  0
LINE
  5
263
330
26
100
AcDbEntity
  8
0
  6
Continuous
 62
     7
100
AcDbLine
 10
0.7514285761969291
 20
0.3979763159612446
 30
0.0
 11
0.9514285761969743
 21
0.5979763159612475
 31
0.0
  0
LINE
  5
264
330
26
100
AcDbEntity
  8
0
  6
Continuous
 62
     7
100
AcDbLine
 10
3.251428576196928
 20
0.3979763159612446
 30
0.0
 11
3.251428576196928
 21
-0.0020236840387469
 31
0.0
  0
LINE
  5
265
330
26
100
AcDbEntity
  8
0
  6
Continuous
 62
     7
100
AcDbLine
 10
0.7514285761969291
 20
-0.0020236840387469
 30
0.0
 11
0.7514285761969291
 21
0.3979763159612446
 31
0.0
  0
LINE
  5
266
330
26
100
AcDbEntity
  8
0
  6
Continuous
 62
     2
100
AcDbLine
 10
0.9500000047683554
 20
-2.602023684038755
 30
0.0
 11
0.9500000047683554
 21
-4.100595112610179
 31
0.0
  0
LINE
  5
267
330
26
100
AcDbEntity
  8
0
  6
Continuous
 62
     2
100
AcDbLine
 10
3.050000004768378
 20
-2.602023684038755
 30
0.0
 11
3.050000004768378
 21
-4.103452255467316
 31
0.0
  0
LINE
  5
268
330
26
100
AcDbEntity
  8
0
  6
Continuous
 62
     7
100
AcDbLine
 10
0.9514285761969743
 20
0.5979763159612475
 30
0.0
 11
3.05142857619694
 21
0.5979763159612475
 31
0.0
  0
LINE
  5
269
330
26
100
AcDbEntity
  8
0
  6
Continuous
 62
     7
100
AcDbLine
 10
0.000000004768367
 20
-1.802023684038758
 30
0.0
 11
0.000000004768367
 21
0.0
 31
0.0
  0
LINE
  5
26A
330
26
100
AcDbEntity
  8
0
  6
Continuous
 62
     2
100
AcDbLine
 10
2.000000004768367
 20
1.284322627126215
 30
0.0
 11
2.000000004768367
 21
-5.069195930668058
 31
0.0
  0
LINE
  5
26B
330
26
100
AcDbEntity
  8
0
  6
Continuous
 62
     7
100
AcDbLine
 10
4.000000004768367
 20
-1.802023684038758
 30
0.0
 11
4.000000004768367
 21
-2.602023684038755
 31
0.0
  0
LINE
  5
26C
330
26
100
AcDbEntity
  8
0
  6
Continuous
 62
     7
100
AcDbLine
 10
0.000000004768367
 20
-1.802023684038758
 30
0.0
 11
0.000000004768367
 21
-2.602023684038755
 31
0.0
  0
LINE
  5
26D
330
26
100
AcDbEntity
  8
0
  6
Continuous
 62
     7
100
AcDbLine
 10
0.7514285761969291
 20
-2.602023684038755
 30
0.0
 11
0.7514285761969291
 21
-3.902023684038752
 31
0.0
  0
LINE
  5
26E
330
26
100
AcDbEntity
  8
0
  6
Continuous
 62
     2
100
AcDbLine
 10
0.7514285761969291
 20
-3.902023684038752
 30
0.0
 11
3.251428576196928
 21
-3.902023684038752
 31
0.0
  0
LINE
  5
26F
330
26
100
AcDbEntity
  8
0
  6
Continuous
 62
     7
100
AcDbLine
 10
1.251428576196928
 20
-4.402023684038752
 30
0.0
 11
0.7514285761969291
 21
-3.902023684038752
 31
0.0
  0
LINE
  5
270
330
26
100
AcDbEntity
  8
0
  6
Continuous
 62
     7
100
AcDbLine
 10
1.251428576196928
 20
-4.402023684038752
 30
0.0
 11
2.751428576196929
 21
-4.402023684038752
 31
0.0
  0
LINE
  5
271
330
26
100
AcDbEntity
  8
0
  6
Continuous
 62
     7
100
AcDbLine
 10
3.251428576196928
 20
-3.902023684038752
 30
0.0
 11
2.751428576196929
 21
-4.402023684038752
 31
0.0
  0
LINE
  5
272
330
26
100
AcDbEntity
  8
0
  6
Continuous
 62
     7
100
AcDbLine
 10
3.251428576196928
 20
-2.602023684038755
 30
0.0
 11
3.251428576196928
 21
-3.902023684038752
 31
0.0
  0
LINE
  5
273
330
26
100
AcDbEntity
  8
0
  6
Continuous
 62
     7
100
AcDbLine
 10
4.300000004768377
 20
-1.800000000000011
 30
0.0
 11
4.300000004768377
 21
-4.600000000000008
 31
0.0
  0
LINE
  5
274
330
26
100
AcDbEntity
  8
0
  6
Continuous
 62
     7
100
AcDbLine
 10
15.00000000476837
 20
-4.600000000000008
 30
0.0
 11
15.00000000476837
 21
4.897976315961244
 31
0.0
  0
LINE
  5
275
330
26
100
AcDbEntity
  8
0
  6
Continuous
 62
     7
100
AcDbLine
 10
11.20000000476835
 20
5.897976315961244
 30
0.0
 11
11.20000000476835
 21
8.14451211272798
 31
0.0
  0
LINE
  5
276
330
26
100
AcDbEntity
  8
0
  6
Continuous
 62
     7
100
AcDbLine
 10
13.80000000476838
 20
5.897976315961244
 30
0.0
 11
13.80000000476838
 21
9.64566684713908
 31
0.0
  0
LINE
  5
277
330
26
100
AcDbEntity
  8
0
  6
Continuous
 62
     7
100
AcDbLine
 10
4.300000003405955
 20
-4.600000000000008
 30
0.0
 11
15.0
 21
-4.600000000000008
 31
0.0
  0
LINE
  5
278
330
26
100
AcDbEntity
  8
0
  6
Continuous
 62
     7
100
AcDbLine
 10
0.0
 20
0.0
 30
0.0
 11
15.0
 21
0.0
 31
0.0
  0
LINE
  5
279
330
26
100
AcDbEntity
  8
0
  6
Continuous
 62
     7
100
AcDbLine
 10
0.000000004768367
 20
-1.800000000000011
 30
0.0
 11
4.300000004768377
 21
-1.800000000000011
 31
0.0
  0
LINE
  5
27A
330
26
100
AcDbEntity
  8
0
  6
Continuous
 62
     7
100
AcDbLine
 10
0.0
 20
-2.600000000000008
 30
0.0
 11
4.0
 21
-2.600000000000008
 31
0.0
  0
LINE
  5
27B
330
26
100
AcDbEntity
  8
0
  6
Continuous
 62
     7
100
AcDbLine
 10
0.0
 20
-1.100000008256415
 30
0.0
 11
15.0
 21
-1.100000008256415
 31
0.0
  0
LINE
  5
27C
330
26
100
AcDbEntity
  8
0
  6
Continuous
 62
     7
100
AcDbLine
 10
0.0
 20
-0.5500000000000114
 30
0.0
 11
15.00000000476837
 21
-0.5500000000000114
 31
0.0
  0
LINE
  5
27D
330
26
100
AcDbEntity
  8
0
  6
Continuous
 62
     7
100
AcDbLine
 10
10.39999999318803
 20
0.9479762301305639
 30
0.0
 11
15.0
 21
0.9479762301305639
 31
0.0
  0
LINE
  5
27E
330
26
100
AcDbEntity
  8
0
  6
Continuous
 62
     7
100
AcDbLine
 10
10.40000001021792
 20
1.497976233536533
 30
0.0
 11
15.00000000476837
 21
1.497976233536533
 31
0.0
  0
ENDBLK
  5
27F
330
26
100
AcDbEntity
  8
0
100
AcDbBlockEnd
  0
BLOCK
  5
280
330
27
100
AcDbEntity
  8
0
100
AcDbBlockBegin
  2
NHE1D-25-10
 70
     0
 10
0.0
 20
0.0
 30
0.0
  3
NHE1D-25-10
  1

  0
LINE
  5
281
330
27
100
AcDbEntity
  8
0
  6
Continuous
 62
     2
100
AcDbLine
 10
-2.159999999999968
 20
7.647976229666183
 30
0.0
 11
2.169999999999959
 21
10.14797622966618
 31
0.0
  0
LINE
  5
282
330
27
100
AcDbEntity
  8
0
  6
Continuous
 62
     7
100
AcDbLine
 10
-2.050000000000011
 20
5.897976229666184
 30
0.0
 11
2.049999999999954
 21
5.897976229666184
 31
0.0
  0
LINE
  5
283
330
27
100
AcDbEntity
  8
0
  6
Continuous
 62
     7
100
AcDbLine
 10
-2.050000000000011
 20
3.897976229666184
 30
0.0
 11
2.049999999999954
 21
3.897976229666184
 31
0.0
  0
LINE
  5
284
330
27
100
AcDbEntity
  8
0
  6
Continuous
 62
     7
100
AcDbLine
 10
-1.050000000000011
 20
0.5979763159612475
 30
0.0
 11
1.049999999999954
 21
0.5979763159612475
 31
0.0
  0
LINE
  5
285
330
27
100
AcDbEntity
  8
0
  6
Continuous
 62
     7
100
AcDbLine
 10
-1.25
 20
0.3979763159612446
 30
0.0
 11
-1.050000000000011
 21
0.5979763159612475
 31
0.0
  0
LINE
  5
286
330
27
100
AcDbEntity
  8
0
  6
Continuous
 62
     7
100
AcDbLine
 10
1.049999999999954
 20
0.5979763159612475
 30
0.0
 11
1.25
 21
0.3979763159612446
 31
0.0
  0
LINE
  5
287
330
27
100
AcDbEntity
  8
0
  6
Continuous
 62
     7
100
AcDbLine
 10
-1.25
 20
0.3979763159612446
 30
0.0
 11
1.25
 21
0.3979763159612446
 31
0.0
  0
LINE
  5
288
330
27
100
AcDbEntity
  8
0
  6
Continuous
 62
     7
100
AcDbLine
 10
1.25
 20
0.3979763159612446
 30
0.0
 11
1.25
 21
0.0
 31
0.0
  0
LINE
  5
289
330
27
100
AcDbEntity
  8
0
  6
Continuous
 62
     7
100
AcDbLine
 10
-1.25
 20
0.0
 30
0.0
 11
-1.25
 21
0.3979763159612446
 31
0.0
  0
LINE
  5
28A
330
27
100
AcDbEntity
  8
0
  6
Continuous
 62
     7
100
AcDbLine
 10
-2.04797631596125
 20
-1.102023684038755
 30
0.0
 11
-1.5
 21
-0.5511933247651939
 31
0.0
  0
LINE
  5
28B
330
27
100
AcDbEntity
  8
0
  6
Continuous
 62
     7
100
AcDbLine
 10
2.049999999999954
 20
-1.100000000000008
 30
0.0
 11
1.5
 21
-0.5500000000000114
 31
0.0
  0
LINE
  5
28C
330
27
100
AcDbEntity
  8
0
  6
Continuous
 62
     7
100
AcDbLine
 10
1.25
 20
-2.600000000000008
 30
0.0
 11
1.25
 21
-3.899166541181614
 31
0.0
  0
LINE
  5
28D
330
27
100
AcDbEntity
  8
0
  6
Continuous
 62
     7
100
AcDbLine
 10
-1.25
 20
-2.600000000000008
 30
0.0
 11
-1.25
 21
-3.899166541181614
 31
0.0
  0
LINE
  5
28E
330
27
100
AcDbEntity
  8
0
  6
Continuous
 62
     7
100
AcDbLine
 10
-1.25
 20
-3.899166541181614
 30
0.0
 11
1.25
 21
-3.899166541181614
 31
0.0
  0
LINE
  5
28F
330
27
100
AcDbEntity
  8
0
  6
Continuous
 62
     7
100
AcDbLine
 10
1.25
 20
-3.899166541181614
 30
0.0
 11
0.747142857142876
 21
-4.402023684038752
 31
0.0
  0
LINE
  5
290
330
27
100
AcDbEntity
  8
0
  6
Continuous
 62
     7
100
AcDbLine
 10
-0.747142857142876
 20
-4.402023684038752
 30
0.0
 11
-1.25
 21
-3.899166541181614
 31
0.0
  0
LINE
  5
291
330
27
100
AcDbEntity
  8
0
  6
Continuous
 62
     7
100
AcDbLine
 10
2.000595112610199
 20
-1.800000000000011
 30
0.0
 11
2.000595112610199
 21
-2.602023684038755
 31
0.0
  0
LINE
  5
292
330
27
100
AcDbEntity
  8
0
  6
Continuous
 62
     7
100
AcDbLine
 10
-1.9994048873898
 20
-1.800000000000011
 30
0.0
 11
-1.9994048873898
 21
-2.602023684038755
 31
0.0
  0
LINE
  5
293
330
27
100
AcDbEntity
  8
0
  6
Continuous
 62
     7
100
AcDbLine
 10
-0.747142857142876
 20
-4.402023684038752
 30
0.0
 11
0.747142857142876
 21
-4.402023684038752
 31
0.0
  0
LINE
  5
294
330
27
100
AcDbEntity
  8
0
  6
Continuous
 62
     7
100
AcDbLine
 10
-2.050000000000011
 20
-2.550595112610181
 30
0.0
 11
-2.050000000000011
 21
-1.102023684038755
 31
0.0
  0
LINE
  5
295
330
27
100
AcDbEntity
  8
0
  6
Continuous
 62
     7
100
AcDbLine
 10
2.049999999999954
 20
-2.641112856946989
 30
0.0
 11
2.049999999999954
 21
-1.100000008256415
 31
0.0
  0
ARC
  5
296
330
27
100
AcDbEntity
  8
0
  6
Continuous
 62
     7
100
AcDbCircle
 10
0.0
 20
-2.550000000000011
 30
0.0
 40
2.049999999999999
100
AcDbArc
 50
180.0
 51
0.0
  0
LINE
  5
297
330
27
100
AcDbEntity
  8
0
  6
Continuous
 62
     7
100
AcDbLine
 10
-2.050000000000011
 20
1.497976228169022
 30
0.0
 11
-2.050000000000011
 21
5.897976229666184
 31
0.0
  0
LINE
  5
298
330
27
100
AcDbEntity
  8
0
  6
Continuous
 62
     7
100
AcDbLine
 10
2.049999999999954
 20
1.497976232092085
 30
0.0
 11
2.049999999999954
 21
5.897976229666184
 31
0.0
  0
LINE
  5
299
330
27
100
AcDbEntity
  8
0
  6
Continuous
 62
     7
100
AcDbLine
 10
1.5
 20
0.9479762320920883
 30
0.0
 11
2.050000001444459
 21
1.497976233536533
 31
0.0
  0
LINE
  5
29A
330
27
100
AcDbEntity
  8
0
  6
Continuous
 62
     7
100
AcDbLine
 10
-2.050000005367508
 20
1.497976233536533
 30
0.0
 11
-1.5
 21
0.9479762281690256
 31
0.0
  0
LINE
  5
29B
330
27
100
AcDbEntity
  8
0
  6
Continuous
 62
     7
100
AcDbLine
 10
-1.5
 20
-0.5511933238986302
 30
0.0
 11
-1.5
 21
0.9479762301305639
 31
0.0
  0
LINE
  5
29C
330
27
100
AcDbEntity
  8
0
  6
Continuous
 62
     7
100
AcDbLine
 10
1.5
 20
-0.5500000048504319
 30
0.0
 11
1.5
 21
0.9479762301305639
 31
0.0
  0
LINE
  5
29D
330
27
100
AcDbEntity
  8
0
  6
Continuous
 62
     7
100
AcDbLine
 10
-1.500000001961552
 20
0.0
 30
0.0
 11
1.499999998038447
 21
0.0
 31
0.0
  0
LINE
  5
29E
330
27
100
AcDbEntity
  8
0
  6
Continuous
 62
     7
100
AcDbLine
 10
-2.050000000000011
 20
-1.800000000000011
 30
0.0
 11
2.049999999999954
 21
-1.800000000000011
 31
0.0
  0
LINE
  5
29F
330
27
100
AcDbEntity
  8
0
  6
Continuous
 62
     7
100
AcDbLine
 10
-1.9994048873898
 20
-2.600000000000008
 30
0.0
 11
2.000595112610199
 21
-2.600000000000008
 31
0.0
  0
LINE
  5
2A0
330
27
100
AcDbEntity
  8
0
  6
Continuous
 62
     7
100
AcDbLine
 10
-1.300000000000011
 20
5.897976229666184
 30
0.0
 11
-1.300000000000011
 21
8.14451202643292
 31
0.0
  0
LINE
  5
2A1
330
27
100
AcDbEntity
  8
0
  6
Continuous
 62
     7
100
AcDbLine
 10
1.299999999999954
 20
5.897976229666184
 30
0.0
 11
1.299999999999954
 21
9.645666760844008
 31
0.0
  0
LINE
  5
2A2
330
27
100
AcDbEntity
  8
0
  6
Continuous
 62
     2
100
AcDbLine
 10
0.0
 20
-5.546406049129259
 30
0.0
 11
0.0
 21
9.669348017065544
 31
0.0
  0
LINE
  5
2A3
330
27
100
AcDbEntity
  8
0
  6
Continuous
 62
     2
100
AcDbLine
 10
-1.024999999999977
 20
-4.124166541181608
 30
0.0
 11
-1.024999999999977
 21
-2.600000000000008
 31
0.0
  0
LINE
  5
2A4
330
27
100
AcDbEntity
  8
0
  6
Continuous
 62
     2
100
AcDbLine
 10
1.024999999999977
 20
-4.124166541181608
 30
0.0
 11
1.024999999999977
 21
-2.600000000000008
 31
0.0
  0
LINE
  5
2A5
330
27
100
AcDbEntity
  8
0
  6
Continuous
 62
     2
100
AcDbLine
 10
1.024999999999977
 20
-0.0000000014444481
 30
0.0
 11
1.024999999999977
 21
0.5979763159612475
 31
0.0
  0
LINE
  5
2A6
330
27
100
AcDbEntity
  8
0
  6
Continuous
 62
     2
100
AcDbLine
 10
-1.024999999999977
 20
-0.0000000014444481
 30
0.0
 11
-1.024999999999977
 21
0.5979763159612475
 31
0.0
  0
ENDBLK
  5
2A7
330
27
100
AcDbEntity
  8
0
100
AcDbBlockEnd
  0
BLOCK
  5
2A8
330
28
100
AcDbEntity
  8
0
100
AcDbBlockBegin
  2
NHE1D-25-11
 70
     0
 10
0.0
 20
0.0
 30
0.0
  3
NHE1D-25-11
  1

  0
LINE
  5
2A9
330
28
100
AcDbEntity
  8
0
  6
Continuous
 62
     2
100
AcDbLine
 10
0.0
 20
-5.546406049129259
 30
0.0
 11
0.0
 21
9.669348017065544
 31
0.0
  0
LINE
  5
2AA
330
28
100
AcDbEntity
  8
0
  6
Continuous
 62
     7
100
AcDbLine
 10
-1.299999999999954
 20
5.897976229666184
 30
0.0
 11
-1.299999999999954
 21
9.645666760844008
 31
0.0
  0
LINE
  5
2AB
330
28
100
AcDbEntity
  8
0
  6
Continuous
 62
     7
100
AcDbLine
 10
1.300000000000011
 20
5.897976229666184
 30
0.0
 11
1.300000000000011
 21
8.14451202643292
 31
0.0
  0
LINE
  5
2AC
330
28
100
AcDbEntity
  8
0
  6
Continuous
 62
     7
100
AcDbLine
 10
-1.5
 20
-0.5500000048504319
 30
0.0
 11
-1.5
 21
0.9479762301305639
 31
0.0
  0
LINE
  5
2AD
330
28
100
AcDbEntity
  8
0
  6
Continuous
 62
     7
100
AcDbLine
 10
1.5
 20
-0.5511933238986302
 30
0.0
 11
1.5
 21
0.9479762301305639
 31
0.0
  0
LINE
  5
2AE
330
28
100
AcDbEntity
  8
0
  6
Continuous
 62
     7
100
AcDbLine
 10
2.050000005367508
 20
1.497976233536533
 30
0.0
 11
1.5
 21
0.9479762281690256
 31
0.0
  0
LINE
  5
2AF
330
28
100
AcDbEntity
  8
0
  6
Continuous
 62
     7
100
AcDbLine
 10
-1.5
 20
0.9479762320920883
 30
0.0
 11
-2.050000001444459
 21
1.497976233536533
 31
0.0
  0
LINE
  5
2B0
330
28
100
AcDbEntity
  8
0
  6
Continuous
 62
     7
100
AcDbLine
 10
-2.049999999999954
 20
1.497976232092085
 30
0.0
 11
-2.049999999999954
 21
5.897976229666184
 31
0.0
  0
LINE
  5
2B1
330
28
100
AcDbEntity
  8
0
  6
Continuous
 62
     7
100
AcDbLine
 10
2.050000000000011
 20
1.497976228169022
 30
0.0
 11
2.050000000000011
 21
5.897976229666184
 31
0.0
  0
ARC
  5
2B2
330
28
100
AcDbEntity
  8
0
  6
Continuous
 62
     7
100
AcDbCircle
 10
0.0
 20
-2.550000000000011
 30
0.0
 40
2.049999999999999
100
AcDbArc
 50
180.0
 51
0.0
  0
LINE
  5
2B3
330
28
100
AcDbEntity
  8
0
  6
Continuous
 62
     7
100
AcDbLine
 10
-2.049999999999954
 20
-2.641112856946989
 30
0.0
 11
-2.049999999999954
 21
-1.100000008256415
 31
0.0
  0
LINE
  5
2B4
330
28
100
AcDbEntity
  8
0
  6
Continuous
 62
     7
100
AcDbLine
 10
2.050000000000011
 20
-2.550595112610181
 30
0.0
 11
2.050000000000011
 21
-1.102023684038755
 31
0.0
  0
LINE
  5
2B5
330
28
100
AcDbEntity
  8
0
  6
Continuous
 62
     7
100
AcDbLine
 10
-2.049999999999954
 20
-1.100000000000008
 30
0.0
 11
-1.5
 21
-0.5500000000000114
 31
0.0
  0
LINE
  5
2B6
330
28
100
AcDbEntity
  8
0
  6
Continuous
 62
     7
100
AcDbLine
 10
2.04797631596125
 20
-1.102023684038755
 30
0.0
 11
1.5
 21
-0.5511933247651939
 31
0.0
  0
LINE
  5
2B7
330
28
100
AcDbEntity
  8
0
  6
Continuous
 62
     7
100
AcDbLine
 10
2.050000000000011
 20
3.897976229666184
 30
0.0
 11
-2.049999999999954
 21
3.897976229666184
 31
0.0
  0
LINE
  5
2B8
330
28
100
AcDbEntity
  8
0
  6
Continuous
 62
     7
100
AcDbLine
 10
2.050000000000011
 20
5.897976229666184
 30
0.0
 11
-2.049999999999954
 21
5.897976229666184
 31
0.0
  0
LINE
  5
2B9
330
28
100
AcDbEntity
  8
0
  6
Continuous
 62
     2
100
AcDbLine
 10
2.159999999999968
 20
7.647976229666183
 30
0.0
 11
-2.169999999999959
 21
10.14797622966618
 31
0.0
  0
ENDBLK
  5
2BA
330
28
100
AcDbEntity
  8
0
100
AcDbBlockEnd
  0
BLOCK
  5
2BB
330
29
100
AcDbEntity
  8
0
100
AcDbBlockBegin
  2
NHE1D-25-12
 70
     0
 10
0.0
 20
0.0
 30
0.0
  3
NHE1D-25-12
  1

  0
CIRCLE
  5
2BC
330
29
100
AcDbEntity
  8
0
  6
Continuous
 62
     7
100
AcDbCircle
 10
12.5
 20
0.0
 30
0.0
 40
1.3
  0
ARC
  5
2BD
330
29
100
AcDbEntity
  8
0
  6
Continuous
 62
     7
100
AcDbCircle
 10
12.5
 20
0.0
 30
0.0
 40
2.1
100
AcDbArc
 50
282.3469323674128
 51
77.29365816157045
  0
ARC
  5
2BE
330
29
100
AcDbEntity
  8
0
  6
Continuous
 62
     7
100
AcDbCircle
 10
12.5
 20
0.0
 30
0.0
 40
2.1
100
AcDbArc
 50
102.7063418384295
 51
257.6530676325872
  0
LINE
  5
2BF
330
29
100
AcDbEntity
  8
0
  6
Continuous
 62
     2
100
AcDbLine
 10
-1.324720577365496
 20
0.0
 30
0.0
 11
16.23761911485025
 21
0.0
 31
0.0
  0
LINE
  5
2C0
330
29
100
AcDbEntity
  8
0
  6
Continuous
 62
     7
100
AcDbLine
 10
0.0
 20
1.5
 30
0.0
 11
11.0303061543301
 21
1.5
 31
0.0
  0
LINE
  5
2C1
330
29
100
AcDbEntity
  8
0
  6
Continuous
 62
     7
100
AcDbLine
 10
0.0
 20
2.049999999999996
 30
0.0
 11
0.0
 21
-2.049999999999996
 31
0.0
  0
LINE
  5
2C2
330
29
100
AcDbEntity
  8
0
  6
Continuous
 62
     7
100
AcDbLine
 10
15.0
 20
2.049999999999996
 30
0.0
 11
15.0
 21
-2.049999999999996
 31
0.0
  0
LINE
  5
2C3
330
29
100
AcDbEntity
  8
0
  6
Continuous
 62
     2
100
AcDbLine
 10
2.0
 20
2.834285714285712
 30
0.0
 11
2.0
 21
-3.351413244852025
 31
0.0
  0
LINE
  5
2C4
330
29
100
AcDbEntity
  8
0
  6
Continuous
 62
     7
100
AcDbLine
 10
0.9571428571428556
 20
-0.7142857142857082
 30
0.0
 11
2.688571428571436
 21
1.019999999999996
 31
0.0
  0
LINE
  5
2C5
330
29
100
AcDbEntity
  8
0
  6
Continuous
 62
     7
100
AcDbLine
 10
1.30857142857144
 20
-1.068571428571416
 30
0.0
 11
3.051993036971509
 21
0.6748501798286242
 31
0.0
  0
LINE
  5
2C6
330
29
100
AcDbEntity
  8
0
  6
Continuous
 62
     7
100
AcDbLine
 10
3.900000000000033
 20
-1.502857150350294
 30
0.0
 11
3.900000000000033
 21
1.500000006811958
 31
0.0
  0
LINE
  5
2C7
330
29
100
AcDbEntity
  8
0
  6
Continuous
 62
     7
100
AcDbLine
 10
10.40000000000003
 20
-1.502857150350294
 30
0.0
 11
10.40000000000003
 21
1.500000006811958
 31
0.0
  0
LINE
  5
2C8
330
29
100
AcDbEntity
  8
0
  6
Continuous
 62
     7
100
AcDbLine
 10
8.0
 20
-0.7000000068119477
 30
0.0
 11
8.0
 21
0.9000000000000056
 31
0.0
  0
LINE
  5
2C9
330
29
100
AcDbEntity
  8
0
  6
Continuous
 62
     7
100
AcDbLine
 10
9.600000000000022
 20
-0.7000000068119477
 30
0.0
 11
9.600000000000022
 21
0.9000000000000056
 31
0.0
  0
LINE
  5
2CA
330
29
100
AcDbEntity
  8
0
  6
Continuous
 62
     7
100
AcDbLine
 10
8.0
 20
0.9000000000000056
 30
0.0
 11
9.600000000000022
 21
0.9000000000000056
 31
0.0
  0
LINE
  5
2CB
330
29
100
AcDbEntity
  8
0
  6
Continuous
 62
     7
100
AcDbLine
 10
8.0
 20
-0.7000000000000029
 30
0.0
 11
9.600000000000022
 21
-0.7000000000000029
 31
0.0
  0
LINE
  5
2CC
330
29
100
AcDbEntity
  8
0
  6
Continuous
 62
     7
100
AcDbLine
 10
0.0
 20
2.049999999999996
 30
0.0
 11
15.0
 21
2.049999999999996
 31
0.0
  0
LINE
  5
2CD
330
29
100
AcDbEntity
  8
0
  6
Continuous
 62
     7
100
AcDbLine
 10
0.0
 20
-2.049999999999996
 30
0.0
 11
15.0
 21
-2.049999999999996
 31
0.0
  0
LINE
  5
2CE
330
29
100
AcDbEntity
  8
0
  6
Continuous
 62
     7
100
AcDbLine
 10
0.0
 20
-1.5
 30
0.0
 11
11.0303061543301
 21
-1.5
 31
0.0
  0
CIRCLE
  5
2CF
330
29
100
AcDbEntity
  8
0
  6
Continuous
 62
     7
100
AcDbCircle
 10
2.0
 20
0.0
 30
0.0
 40
1.399999999999999
  0
CIRCLE
  5
2D0
330
29
100
AcDbEntity
  8
0
  6
Continuous
 62
     2
100
AcDbCircle
 10
2.0
 20
0.0
 30
0.0
 40
1.05
  0
CIRCLE
  5
2D1
330
29
100
AcDbEntity
  8
0
  6
Continuous
 62
     7
100
AcDbCircle
 10
2.0
 20
0.0
 30
0.0
 40
1.25
  0
CIRCLE
  5
2D2
330
29
100
AcDbEntity
  8
0
  6
Continuous
 62
     7
100
AcDbCircle
 10
13.15000000272476
 20
0.0
 30
0.0
 40
0.5
  0
CIRCLE
  5
2D3
330
29
100
AcDbEntity
  8
0
  6
Continuous
 62
     7
100
AcDbCircle
 10
11.84999999727523
 20
0.0
 30
0.0
 40
0.5
  0
CIRCLE
  5
2D4
330
29
100
AcDbEntity
  8
0
  6
Continuous
 62
     7
100
AcDbCircle
 10
13.15000000272476
 20
0.0
 30
0.0
 40
0.29
  0
CIRCLE
  5
2D5
330
29
100
AcDbEntity
  8
0
  6
Continuous
 62
     7
100
AcDbCircle
 10
11.84999999727523
 20
0.0
 30
0.0
 40
0.29
  0
ENDBLK
  5
2D6
330
29
100
AcDbEntity
  8
0
100
AcDbBlockEnd
  0
BLOCK
  5
2B
330
2A
100
AcDbEntity
  8
0
 62
     0
100
AcDbBlockBegin
  2
_OPEN30
 70
     2
 10
0.0
 20
0.0
 30
0.0
  3
_OPEN30
  1

  0
LINE
  5
2C
330
2A
100
AcDbEntity
  8
0
  6
ByBlock
 62
     0
100
AcDbLine
 10
-1.0
 20
0.267949
 30
0.0
 11
0.0
 21
0.0
 31
0.0
  0
LINE
  5
2D
330
2A
100
AcDbEntity
  8
0
  6
ByBlock
 62
     0
100
AcDbLine
 10
0.0
 20
0.0
 30
0.0
 11
-1.0
 21
-0.267949
 31
0.0
  0
LINE
  5
2E
330
2A
100
AcDbEntity
  8
0
  6
ByBlock
 62
     0
100
AcDbLine
 10
0.0
 20
0.0
 30
0.0
 11
-1.0
 21
0.0
 31
0.0
  0
ENDBLK
  5
2F
330
2A
100
AcDbEntity
  8
0
 62
     0
100
AcDbBlockEnd
  0
ENDSEC
  0
SECTION
  2
ENTITIES
  0
INSERT
  5
2DF
330
A
100
AcDbEntity
  8
0
  6
ByBlock
100
AcDbBlockReference
  2
NHE1D-25-4
 10
-30.0
 20
90.0
 30
0.0
  0
INSERT
  5
2E0
330
A
100
AcDbEntity
  8
0
  6
ByBlock
100
AcDbBlockReference
  2
NHE1D-25-3
 10
121.3163810317416
 20
-10.0
 30
0.0
  0
INSERT
  5
2E1
330
A
100
AcDbEntity
  8
0
  6
ByBlock
100
AcDbBlockReference
  2
NHE1D-25-2
 10
-120.0
 20
-10.0
 30
0.0
  0
INSERT
  5
2E2
330
A
100
AcDbEntity
  8
0
  6
ByBlock
100
AcDbBlockReference
  2
NHE1D-25-1
 10
-30.07107749764478
 20
-10.0
 30
0.0
  0
MTEXT
  5
2E3
330
A
100
AcDbEntity
  8
0
  6
Continuous
 62
   255
100
AcDbMText
 10
-191.4334593338748
 20
128.8500061035156
 30
0.0
 40
4.5
 41
0.0
 71
     4
 72
     5
  1
\W1.089;\A1;3 FINGERS GRIPPERS
 73
     1
 44
1.0
1001
ACAD
1000
MTEXTBEGIN
1070
    73
1070
     1
1070
    44
1040
1.0
1070
    74
1070
     0
1000
MTEXTEND
  0
MTEXT
  5
2E4
330
A
100
AcDbEntity
  8
0
  6
Continuous
 62
   255
100
AcDbMText
 10
-168.9499963548448
 20
121.3500061035156
 30
0.0
 40
4.5
 41
0.0
 71
     4
 72
     5
  1
{\W1.067;NHE1D-25}
 73
     1
 44
1.0
1001
ACAD
1000
ACAD_MTEXT_DEFINED_HEIGHT_BEGIN
1070
    46
1040
0.0
1000
ACAD_MTEXT_DEFINED_HEIGHT_END
1000
MTEXTBEGIN
1070
    73
1070
     1
1070
    44
1040
1.0
1070
    74
1070
     0
1000
MTEXTEND
  0
MTEXT
  5
2EB
330
A
100
AcDbEntity
  8
0
  6
Continuous
 62
     7
100
AcDbMText
 10
-185.6923076941593
 20
107.6000061035156
 30
0.0
 40
4.5
 41
0.0
 71
     4
 72
     5
  1
\W1.077;\A1;MODEL:NHE1D-25
 73
     1
 44
1.0
1001
ACAD
1000
MTEXTBEGIN
1070
    73
1070
     1
1070
    44
1040
1.0
1070
    74
1070
     0
1000
MTEXTEND
  0
LINE
  5
2EC
330
A
100
AcDbEntity
  8
0
  6
Continuous
 62
     7
100
AcDbLine
 10
-194.25
 20
132.6000061035156
 30
0.0
 11
194.8000030517578
 21
132.6000061035156
 31
0.0
  0
LINE
  5
2ED
330
A
100
AcDbEntity
  8
0
  6
Continuous
 62
     7
100
AcDbLine
 10
194.8000030517578
 20
132.6000061035156
 30
0.0
 11
194.8000030517578
 21
-133.5
 31
0.0
  0
LINE
  5
2EE
330
A
100
AcDbEntity
  8
0
  6
Continuous
 62
     7
100
AcDbLine
 10
-194.25
 20
132.6000061035156
 30
0.0
 11
-194.25
 21
-133.5
 31
0.0
  0
LINE
  5
2EF
330
A
100
AcDbEntity
  8
0
  6
Continuous
 62
     7
100
AcDbLine
 10
-194.25
 20
-133.5
 30
0.0
 11
194.8000030517578
 21
-133.5
 31
0.0
  0
LINE
  5
2F0
330
A
100
AcDbEntity
  8
0
  6
Continuous
 62
     7
100
AcDbLine
 10
109.8000030517578
 20
-118.5
 30
0.0
 11
109.8000030517578
 21
-133.5
 31
0.0
  0
LINE
  5
2F1
330
A
100
AcDbEntity
  8
0
  6
Continuous
 62
     7
100
AcDbLine
 10
109.8000030517578
 20
-118.5
 30
0.0
 11
194.8000030517578
 21
-118.5
 31
0.0
  0
LINE
  5
2F2
330
A
100
AcDbEntity
  8
0
  6
Continuous
 62
     7
100
AcDbLine
 10
109.8000030517578
 20
132.6000061035156
 30
0.0
 11
109.8000030517578
 21
117.6000061035156
 31
0.0
  0
LINE
  5
2F3
330
A
100
AcDbEntity
  8
0
  6
Continuous
 62
     7
100
AcDbLine
 10
109.8000030517578
 20
117.6000061035156
 30
0.0
 11
194.8000030517578
 21
117.6000061035156
 31
0.0
  0
LINE
  5
2F4
330
A
100
AcDbEntity
  8
0
  6
Continuous
 62
     7
100
AcDbLine
 10
-194.25
 20
117.6000061035156
 30
0.0
 11
-109.25
 21
117.6000061035156
 31
0.0
  0
LINE
  5
2F5
330
A
100
AcDbEntity
  8
0
  6
Continuous
 62
     7
100
AcDbLine
 10
-109.25
 20
132.6000061035156
 30
0.0
 11
-109.25
 21
117.6000061035156
 31
0.0
  0
MTEXT
  5
2F6
330
A
100
AcDbEntity
  8
0
  6
Continuous
 62
     7
100
AcDbMText
 10
135.2836132057677
 20
125.1000061035156
 30
0.0
 40
4.5
 41
0.0
 71
     4
 72
     5
  1
\W1.311;\A1;Ver. 1.0
 73
     1
 44
1.0
1001
ACAD
1000
MTEXTBEGIN
1070
    73
1070
     1
1070
    44
1040
1.0
1070
    74
1070
     0
1000
MTEXTEND
  0
MTEXT
  5
2F7
330
A
100
AcDbEntity
  8
0
  6
Continuous
 62
     7
100
AcDbMText
 10
115.5267199617605
 20
-126.0
 30
0.0
 40
6.300000190734863
 41
0.0
 71
     4
 72
     5
  1
\W1.121;\A1;KOGANEI CORP.
 73
     1
 44
1.0
1001
ACAD
1000
MTEXTBEGIN
1070
    73
1070
     1
1070
    44
1040
1.0
1070
    74
1070
     0
1000
MTEXTEND
  0
ENDSEC
  0
SECTION
  2
OBJECTS
  0
DICTIONARY
  5
19
330
0
100
AcDbDictionary
281
     1
  3
ACAD_COLOR
350
300
  3
ACAD_GROUP
350
1A
  3
ACAD_LAYOUT
350
303
  3
ACAD_MATERIAL
350
2FF
  3
ACAD_MLINESTYLE
350
1B
  3
ACAD_PLOTSETTINGS
350
304
  3
ACAD_PLOTSTYLENAME
350
2FD
  3
ACAD_TABLESTYLE
350
301
  3
ACDBHEADERROUNDTRIPXREC
350
30F
  3
AcDbVariableDictionary
350
30A
  0
DICTIONARY
  5
300
102
{ACAD_REACTORS
330
19
102
}
330
19
100
AcDbDictionary
281
     1
  0
DICTIONARY
  5
1A
102
{ACAD_REACTORS
330
19
102
}
330
19
100
AcDbDictionary
281
     1
  0
DICTIONARY
  5
303
102
{ACAD_REACTORS
330
19
102
}
330
19
100
AcDbDictionary
281
     1
  3
Model
350
305
  3
レイアウト1
350
306
  0
DICTIONARY
  5
2FF
102
{ACAD_REACTORS
330
19
102
}
330
19
100
AcDbDictionary
281
     1
  0
DICTIONARY
  5
1B
102
{ACAD_REACTORS
330
19
102
}
330
19
100
AcDbDictionary
281
     1
  3
STANDARD
350
1C
  0
DICTIONARY
  5
304
102
{ACAD_REACTORS
330
19
102
}
330
19
100
AcDbDictionary
281
     1
  0
ACDBDICTIONARYWDFLT
  5
2FD
102
{ACAD_REACTORS
330
19
102
}
330
19
100
AcDbDictionary
281
     1
  3
Normal
350
2FE
100
AcDbDictionaryWithDefault
340
2FE
  0
DICTIONARY
  5
301
102
{ACAD_REACTORS
330
19
102
}
330
19
100
AcDbDictionary
281
     1
  3
Standard
350
302
  0
DICTIONARY
  5
30F
102
{ACAD_REACTORS
330
19
102
}
330
19
100
AcDbDictionary
281
     1
  0
DICTIONARY
  5
30A
102
{ACAD_REACTORS
330
19
102
}
330
19
100
AcDbDictionary
281
     1
  3
CTABLESTYLE
350
30B
  3
DIMASSOC
350
30C
  3
PROJECTNAME
350
30D
  0
LAYOUT
  5
305
102
{ACAD_XDICTIONARY
360
310
102
}
102
{ACAD_REACTORS
330
303
102
}
330
303
100
AcDbPlotSettings
  1

  2
DocuCentre 559
  4

  6

 40
0.0
 41
0.0
 42
0.0
 43
0.0
 44
0.0
 45
0.0
 46
0.0
 47
0.0
 48
0.0
 49
0.0
140
0.0
141
0.0
142
1.0
143
1.0
 70
  1712
 72
     0
 73
     0
 74
     0
  7

 75
     0
147
1.0
148
0.0
149
0.0
100
AcDbLayout
  1
Model
 70
     1
 71
     0
 10
0.0
 20
0.0
 11
12.0
 21
9.0
 12
0.0
 22
0.0
 32
0.0
 14
0.0
 24
0.0
 34
0.0
 15
0.0
 25
0.0
 35
0.0
146
0.0
 13
0.0
 23
0.0
 33
0.0
 16
1.0
 26
0.0
 36
0.0
 17
0.0
 27
1.0
 37
0.0
 76
     0
330
A
  0
LAYOUT
  5
306
102
{ACAD_XDICTIONARY
360
312
102
}
102
{ACAD_REACTORS
330
303
102
}
330
303
100
AcDbPlotSettings
  1

  2
DocuCentre 559
  4

  6

 40
0.0
 41
0.0
 42
0.0
 43
0.0
 44
0.0
 45
0.0
 46
0.0
 47
0.0
 48
0.0
 49
0.0
140
0.0
141
0.0
142
1.0
143
1.0
 70
   688
 72
     0
 73
     0
 74
     5
  7

 75
    16
147
1.0
148
0.0
149
0.0
100
AcDbLayout
  1
レイアウト1
 70
     0
 71
     1
 10
0.0
 20
0.0
 11
12.0
 21
9.0
 12
0.0
 22
0.0
 32
0.0
 14
1.000000000000000E+20
 24
1.000000000000000E+20
 34
1.000000000000000E+20
 15
-1.000000000000000E+20
 25
-1.000000000000000E+20
 35
-1.000000000000000E+20
146
0.0
 13
0.0
 23
0.0
 33
0.0
 16
1.0
 26
0.0
 36
0.0
 17
0.0
 27
1.0
 37
0.0
 76
     0
330
B
  0
MLINESTYLE
  5
1C
102
{ACAD_REACTORS
330
1B
102
}
330
1B
100
AcDbMlineStyle
  2
STANDARD
 70
     0
  3

 62
     0
 51
90.0
 52
90.0
 71
     2
 49
0.5
 62
   256
  6
BYLAYER
 49
-0.5
 62
   256
  6
BYLAYER
  0
ACDBPLACEHOLDER
  5
2FE
102
{ACAD_REACTORS
330
2FD
102
}
330
2FD
  0
TABLESTYLE
  5
302
102
{ACAD_REACTORS
330
301
102
}
330
301
100
AcDbTableStyle
  3
Standard
 70
     0
 71
     0
 40
0.06
 41
0.06
280
     0
281
     0
  7
MX_NOTE_STANDARD
140
0.18
170
     2
 62
     0
 63
     7
283
     0
274
    -2
284
     1
 64
     0
275
    -2
285
     1
 65
     0
276
    -2
286
     1
 66
     0
277
    -2
287
     1
 67
     0
278
    -2
288
     1
 68
     0
279
    -2
289
     1
 69
     0
  7
MX_NOTE_STANDARD
140
0.25
170
     5
 62
     0
 63
     7
283
     0
274
    -2
284
     1
 64
     0
275
    -2
285
     1
 65
     0
276
    -2
286
     1
 66
     0
277
    -2
287
     1
 67
     0
278
    -2
288
     1
 68
     0
279
    -2
289
     1
 69
     0
  7
MX_NOTE_STANDARD
140
0.18
170
     5
 62
     0
 63
     7
283
     0
274
    -2
284
     1
 64
     0
275
    -2
285
     1
 65
     0
276
    -2
286
     1
 66
     0
277
    -2
287
     1
 67
     0
278
    -2
288
     1
 68
     0
279
    -2
289
     1
 69
     0
  0
DICTIONARYVAR
  5
30B
102
{ACAD_REACTORS
330
30A
102
}
330
30A
100
DictionaryVariables
280
     0
  1
STANDARD
  0
DICTIONARYVAR
  5
30C
102
{ACAD_REACTORS
330
30A
102
}
330
30A
100
DictionaryVariables
280
     0
  1
1
  0
DICTIONARYVAR
  5
30D
102
{ACAD_REACTORS
330
30A
102
}
330
30A
100
DictionaryVariables
280
     0
  1

  0
DICTIONARY
  5
310
330
305
100
AcDbDictionary
280
     1
281
     1
  3
ACAD_XREC_ROUNDTRIP
360
311
  0
DICTIONARY
  5
312
330
306
100
AcDbDictionary
280
     1
281
     1
  3
ACAD_XREC_ROUNDTRIP
360
313
  0
XRECORD
  5
311
102
{ACAD_REACTORS
330
310
102
}
330
310
100
AcDbXrecord
280
     1
102
SHADEPLOT
 70
     0
102
SHADEPLOTRESLEVEL
 70
     2
102
SHADEPLOTCUSTOMDPI
 70
   300
  0
XRECORD
  5
313
102
{ACAD_REACTORS
330
312
102
}
330
312
100
AcDbXrecord
280
     1
102
SHADEPLOT
 70
     0
102
SHADEPLOTRESLEVEL
 70
     2
102
SHADEPLOTCUSTOMDPI
 70
   300
  0
ENDSEC
  0
EOF
