  0
SECTION
  2
HEADER
  9
$ACADVER
  1
AC1015
  9
$ACADMAINTVER
 70
    20
  9
$DWGCODEPAGE
  3
ANSI_932
  9
$INSBASE
 10
0.0
 20
0.0
 30
0.0
  9
$EXTMIN
 10
-194.25
 20
-133.5
 30
0.0
  9
$EXTMAX
 10
195.0953023707292
 20
132.6000061035156
 30
0.0
  9
$LIMMIN
 10
-210.0
 20
-148.5
  9
$LIMMAX
 10
210.0
 20
148.5
  9
$ORTHOMODE
 70
     0
  9
$REGENMODE
 70
     1
  9
$FILLMODE
 70
     1
  9
$QTEXTMODE
 70
     0
  9
$MIRRTEXT
 70
     1
  9
$LTSCALE
 40
1.0
  9
$ATTMODE
 70
     1
  9
$TEXTSIZE
 40
3.200000047683715
  9
$TRACEWID
 40
0.05
  9
$TEXTSTYLE
  7
MX_NOTE_STANDARD
  9
$CLAYER
  8
0
  9
$CELTYPE
  6
CONTINUOUS
  9
$CECOLOR
 62
   256
  9
$CELTSCALE
 40
1.0
  9
$DISPSILH
 70
     0
  9
$DIMSCALE
 40
1.0
  9
$DIMASZ
 40
2.5
  9
$DIMEXO
 40
1.5
  9
$DIMDLI
 40
3.75
  9
$DIMRND
 40
0.0
  9
$DIMDLE
 40
0.0
  9
$DIMEXE
 40
1.5
  9
$DIMTP
 40
0.0
  9
$DIMTM
 40
0.0
  9
$DIMTXT
 40
3.200000047683715
  9
$DIMCEN
 40
2.5
  9
$DIMTSZ
 40
0.0
  9
$DIMTOL
 70
     0
  9
$DIMLIM
 70
     0
  9
$DIMTIH
 70
     0
  9
$DIMTOH
 70
     0
  9
$DIMSE1
 70
     0
  9
$DIMSE2
 70
     0
  9
$DIMTAD
 70
     1
  9
$DIMZIN
 70
     8
  9
$DIMBLK
  1

  9
$DIMASO
 70
     1
  9
$DIMSHO
 70
     1
  9
$DIMPOST
  1

  9
$DIMAPOST
  1

  9
$DIMALT
 70
     0
  9
$DIMALTD
 70
     4
  9
$DIMALTF
 40
0.03937007874016
  9
$DIMLFAC
 40
1.0
  9
$DIMTOFL
 70
     1
  9
$DIMTVP
 40
0.0
  9
$DIMTIX
 70
     0
  9
$DIMSOXD
 70
     0
  9
$DIMSAH
 70
     1
  9
$DIMBLK1
  1
OPEN30
  9
$DIMBLK2
  1
OPEN30
  9
$DIMSTYLE
  2
MXDIMSTYLE
  9
$DIMCLRD
 70
     0
  9
$DIMCLRE
 70
     0
  9
$DIMCLRT
 70
     0
  9
$DIMTFAC
 40
1.0
  9
$DIMGAP
 40
1.0
  9
$DIMJUST
 70
     0
  9
$DIMSD1
 70
     0
  9
$DIMSD2
 70
     0
  9
$DIMTOLJ
 70
     0
  9
$DIMTZIN
 70
     0
  9
$DIMALTZ
 70
     0
  9
$DIMALTTZ
 70
     0
  9
$DIMUPT
 70
     1
  9
$DIMDEC
 70
     2
  9
$DIMTDEC
 70
     2
  9
$DIMALTU
 70
     2
  9
$DIMALTTD
 70
     4
  9
$DIMTXSTY
  7
MX_NOTE_STANDARD
  9
$DIMAUNIT
 70
     0
  9
$DIMADEC
 70
     0
  9
$DIMALTRND
 40
0.0
  9
$DIMAZIN
 70
     0
  9
$DIMDSEP
 70
    46
  9
$DIMATFIT
 70
     3
  9
$DIMFRAC
 70
     0
  9
$DIMLDRBLK
  1
OPEN30
  9
$DIMLUNIT
 70
     2
  9
$DIMLWD
 70
    -2
  9
$DIMLWE
 70
    -2
  9
$DIMTMOVE
 70
     0
  9
$LUNITS
 70
     2
  9
$LUPREC
 70
     4
  9
$SKETCHINC
 40
0.1
  9
$FILLETRAD
 40
0.0
  9
$AUNITS
 70
     0
  9
$AUPREC
 70
     0
  9
$MENU
  1
acad
  9
$ELEVATION
 40
0.0
  9
$PELEVATION
 40
0.0
  9
$THICKNESS
 40
0.0
  9
$LIMCHECK
 70
     0
  9
$CHAMFERA
 40
0.0
  9
$CHAMFERB
 40
0.0
  9
$CHAMFERC
 40
0.0
  9
$CHAMFERD
 40
0.0
  9
$SKPOLY
 70
     0
  9
$TDCREATE
 40
2453882.358090278
  9
$TDUCREATE
 40
2453881.983090278
  9
$TDUPDATE
 40
2453885.461164861
  9
$TDUUPDATE
 40
2453885.086164861
  9
$TDINDWG
 40
0.0013169444
  9
$TDUSRTIMER
 40
0.0013167130
  9
$USRTIMER
 70
     1
  9
$ANGBASE
 50
0.0
  9
$ANGDIR
 70
     0
  9
$PDMODE
 70
     0
  9
$PDSIZE
 40
0.0
  9
$PLINEWID
 40
0.0
  9
$SPLFRAME
 70
     0
  9
$SPLINETYPE
 70
     6
  9
$SPLINESEGS
 70
     8
  9
$HANDSEED
  5
2BB
  9
$SURFTAB1
 70
     6
  9
$SURFTAB2
 70
     6
  9
$SURFTYPE
 70
     6
  9
$SURFU
 70
     6
  9
$SURFV
 70
     6
  9
$UCSBASE
  2

  9
$UCSNAME
  2

  9
$UCSORG
 10
0.0
 20
0.0
 30
0.0
  9
$UCSXDIR
 10
1.0
 20
0.0
 30
0.0
  9
$UCSYDIR
 10
0.0
 20
1.0
 30
0.0
  9
$UCSORTHOREF
  2

  9
$UCSORTHOVIEW
 70
     0
  9
$UCSORGTOP
 10
0.0
 20
0.0
 30
0.0
  9
$UCSORGBOTTOM
 10
0.0
 20
0.0
 30
0.0
  9
$UCSORGLEFT
 10
0.0
 20
0.0
 30
0.0
  9
$UCSORGRIGHT
 10
0.0
 20
0.0
 30
0.0
  9
$UCSORGFRONT
 10
0.0
 20
0.0
 30
0.0
  9
$UCSORGBACK
 10
0.0
 20
0.0
 30
0.0
  9
$PUCSBASE
  2

  9
$PUCSNAME
  2

  9
$PUCSORG
 10
0.0
 20
0.0
 30
0.0
  9
$PUCSXDIR
 10
1.0
 20
0.0
 30
0.0
  9
$PUCSYDIR
 10
0.0
 20
1.0
 30
0.0
  9
$PUCSORTHOREF
  2

  9
$PUCSORTHOVIEW
 70
     0
  9
$PUCSORGTOP
 10
0.0
 20
0.0
 30
0.0
  9
$PUCSORGBOTTOM
 10
0.0
 20
0.0
 30
0.0
  9
$PUCSORGLEFT
 10
0.0
 20
0.0
 30
0.0
  9
$PUCSORGRIGHT
 10
0.0
 20
0.0
 30
0.0
  9
$PUCSORGFRONT
 10
0.0
 20
0.0
 30
0.0
  9
$PUCSORGBACK
 10
0.0
 20
0.0
 30
0.0
  9
$USERI1
 70
     0
  9
$USERI2
 70
     0
  9
$USERI3
 70
     0
  9
$USERI4
 70
     0
  9
$USERI5
 70
     0
  9
$USERR1
 40
0.0
  9
$USERR2
 40
0.0
  9
$USERR3
 40
0.0
  9
$USERR4
 40
0.0
  9
$USERR5
 40
0.0
  9
$WORLDVIEW
 70
     1
  9
$SHADEDGE
 70
     3
  9
$SHADEDIF
 70
    70
  9
$TILEMODE
 70
     1
  9
$MAXACTVP
 70
    16
  9
$PINSBASE
 10
0.0
 20
0.0
 30
0.0
  9
$PLIMCHECK
 70
     0
  9
$PEXTMIN
 10
1.000000000000000E+20
 20
1.000000000000000E+20
 30
1.000000000000000E+20
  9
$PEXTMAX
 10
-1.000000000000000E+20
 20
-1.000000000000000E+20
 30
-1.000000000000000E+20
  9
$PLIMMIN
 10
0.0
 20
0.0
  9
$PLIMMAX
 10
12.0
 20
9.0
  9
$UNITMODE
 70
     0
  9
$VISRETAIN
 70
     0
  9
$PLINEGEN
 70
     1
  9
$PSLTSCALE
 70
     0
  9
$TREEDEPTH
 70
  3020
  9
$CMLSTYLE
  2
STANDARD
  9
$CMLJUST
 70
     0
  9
$CMLSCALE
 40
1.0
  9
$PROXYGRAPHICS
 70
     1
  9
$MEASUREMENT
 70
     0
  9
$CELWEIGHT
370
    -1
  9
$ENDCAPS
280
     0
  9
$JOINSTYLE
280
     0
  9
$LWDISPLAY
290
     0
  9
$INSUNITS
 70
     0
  9
$HYPERLINKBASE
  1

  9
$STYLESHEET
  1

  9
$XEDIT
290
     1
  9
$CEPSNTYPE
380
     0
  9
$PSTYLEMODE
290
     1
  9
$FINGERPRINTGUID
  2
{72F61435-D580-4E20-AF20-54BBD88B4C16}
  9
$VERSIONGUID
  2
{C4B4353C-948D-43D9-8E07-6C715334B034}
  9
$EXTNAMES
290
     1
  9
$PSVPSCALE
 40
0.0
  9
$OLESTARTUP
290
     0
  0
ENDSEC
  0
SECTION
  2
CLASSES
  0
CLASS
  1
IMAGE
  2
AcDbRasterImage
  3
ISM
 90
    32895
280
     0
281
     1
  0
CLASS
  1
DICTIONARYVAR
  2
AcDbDictionaryVar
  3
ObjectDBX Classes
 90
        0
280
     0
281
     0
  0
CLASS
  1
RASTERVARIABLES
  2
AcDbRasterVariables
  3
ISM
 90
    32768
280
     0
281
     0
  0
CLASS
  1
IMAGEDEF
  2
AcDbRasterImageDef
  3
ISM
 90
    32768
280
     0
281
     0
  0
CLASS
  1
IMAGEDEF_REACTOR
  2
AcDbRasterImageDefReactor
  3
ISM
 90
    32769
280
     0
281
     0
  0
CLASS
  1
IDBUFFER
  2
AcDbIdBuffer
  3
ObjectDBX Classes
 90
    32768
280
     0
281
     0
  0
CLASS
  1
SPATIAL_FILTER
  2
AcDbSpatialFilter
  3
ObjectDBX Classes
 90
    32768
280
     0
281
     0
  0
CLASS
  1
SORTENTSTABLE
  2
AcDbSortentsTable
  3
ObjectDBX Classes
 90
        0
280
     0
281
     0
  0
CLASS
  1
LAYER_INDEX
  2
AcDbLayerIndex
  3
ObjectDBX Classes
 90
    32768
280
     0
281
     0
  0
CLASS
  1
SPATIAL_INDEX
  2
AcDbSpatialIndex
  3
ObjectDBX Classes
 90
    32768
280
     0
281
     0
  0
CLASS
  1
OBJECT_PTR
  2
CAseDLPNTableRecord
  3
"ASE-LPNTableRecord"
 90
    32769
280
     0
281
     0
  0
CLASS
  1
LAYOUT
  2
AcDbLayout
  3
ObjectDBX Classes
 90
        0
280
     0
281
     0
  0
CLASS
  1
PLOTSETTINGS
  2
AcDbPlotSettings
  3
ObjectDBX Classes
 90
    32768
280
     0
281
     0
  0
CLASS
  1
ACDBDICTIONARYWDFLT
  2
AcDbDictionaryWithDefault
  3
ObjectDBX Classes
 90
        0
280
     0
281
     0
  0
CLASS
  1
ACDBPLACEHOLDER
  2
AcDbPlaceHolder
  3
ObjectDBX Classes
 90
        0
280
     0
281
     0
  0
CLASS
  1
TABLESTYLE
  2
AcDbTableStyle
  3
ObjectDBX Classes
 90
     2047
280
     0
281
     0
  0
ENDSEC
  0
SECTION
  2
TABLES
  0
TABLE
  2
VPORT
  5
7
330
0
100
AcDbSymbolTable
 70
     2
  0
VPORT
  5
2B5
330
7
100
AcDbSymbolTableRecord
100
AcDbViewportTableRecord
  2
*Active
 70
     0
 10
0.0
 20
0.0
 11
1.0
 21
1.0
 12
12.90528374262544
 22
65.79208722125494
 13
0.0
 23
0.0
 14
1.0
 24
1.0
 15
0.0
 25
0.0
 16
0.0
 26
0.0
 36
1.0
 17
0.0
 27
0.0
 37
0.0
 40
328.0072240608126
 41
1.874251497005987
 42
50.0
 43
0.0
 44
0.0
 50
0.0
 51
0.0
 71
     0
 72
   100
 73
     1
 74
     1
 75
     0
 76
     0
 77
     0
 78
     0
281
     0
 65
     1
110
0.0
120
0.0
130
0.0
111
1.0
121
0.0
131
0.0
112
0.0
122
1.0
132
0.0
 79
     0
146
0.0
  0
ENDTAB
  0
TABLE
  2
LTYPE
  5
4
330
0
100
AcDbSymbolTable
 70
     3
  0
LTYPE
  5
11
330
4
100
AcDbSymbolTableRecord
100
AcDbLinetypeTableRecord
  2
BYBLOCK
 70
     0
  3

 72
    65
 73
     0
 40
0.0
  0
LTYPE
  5
12
330
4
100
AcDbSymbolTableRecord
100
AcDbLinetypeTableRecord
  2
BYLAYER
 70
     0
  3

 72
    65
 73
     0
 40
0.0
  0
LTYPE
  5
13
330
4
100
AcDbSymbolTableRecord
100
AcDbLinetypeTableRecord
  2
CONTINUOUS
 70
     0
  3
Solid line
 72
    65
 73
     0
 40
0.0
  0
LTYPE
  5
2F
330
4
100
AcDbSymbolTableRecord
100
AcDbLinetypeTableRecord
  2
CENTER
 70
     0
  3
Center ____ _ ____ _ ____ _ ____ _ ____ _ ____
 72
    65
 73
     4
 40
50.8
 49
31.75
 74
     0
 49
-6.349999999999999
 74
     0
 49
6.349999999999999
 74
     0
 49
-6.349999999999999
 74
     0
  0
ENDTAB
  0
TABLE
  2
LAYER
  5
2
330
0
100
AcDbSymbolTable
 70
     2
  0
LAYER
  5
14
330
2
100
AcDbSymbolTableRecord
100
AcDbLayerTableRecord
  2
0
 70
     0
 62
     7
  6
CONTINUOUS
370
    -3
390
21B
  0
LAYER
  5
1D
330
2
100
AcDbSymbolTableRecord
100
AcDbLayerTableRecord
  2
DEFPOINTS
 70
     0
 62
     7
  6
CONTINUOUS
290
     0
370
    -3
390
21B
  0
ENDTAB
  0
TABLE
  2
STYLE
  5
3
330
0
100
AcDbSymbolTable
 70
     2
  0
STYLE
  5
17
330
3
100
AcDbSymbolTableRecord
100
AcDbTextStyleTableRecord
  2
MX_NOTE_STANDARD
 70
     0
 40
0.0
 41
1.0
 50
0.0
 71
     0
 42
3.200000047683715
  3
txt.shx
  4
extfont.shx
  0
STYLE
  5
219
330
3
100
AcDbSymbolTableRecord
100
AcDbTextStyleTableRecord
  2
Standard
 70
     0
 40
0.0
 41
1.0
 50
0.0
 71
     0
 42
0.2
  3

  4

  0
ENDTAB
  0
TABLE
  2
VIEW
  5
5
330
0
100
AcDbSymbolTable
 70
     0
  0
ENDTAB
  0
TABLE
  2
UCS
  5
6
330
0
100
AcDbSymbolTable
 70
     0
  0
ENDTAB
  0
TABLE
  2
APPID
  5
8
330
0
100
AcDbSymbolTable
 70
     2
  0
APPID
  5
16
330
8
100
AcDbSymbolTableRecord
100
AcDbRegAppTableRecord
  2
ACAD
 70
     0
  0
APPID
  5
2A7
330
8
100
AcDbSymbolTableRecord
100
AcDbRegAppTableRecord
  2
ACAD_EXEMPT_FROM_CAD_STANDARDS
 70
     0
  0
ENDTAB
  0
TABLE
  2
DIMSTYLE
  5
9
330
0
100
AcDbSymbolTable
 70
     2
100
AcDbDimStyleTable
 71
     1
340
18
  0
DIMSTYLE
105
18
330
9
100
AcDbSymbolTableRecord
100
AcDbDimStyleTableRecord
  2
MXDIMSTYLE
 70
     0
 41
2.5
 42
1.5
 43
3.75
 44
1.5
 73
     0
 74
     0
 77
     1
 78
     8
140
3.200000047683715
141
2.5
143
0.03937007874016
147
1.0
171
     4
172
     1
173
     1
271
     2
272
     2
274
     4
283
     0
288
     1
340
17
341
22
343
22
344
22
  0
ENDTAB
  0
TABLE
  2
BLOCK_RECORD
  5
1
330
0
100
AcDbSymbolTable
 70
     6
  0
BLOCK_RECORD
  5
A
102
{ACAD_XDICTIONARY
360
2A4
102
}
330
1
100
AcDbSymbolTableRecord
100
AcDbBlockTableRecord
  2
*MODEL_SPACE
340
222
  0
BLOCK_RECORD
  5
B
330
1
100
AcDbSymbolTableRecord
100
AcDbBlockTableRecord
  2
*PAPER_SPACE
340
223
  0
BLOCK_RECORD
  5
1E
330
1
100
AcDbSymbolTableRecord
100
AcDbBlockTableRecord
  2
NHE2-16-1
340
0
102
{BLKREFS
331
203
102
}
  0
BLOCK_RECORD
  5
1F
330
1
100
AcDbSymbolTableRecord
100
AcDbBlockTableRecord
  2
NHE2-16-2
340
0
  0
BLOCK_RECORD
  5
20
330
1
100
AcDbSymbolTableRecord
100
AcDbBlockTableRecord
  2
NHE2-16-3
340
0
102
{BLKREFS
331
201
102
}
  0
BLOCK_RECORD
  5
21
330
1
100
AcDbSymbolTableRecord
100
AcDbBlockTableRecord
  2
NHE2-16-4
340
0
102
{BLKREFS
331
200
102
}
  0
BLOCK_RECORD
  5
22
330
1
100
AcDbSymbolTableRecord
100
AcDbBlockTableRecord
  2
_OPEN30
340
0
  0
ENDTAB
  0
ENDSEC
  0
SECTION
  2
BLOCKS
  0
BLOCK
  5
D
330
A
100
AcDbEntity
  8
0
100
AcDbBlockBegin
  2
*MODEL_SPACE
 70
     0
 10
0.0
 20
0.0
 30
0.0
  3
*MODEL_SPACE
  1

  0
ENDBLK
  5
E
330
A
100
AcDbEntity
  8
0
100
AcDbBlockEnd
  0
BLOCK
  5
F
330
B
100
AcDbEntity
 67
     1
  8
0
100
AcDbBlockBegin
  2
*PAPER_SPACE
 70
     0
 10
0.0
 20
0.0
 30
0.0
  3
*PAPER_SPACE
  1

  0
ENDBLK
  5
10
330
B
100
AcDbEntity
 67
     1
  8
0
100
AcDbBlockEnd
  0
BLOCK
  5
28
330
1E
100
AcDbEntity
  8
0
100
AcDbBlockBegin
  2
NHE2-16-1
 70
     0
 10
0.0
 20
0.0
 30
0.0
  3
NHE2-16-1
  1

  0
ELLIPSE
  5
29
330
1E
100
AcDbEntity
  8
0
  6
Continuous
 62
     7
100
AcDbEllipse
 10
16.00001525878906
 20
-14.97406768798828
 30
0.0
 11
1.25
 21
-0.0000000000000003
 31
0.0
210
0.0
220
0.0
230
1.0
 40
0.854205322265625
 41
0.0
 42
6.283185307179585
  0
ELLIPSE
  5
2A
330
1E
100
AcDbEntity
  8
0
  6
Continuous
 62
     7
100
AcDbEllipse
 10
16.00001525878906
 20
14.97406768798828
 30
0.0
 11
1.25
 21
-0.0000000000000003
 31
0.0
210
0.0
220
0.0
230
1.0
 40
0.854205322265625
 41
0.0
 42
6.283185307179585
  0
CIRCLE
  5
2B
330
1E
100
AcDbEntity
  8
0
  6
Continuous
 62
     7
100
AcDbCircle
 10
3.5
 20
2.0
 30
0.0
 40
1.0
  0
CIRCLE
  5
2C
330
1E
100
AcDbEntity
  8
0
  6
Continuous
 62
     7
100
AcDbCircle
 10
3.5
 20
-2.0
 30
0.0
 40
1.0
  0
ARC
  5
2D
330
1E
100
AcDbEntity
  8
0
  6
Continuous
 62
     7
100
AcDbCircle
 10
3.500007629394531
 20
3.499984741210937
 30
0.0
 40
1.0
100
AcDbArc
 50
0.0
 51
180.0
  0
ARC
  5
2E
330
1E
100
AcDbEntity
  8
0
  6
Continuous
 62
     7
100
AcDbCircle
 10
3.500007629394531
 20
-3.5
 30
0.0
 40
1.0
100
AcDbArc
 50
179.9999770049543
 51
359.9999410327757
  0
LINE
  5
30
330
1E
100
AcDbEntity
  8
0
  6
CENTER
 62
     2
100
AcDbLine
 10
-3.746566772460937
 20
0.0
 30
0.0
 11
84.20000076293945
 21
0.0
 31
0.0
  0
LINE
  5
31
330
1E
100
AcDbEntity
  8
0
  6
Continuous
 62
     7
100
AcDbLine
 10
78.0
 20
-11.99999996689644
 30
0.0
 11
77.5
 21
-12.49999996689644
 31
0.0
  0
LINE
  5
32
330
1E
100
AcDbEntity
  8
0
  6
Continuous
 62
     7
100
AcDbLine
 10
38.00001525878906
 20
-12.30000305175781
 30
0.0
 11
40.00001525878905
 21
-12.30000305175781
 31
0.0
  0
LINE
  5
33
330
1E
100
AcDbEntity
  8
0
  6
Continuous
 62
     7
100
AcDbLine
 10
40.00001525878905
 20
12.5
 30
0.0
 11
40.00001525878905
 21
-12.5
 31
0.0
  0
LINE
  5
34
330
1E
100
AcDbEntity
  8
0
  6
Continuous
 62
     7
100
AcDbLine
 10
37.20001602172852
 20
2.75
 30
0.0
 11
34.50001525878907
 21
2.75
 31
0.0
  0
LINE
  5
35
330
1E
100
AcDbEntity
  8
0
  6
Continuous
 62
     7
100
AcDbLine
 10
37.50001525878906
 20
2.450000762939452
 30
0.0
 11
37.50001525878906
 21
-2.450000762939452
 31
0.0
  0
LINE
  5
36
330
1E
100
AcDbEntity
  8
0
  6
Continuous
 62
     7
100
AcDbLine
 10
37.20001602172852
 20
-2.75
 30
0.0
 11
34.50001525878907
 21
-2.75
 31
0.0
  0
LINE
  5
37
330
1E
100
AcDbEntity
  8
0
  6
Continuous
 62
     7
100
AcDbLine
 10
81.20000076293946
 20
10.44999882457905
 30
0.0
 11
80.70000263927632
 21
10.94999694824219
 31
0.0
  0
LINE
  5
38
330
1E
100
AcDbEntity
  8
0
  6
Continuous
 62
     7
100
AcDbLine
 10
14.00000381469726
 20
-20.5
 30
0.0
 11
37.50001822834747
 21
-20.5
 31
0.0
  0
LINE
  5
39
330
1E
100
AcDbEntity
  8
0
  6
Continuous
 62
     7
100
AcDbLine
 10
14.00000381469726
 20
20.5
 30
0.0
 11
37.50001335144043
 21
20.5
 31
0.0
  0
LINE
  5
3A
330
1E
100
AcDbEntity
  8
0
  6
Continuous
 62
     7
100
AcDbLine
 10
78.0
 20
12.0
 30
0.0
 11
78.0
 21
-11.99999996689644
 31
0.0
  0
LINE
  5
3B
330
1E
100
AcDbEntity
  8
0
  6
Continuous
 62
     7
100
AcDbLine
 10
78.00000055502142
 20
11.99999944497858
 30
0.0
 11
77.50000002422665
 21
12.49999997577333
 31
0.0
  0
LINE
  5
3C
330
1E
100
AcDbEntity
  8
0
  6
Continuous
 62
     7
100
AcDbLine
 10
77.5
 20
12.5
 30
0.0
 11
77.5
 21
-12.5
 31
0.0
  0
LINE
  5
3D
330
1E
100
AcDbEntity
  8
0
  6
Continuous
 62
     7
100
AcDbLine
 10
80.70000080637923
 20
-10.95000076293945
 30
0.0
 11
80.70000080637923
 21
-5.878991560449861
 31
0.0
  0
LINE
  5
3E
330
1E
100
AcDbEntity
  8
0
  6
Continuous
 62
     7
100
AcDbLine
 10
78.0
 20
-10.95000076293945
 30
0.0
 11
80.70000080637923
 21
-10.95000076293945
 31
0.0
  0
LINE
  5
3F
330
1E
100
AcDbEntity
  8
0
  6
Continuous
 62
     7
100
AcDbLine
 10
81.20000076293946
 20
-10.45000080637923
 30
0.0
 11
80.70000080637923
 21
-10.95000076293945
 31
0.0
  0
LINE
  5
40
330
1E
100
AcDbEntity
  8
0
  6
Continuous
 62
     7
100
AcDbLine
 10
40.00001525878905
 20
12.5
 30
0.0
 11
77.5
 21
12.5
 31
0.0
  0
LINE
  5
41
330
1E
100
AcDbEntity
  8
0
  6
Continuous
 62
     7
100
AcDbLine
 10
38.00001525878906
 20
20.0
 30
0.0
 11
38.00001525878906
 21
-20.00000296955841
 31
0.0
  0
LINE
  5
42
330
1E
100
AcDbEntity
  8
0
  6
Continuous
 62
     7
100
AcDbLine
 10
37.50001554044639
 20
20.49999767889631
 30
0.0
 11
38.00001607124114
 21
19.99999714810156
 31
0.0
  0
LINE
  5
43
330
1E
100
AcDbEntity
  8
0
  6
Continuous
 62
     7
100
AcDbLine
 10
32.00001525878907
 20
20.5
 30
0.0
 11
32.00001525878907
 21
-20.5
 31
0.0
  0
LINE
  5
44
330
1E
100
AcDbEntity
  8
0
  6
Continuous
 62
     7
100
AcDbLine
 10
37.50001822834747
 20
-20.5
 30
0.0
 11
38.00001525878906
 21
-20.00000296955841
 31
0.0
  0
LINE
  5
45
330
1E
100
AcDbEntity
  8
0
  6
Continuous
 62
     7
100
AcDbLine
 10
38.00001525878906
 20
12.30000305175781
 30
0.0
 11
40.00001525878905
 21
12.30000305175781
 31
0.0
  0
LINE
  5
46
330
1E
100
AcDbEntity
  8
0
  6
Continuous
 62
     7
100
AcDbLine
 10
78.0
 20
10.94999694824219
 30
0.0
 11
80.70000263927632
 21
10.94999694824219
 31
0.0
  0
LINE
  5
47
330
1E
100
AcDbEntity
  8
0
  6
Continuous
 62
     7
100
AcDbLine
 10
81.20000076293946
 20
10.44999882457905
 30
0.0
 11
81.20000076293946
 21
-10.45000080637923
 31
0.0
  0
LINE
  5
48
330
1E
100
AcDbEntity
  8
0
  6
Continuous
 62
     7
100
AcDbLine
 10
40.00001525878905
 20
-12.5
 30
0.0
 11
77.5
 21
-12.5
 31
0.0
  0
LINE
  5
49
330
1E
100
AcDbEntity
  8
0
  6
Continuous
 62
     7
100
AcDbLine
 10
37.50001526124606
 20
-2.450000760482452
 30
0.0
 11
37.20001602172852
 21
-2.75
 31
0.0
  0
LINE
  5
4A
330
1E
100
AcDbEntity
  8
0
  6
Continuous
 62
     7
100
AcDbLine
 10
37.50001525878906
 20
2.450000762939452
 30
0.0
 11
37.20001602172852
 21
2.75
 31
0.0
  0
LINE
  5
4B
330
1E
100
AcDbEntity
  8
0
  6
Continuous
 62
     7
100
AcDbLine
 10
37.20001602172852
 20
2.75
 30
0.0
 11
37.20001602172852
 21
-2.75
 31
0.0
  0
LINE
  5
4C
330
1E
100
AcDbEntity
  8
0
  6
Continuous
 62
     7
100
AcDbLine
 10
38.00001525878906
 20
3.0
 30
0.0
 11
34.50001525878907
 21
3.0
 31
0.0
  0
LINE
  5
4D
330
1E
100
AcDbEntity
  8
0
  6
Continuous
 62
     7
100
AcDbLine
 10
38.00001525878906
 20
-3.0
 30
0.0
 11
34.50001525878907
 21
-3.0
 31
0.0
  0
LINE
  5
4E
330
1E
100
AcDbEntity
  8
0
  6
Continuous
 62
     7
100
AcDbLine
 10
34.50001525878907
 20
3.0
 30
0.0
 11
34.50001525878907
 21
-3.0
 31
0.0
  0
LINE
  5
4F
330
1E
100
AcDbEntity
  8
0
  6
Continuous
 62
     7
100
AcDbLine
 10
81.20000076293946
 20
5.878982543945312
 30
0.0
 11
78.0
 21
5.878982543945312
 31
0.0
  0
LINE
  5
50
330
1E
100
AcDbEntity
  8
0
  6
Continuous
 62
     7
100
AcDbLine
 10
81.20000076293946
 20
-5.878990173339843
 30
0.0
 11
78.0
 21
-5.878990173339843
 31
0.0
  0
LINE
  5
51
330
1E
100
AcDbEntity
  8
0
  6
Continuous
 62
     2
100
AcDbLine
 10
81.20000076293946
 20
5.878982543945312
 30
0.0
 11
78.0
 21
-1.646123706367511
 31
0.0
  0
LINE
  5
52
330
1E
100
AcDbEntity
  8
0
  6
Continuous
 62
     2
100
AcDbLine
 10
81.20000076293946
 20
-5.878990173339843
 30
0.0
 11
78.0
 21
1.646116076972958
 31
0.0
  0
LINE
  5
53
330
1E
100
AcDbEntity
  8
0
  6
Continuous
 62
     7
100
AcDbLine
 10
80.70000263927632
 20
5.878982543945312
 30
0.0
 11
80.70000263927632
 21
10.94999694824219
 31
0.0
  0
LINE
  5
54
330
1E
100
AcDbEntity
  8
0
  6
Continuous
 62
     7
100
AcDbLine
 10
20.00000381469726
 20
20.5
 30
0.0
 11
20.00000381469726
 21
10.0
 31
0.0
  0
LINE
  5
55
330
1E
100
AcDbEntity
  8
0
  6
Continuous
 62
     7
100
AcDbLine
 10
14.00000381469726
 20
10.0
 30
0.0
 11
14.00000381469726
 21
-10.0
 31
0.0
  0
LINE
  5
56
330
1E
100
AcDbEntity
  8
0
  6
Continuous
 62
     7
100
AcDbLine
 10
6.000003814697265
 20
-10.0
 30
0.0
 11
20.00000381469726
 21
-10.0
 31
0.0
  0
LINE
  5
57
330
1E
100
AcDbEntity
  8
0
  6
Continuous
 62
     7
100
AcDbLine
 10
6.000003814697265
 20
10.0
 30
0.0
 11
20.00000381469726
 21
10.0
 31
0.0
  0
LINE
  5
58
330
1E
100
AcDbEntity
  8
0
  6
Continuous
 62
     7
100
AcDbLine
 10
6.000003814697265
 20
-8.5
 30
0.0
 11
6.000003814697265
 21
-23.89445495605469
 31
0.0
  0
LINE
  5
59
330
1E
100
AcDbEntity
  8
0
  6
Continuous
 62
     7
100
AcDbLine
 10
8.000003814697265
 20
8.499992370605468
 30
0.0
 11
1.5
 21
8.499992370605468
 31
0.0
  0
LINE
  5
5A
330
1E
100
AcDbEntity
  8
0
  6
Continuous
 62
     7
100
AcDbLine
 10
8.000003814697265
 20
-8.5
 30
0.0
 11
1.5
 21
-8.5
 31
0.0
  0
LINE
  5
5B
330
1E
100
AcDbEntity
  8
0
  6
Continuous
 62
     7
100
AcDbLine
 10
8.000003814697265
 20
8.499992370605468
 30
0.0
 11
8.000003814697265
 21
-8.5
 31
0.0
  0
LINE
  5
5C
330
1E
100
AcDbEntity
  8
0
  6
Continuous
 62
     7
100
AcDbLine
 10
6.000003814697265
 20
8.499992370605468
 30
0.0
 11
6.000003814697265
 21
23.89446258544921
 31
0.0
  0
LINE
  5
5D
330
1E
100
AcDbEntity
  8
0
  6
Continuous
 62
     7
100
AcDbLine
 10
13.0000079694464
 20
-23.89445495605469
 30
0.0
 11
6.000003814697265
 21
-23.89445495605469
 31
0.0
  0
LINE
  5
5E
330
1E
100
AcDbEntity
  8
0
  6
Continuous
 62
     7
100
AcDbLine
 10
13.00000381469726
 20
23.89446258544921
 30
0.0
 11
6.000003814697265
 21
23.89446258544921
 31
0.0
  0
LINE
  5
5F
330
1E
100
AcDbEntity
  8
0
  6
Continuous
 62
     2
100
AcDbLine
 10
1.660560607910156
 20
2.0
 30
0.0
 11
5.257293701171875
 21
2.0
 31
0.0
  0
LINE
  5
60
330
1E
100
AcDbEntity
  8
0
  6
Continuous
 62
     2
100
AcDbLine
 10
1.973320007324218
 20
-2.0
 30
0.0
 11
5.570053100585937
 21
-2.0
 31
0.0
  0
LINE
  5
61
330
1E
100
AcDbEntity
  8
0
  6
Continuous
 62
     7
100
AcDbLine
 10
4.500015258789063
 20
-3.5
 30
0.0
 11
6.000015258789063
 21
-3.5
 31
0.0
  0
LINE
  5
62
330
1E
100
AcDbEntity
  8
0
  6
Continuous
 62
     7
100
AcDbLine
 10
4.500007629394531
 20
3.499984741210937
 30
0.0
 11
6.000015258789063
 21
3.499984741210937
 31
0.0
  0
LINE
  5
63
330
1E
100
AcDbEntity
  8
0
  6
Continuous
 62
     2
100
AcDbLine
 10
3.5
 20
-4.906204223632812
 30
0.0
 11
3.5
 21
5.336654663085937
 31
0.0
  0
LINE
  5
64
330
1E
100
AcDbEntity
  8
0
  6
Continuous
 62
     7
100
AcDbLine
 10
6.000003814697265
 20
-3.5
 30
0.0
 11
6.000003814697265
 21
3.499984741210937
 31
0.0
  0
LINE
  5
65
330
1E
100
AcDbEntity
  8
0
  6
Continuous
 62
     7
100
AcDbLine
 10
0.0
 20
3.499984741210937
 30
0.0
 11
2.500007629394531
 21
3.499984741210937
 31
0.0
  0
LINE
  5
66
330
1E
100
AcDbEntity
  8
0
  6
Continuous
 62
     7
100
AcDbLine
 10
0.0
 20
-3.5
 30
0.0
 11
2.500007629394531
 21
-3.5
 31
0.0
  0
LINE
  5
67
330
1E
100
AcDbEntity
  8
0
  6
Continuous
 62
     7
100
AcDbLine
 10
0.0
 20
-18.55088806152344
 30
0.0
 11
0.0
 21
-3.705947875976562
 31
0.0
  0
LINE
  5
68
330
1E
100
AcDbEntity
  8
0
  6
Continuous
 62
     7
100
AcDbLine
 10
1.5
 20
3.499984741210937
 30
0.0
 11
1.5
 21
23.64895629882813
 31
0.0
  0
LINE
  5
69
330
1E
100
AcDbEntity
  8
0
  6
Continuous
 62
     7
100
AcDbLine
 10
6.000003814697265
 20
-23.64896011352539
 30
0.0
 11
1.5
 21
-23.64896011352539
 31
0.0
  0
LINE
  5
6A
330
1E
100
AcDbEntity
  8
0
  6
Continuous
 62
     7
100
AcDbLine
 10
6.000003814697265
 20
23.64895629882813
 30
0.0
 11
1.5
 21
23.64895629882813
 31
0.0
  0
LINE
  5
6B
330
1E
100
AcDbEntity
  8
0
  6
Continuous
 62
     7
100
AcDbLine
 10
1.5
 20
-23.64896011352539
 30
0.0
 11
1.5
 21
-3.5
 31
0.0
  0
LINE
  5
6C
330
1E
100
AcDbEntity
  8
0
  6
Continuous
 62
     7
100
AcDbLine
 10
2.0
 20
8.499992370605468
 30
0.0
 11
2.0
 21
12.39229882490144
 31
0.0
  0
LINE
  5
6D
330
1E
100
AcDbEntity
  8
0
  6
Continuous
 62
     7
100
AcDbLine
 10
4.500003814697265
 20
8.499992370605468
 30
0.0
 11
4.500003814697265
 21
12.64230346679687
 31
0.0
  0
LINE
  5
6E
330
1E
100
AcDbEntity
  8
0
  6
Continuous
 62
     7
100
AcDbLine
 10
6.000003814697265
 20
12.64230346679687
 30
0.0
 11
2.250004641895429
 21
12.64230346679687
 31
0.0
  0
LINE
  5
6F
330
1E
100
AcDbEntity
  8
0
  6
Continuous
 62
     7
100
AcDbLine
 10
2.0
 20
12.39229882490144
 30
0.0
 11
2.250004641895429
 21
12.64230346679687
 31
0.0
  0
LINE
  5
70
330
1E
100
AcDbEntity
  8
0
  6
Continuous
 62
     7
100
AcDbLine
 10
4.500003814697265
 20
-8.5
 30
0.0
 11
4.500003814697265
 21
-12.64230346679687
 31
0.0
  0
LINE
  5
71
330
1E
100
AcDbEntity
  8
0
  6
Continuous
 62
     7
100
AcDbLine
 10
6.000003814697265
 20
-12.64230346679687
 30
0.0
 11
2.250000981589778
 21
-12.64230346679687
 31
0.0
  0
LINE
  5
72
330
1E
100
AcDbEntity
  8
0
  6
Continuous
 62
     7
100
AcDbLine
 10
2.0
 20
-8.5
 30
0.0
 11
2.0
 21
-12.39230248520709
 31
0.0
  0
LINE
  5
73
330
1E
100
AcDbEntity
  8
0
  6
Continuous
 62
     7
100
AcDbLine
 10
2.0
 20
-12.39230248520709
 30
0.0
 11
2.250000981589778
 21
-12.64230346679687
 31
0.0
  0
LINE
  5
74
330
1E
100
AcDbEntity
  8
0
  6
Continuous
 62
     7
100
AcDbLine
 10
1.5
 20
-18.55088806152344
 30
0.0
 11
0.0
 21
-18.55088806152344
 31
0.0
  0
LINE
  5
75
330
1E
100
AcDbEntity
  8
0
  6
Continuous
 62
     7
100
AcDbLine
 10
1.5
 20
-19.24369812011718
 30
0.0
 11
1.0
 21
-19.24369812011718
 31
0.0
  0
LINE
  5
76
330
1E
100
AcDbEntity
  8
0
  6
Continuous
 62
     7
100
AcDbLine
 10
0.0
 20
-3.5
 30
0.0
 11
0.0
 21
3.499984741210937
 31
0.0
  0
LINE
  5
77
330
1E
100
AcDbEntity
  8
0
  6
Continuous
 62
     7
100
AcDbLine
 10
1.0
 20
-18.55088806152344
 30
0.0
 11
1.0
 21
-19.24369812011718
 31
0.0
  0
LINE
  5
78
330
1E
100
AcDbEntity
  8
0
  6
Continuous
 62
     7
100
AcDbLine
 10
1.0
 20
18.55088806152344
 30
0.0
 11
1.0
 21
19.24369812011718
 31
0.0
  0
LINE
  5
79
330
1E
100
AcDbEntity
  8
0
  6
Continuous
 62
     7
100
AcDbLine
 10
0.0
 20
18.55088806152344
 30
0.0
 11
0.0
 21
3.705947875976562
 31
0.0
  0
LINE
  5
7A
330
1E
100
AcDbEntity
  8
0
  6
Continuous
 62
     7
100
AcDbLine
 10
1.0
 20
3.499984741210937
 30
0.0
 11
1.0
 21
7.205947875976561
 31
0.0
  0
LINE
  5
7B
330
1E
100
AcDbEntity
  8
0
  6
Continuous
 62
     7
100
AcDbLine
 10
1.5
 20
19.24369812011718
 30
0.0
 11
1.0
 21
19.24369812011718
 31
0.0
  0
LINE
  5
7C
330
1E
100
AcDbEntity
  8
0
  6
Continuous
 62
     7
100
AcDbLine
 10
1.5
 20
6.513137817382812
 30
0.0
 11
1.0
 21
6.513137817382812
 31
0.0
  0
LINE
  5
7D
330
1E
100
AcDbEntity
  8
0
  6
Continuous
 62
     7
100
AcDbLine
 10
1.5
 20
18.55088806152344
 30
0.0
 11
0.0
 21
18.55088806152344
 31
0.0
  0
LINE
  5
7E
330
1E
100
AcDbEntity
  8
0
  6
Continuous
 62
     7
100
AcDbLine
 10
1.5
 20
7.205947875976561
 30
0.0
 11
0.0
 21
7.205947875976561
 31
0.0
  0
LINE
  5
7F
330
1E
100
AcDbEntity
  8
0
  6
Continuous
 62
     7
100
AcDbLine
 10
14.00000381469726
 20
22.89446258544922
 30
0.0
 11
14.00000381469726
 21
20.5
 31
0.0
  0
LINE
  5
80
330
1E
100
AcDbEntity
  8
0
  6
Continuous
 62
     7
100
AcDbLine
 10
14.00000381469726
 20
-20.5
 30
0.0
 11
14.00000381469726
 21
-22.89445911080382
 31
0.0
  0
LINE
  5
81
330
1E
100
AcDbEntity
  8
0
  6
Continuous
 62
     7
100
AcDbLine
 10
14.00000381469726
 20
22.89446219399382
 30
0.0
 11
13.00000342324188
 21
23.89446258544921
 31
0.0
  0
LINE
  5
82
330
1E
100
AcDbEntity
  8
0
  6
Continuous
 62
     7
100
AcDbLine
 10
14.00000381469726
 20
-22.89445911080382
 30
0.0
 11
13.0000079694464
 21
-23.89445495605469
 31
0.0
  0
LINE
  5
83
330
1E
100
AcDbEntity
  8
0
  6
Continuous
 62
     7
100
AcDbLine
 10
13.00000381469726
 20
10.0
 30
0.0
 11
13.00000381469726
 21
-10.0
 31
0.0
  0
LINE
  5
84
330
1E
100
AcDbEntity
  8
0
  6
Continuous
 62
     7
100
AcDbLine
 10
-2.0
 20
-1.200000762939453
 30
0.0
 11
-2.0
 21
1.199996948242187
 31
0.0
  0
LINE
  5
85
330
1E
100
AcDbEntity
  8
0
  6
Continuous
 62
     7
100
AcDbLine
 10
-1.699996948242187
 20
-1.5
 30
0.0
 11
0.0
 21
-1.5
 31
0.0
  0
LINE
  5
86
330
1E
100
AcDbEntity
  8
0
  6
Continuous
 62
     7
100
AcDbLine
 10
-1.699996948242187
 20
1.5
 30
0.0
 11
0.0
 21
1.5
 31
0.0
  0
LINE
  5
87
330
1E
100
AcDbEntity
  8
0
  6
Continuous
 62
     7
100
AcDbLine
 10
-1.69999967307659
 20
1.499999593644034
 30
0.0
 11
-1.999999586943701
 21
1.199999679776922
 31
0.0
  0
LINE
  5
88
330
1E
100
AcDbEntity
  8
0
  6
Continuous
 62
     7
100
AcDbLine
 10
-1.699997818615287
 20
-1.500001736663165
 30
0.0
 11
-1.999997058132833
 21
-1.200002497145618
 31
0.0
  0
LINE
  5
89
330
1E
100
AcDbEntity
  8
0
  6
Continuous
 62
     7
100
AcDbLine
 10
-1.699996948242187
 20
1.5
 30
0.0
 11
-1.699996948242187
 21
-1.5
 31
0.0
  0
LINE
  5
8A
330
1E
100
AcDbEntity
  8
0
  6
Continuous
 62
     2
100
AcDbLine
 10
-3.746566772460937
 20
8.660255432128906
 30
0.0
 11
1.5
 21
8.660255432128906
 31
0.0
  0
LINE
  5
8B
330
1E
100
AcDbEntity
  8
0
  6
Continuous
 62
     7
100
AcDbLine
 10
-1.699996948242187
 20
7.160255432128905
 30
0.0
 11
0.0
 21
7.160255432128905
 31
0.0
  0
LINE
  5
8C
330
1E
100
AcDbEntity
  8
0
  6
Continuous
 62
     7
100
AcDbLine
 10
-2.0
 20
7.460258483886719
 30
0.0
 11
-2.0
 21
9.860252380371091
 31
0.0
  0
LINE
  5
8D
330
1E
100
AcDbEntity
  8
0
  6
Continuous
 62
     7
100
AcDbLine
 10
-1.699996948242187
 20
10.1602554321289
 30
0.0
 11
0.0
 21
10.1602554321289
 31
0.0
  0
LINE
  5
8E
330
1E
100
AcDbEntity
  8
0
  6
Continuous
 62
     7
100
AcDbLine
 10
-1.699996948242187
 20
10.1602554321289
 30
0.0
 11
-1.699996948242187
 21
7.160255432128905
 31
0.0
  0
LINE
  5
8F
330
1E
100
AcDbEntity
  8
0
  6
Continuous
 62
     7
100
AcDbLine
 10
-1.699996948242187
 20
10.1602554321289
 30
0.0
 11
-2.0
 21
9.860252380371091
 31
0.0
  0
LINE
  5
90
330
1E
100
AcDbEntity
  8
0
  6
Continuous
 62
     7
100
AcDbLine
 10
-1.699996948242187
 20
7.160255432128905
 30
0.0
 11
-2.0
 21
7.460258483886719
 31
0.0
  0
LINE
  5
91
330
1E
100
AcDbEntity
  8
0
  6
Continuous
 62
     7
100
AcDbLine
 10
1.5
 20
3.705947875976562
 30
0.0
 11
0.0
 21
3.705947875976562
 31
0.0
  0
LINE
  5
92
330
1E
100
AcDbEntity
  8
0
  6
Continuous
 62
     7
100
AcDbLine
 10
1.5
 20
-7.205947875976561
 30
0.0
 11
0.0
 21
-7.205947875976561
 31
0.0
  0
LINE
  5
93
330
1E
100
AcDbEntity
  8
0
  6
Continuous
 62
     7
100
AcDbLine
 10
1.5
 20
-6.513137817382812
 30
0.0
 11
1.0
 21
-6.513137817382812
 31
0.0
  0
LINE
  5
94
330
1E
100
AcDbEntity
  8
0
  6
Continuous
 62
     7
100
AcDbLine
 10
1.5
 20
-3.705947875976562
 30
0.0
 11
0.0
 21
-3.705947875976562
 31
0.0
  0
LINE
  5
95
330
1E
100
AcDbEntity
  8
0
  6
Continuous
 62
     7
100
AcDbLine
 10
-1.699996948242187
 20
-7.16025161743164
 30
0.0
 11
-2.0
 21
-7.460254669189453
 31
0.0
  0
LINE
  5
96
330
1E
100
AcDbEntity
  8
0
  6
Continuous
 62
     7
100
AcDbLine
 10
-1.699996948242187
 20
-7.16025161743164
 30
0.0
 11
0.0
 21
-7.16025161743164
 31
0.0
  0
LINE
  5
97
330
1E
100
AcDbEntity
  8
0
  6
Continuous
 62
     2
100
AcDbLine
 10
-3.746566772460937
 20
-8.66025161743164
 30
0.0
 11
1.5
 21
-8.66025161743164
 31
0.0
  0
LINE
  5
98
330
1E
100
AcDbEntity
  8
0
  6
Continuous
 62
     7
100
AcDbLine
 10
-1.699996948242187
 20
-10.16025161743164
 30
0.0
 11
0.0
 21
-10.16025161743164
 31
0.0
  0
LINE
  5
99
330
1E
100
AcDbEntity
  8
0
  6
Continuous
 62
     7
100
AcDbLine
 10
-1.699996948242187
 20
-10.16025161743164
 30
0.0
 11
-2.0
 21
-9.860248565673826
 31
0.0
  0
LINE
  5
9A
330
1E
100
AcDbEntity
  8
0
  6
Continuous
 62
     7
100
AcDbLine
 10
-1.699996948242187
 20
-10.16025161743164
 30
0.0
 11
-1.699996948242187
 21
-7.16025161743164
 31
0.0
  0
LINE
  5
9B
330
1E
100
AcDbEntity
  8
0
  6
Continuous
 62
     7
100
AcDbLine
 10
-2.0
 20
-7.460254669189453
 30
0.0
 11
-2.0
 21
-9.860248565673826
 31
0.0
  0
LINE
  5
9C
330
1E
100
AcDbEntity
  8
0
  6
Continuous
 62
     7
100
AcDbLine
 10
14.00000381469726
 20
-9.247646331787107
 30
0.0
 11
32.00001525878907
 21
-9.247646331787107
 31
0.0
  0
LINE
  5
9D
330
1E
100
AcDbEntity
  8
0
  6
Continuous
 62
     7
100
AcDbLine
 10
14.0
 20
3.579277038574218
 30
0.0
 11
32.00001525878907
 21
3.579277038574218
 31
0.0
  0
LINE
  5
9E
330
1E
100
AcDbEntity
  8
0
  6
Continuous
 62
     7
100
AcDbLine
 10
14.0
 20
-3.579277038574218
 30
0.0
 11
32.00001525878907
 21
-3.579277038574218
 31
0.0
  0
LINE
  5
9F
330
1E
100
AcDbEntity
  8
0
  6
Continuous
 62
     7
100
AcDbLine
 10
14.0
 20
9.247650146484376
 30
0.0
 11
32.00001525878907
 21
9.247650146484376
 31
0.0
  0
LINE
  5
A0
330
1E
100
AcDbEntity
  8
0
  6
Continuous
 62
     7
100
AcDbLine
 10
20.00000381469726
 20
-10.0
 30
0.0
 11
20.00000381469726
 21
-20.5
 31
0.0
  0
LINE
  5
A1
330
1E
100
AcDbEntity
  8
0
  6
Continuous
 62
     2
100
AcDbLine
 10
16.00001525878906
 20
-11.90631103515625
 30
0.0
 11
16.00001525878906
 21
-18.04182434082031
 31
0.0
  0
LINE
  5
A2
330
1E
100
AcDbEntity
  8
0
  6
Continuous
 62
     2
100
AcDbLine
 10
19.25001525878906
 20
-14.97406768798828
 30
0.0
 11
12.75001525878906
 21
-14.97406768798828
 31
0.0
  0
LINE
  5
A3
330
1E
100
AcDbEntity
  8
0
  6
Continuous
 62
     2
100
AcDbLine
 10
16.00001525878906
 20
11.90631103515625
 30
0.0
 11
16.00001525878906
 21
18.04182434082031
 31
0.0
  0
LINE
  5
A4
330
1E
100
AcDbEntity
  8
0
  6
Continuous
 62
     2
100
AcDbLine
 10
19.25001525878906
 20
14.97406768798828
 30
0.0
 11
12.75001525878906
 21
14.97406768798828
 31
0.0
  0
LINE
  5
A5
330
1E
100
AcDbEntity
  8
0
  6
Continuous
 62
     7
100
AcDbLine
 10
1.0
 20
-7.205947875976561
 30
0.0
 11
1.0
 21
3.499984741210937
 31
0.0
  0
ENDBLK
  5
A6
330
1E
100
AcDbEntity
  8
0
100
AcDbBlockEnd
  0
BLOCK
  5
A7
330
1F
100
AcDbEntity
  8
0
100
AcDbBlockBegin
  2
NHE2-16-2
 70
     0
 10
0.0
 20
0.0
 30
0.0
  3
NHE2-16-2
  1

  0
ARC
  5
A8
330
1F
100
AcDbEntity
  8
0
  6
Continuous
 62
     7
100
AcDbCircle
 10
-0.0000187936019955
 20
0.0000306791694271
 30
0.0
 40
24.0
100
AcDbArc
 50
95.37567913944021
 51
144.624315136748
  0
CIRCLE
  5
A9
330
1F
100
AcDbEntity
  8
0
  6
Continuous
 62
     7
100
AcDbCircle
 10
0.0
 20
0.0
 30
0.0
 40
3.0
  0
CIRCLE
  5
AA
330
1F
100
AcDbEntity
  8
0
  6
Continuous
 62
     7
100
AcDbCircle
 10
10.0
 20
0.0
 30
0.0
 40
1.5
  0
CIRCLE
  5
AB
330
1F
100
AcDbEntity
  8
0
  6
Continuous
 62
     7
100
AcDbCircle
 10
15.0
 20
0.0
 30
0.0
 40
1.200000047683715
  0
ARC
  5
AC
330
1F
100
AcDbEntity
  8
0
  6
Continuous
 62
     7
100
AcDbCircle
 10
-16.53662109375
 20
2.642269134521484
 30
0.0
 40
3.0
100
AcDbArc
 50
329.9968051272892
 51
30.00000044529223
  0
ARC
  5
AD
330
1F
100
AcDbEntity
  8
0
  6
Continuous
 62
     7
100
AcDbCircle
 10
0.0000002798843326
 20
0.0000001615913021
 30
0.0
 40
24.0
100
AcDbArc
 50
335.3756812234732
 51
24.62431792780143
  0
ARC
  5
AE
330
1F
100
AcDbEntity
  8
0
  6
Continuous
 62
     7
100
AcDbCircle
 10
-7.638782501220702
 20
-4.25
 30
0.0
 40
2.0
100
AcDbArc
 50
59.99999734394111
 51
90.00000500895634
  0
ARC
  5
AF
330
1F
100
AcDbEntity
  8
0
  6
Continuous
 62
     7
100
AcDbCircle
 10
5.98004150390625
 20
-15.64226531982422
 30
0.0
 40
3.0
100
AcDbArc
 50
89.78216721020313
 51
150.0000066786085
  0
CIRCLE
  5
B0
330
1F
100
AcDbEntity
  8
0
  6
Continuous
 62
     7
100
AcDbCircle
 10
15.0
 20
0.0
 30
0.0
 40
1.5
  0
ARC
  5
B1
330
1F
100
AcDbEntity
  8
0
  6
Continuous
 62
     7
100
AcDbCircle
 10
-0.0000378670883237
 20
0.0000001615913021
 30
0.0
 40
24.0
100
AcDbArc
 50
215.375764792713
 51
264.6244007900757
  0
CIRCLE
  5
B2
330
1F
100
AcDbEntity
  8
0
  6
Continuous
 62
     7
100
AcDbCircle
 10
-12.00005891038195
 20
0.0
 30
0.0
 40
2.25
  0
CIRCLE
  5
B3
330
1F
100
AcDbEntity
  8
0
  6
Continuous
 62
     7
100
AcDbCircle
 10
6.000001415503148
 20
-10.39230646424792
 30
0.0
 40
2.25
  0
ARC
  5
B4
330
1F
100
AcDbEntity
  8
0
  6
Continuous
 62
     7
100
AcDbCircle
 10
-16.53662109375
 20
-2.642265319824218
 30
0.0
 40
3.0
100
AcDbArc
 50
330.0000016696521
 51
29.99901069409567
  0
ARC
  5
B5
330
1F
100
AcDbEntity
  8
0
  6
Continuous
 62
     7
100
AcDbCircle
 10
10.55657958984375
 20
-13.0
 30
0.0
 40
3.0
100
AcDbArc
 50
89.99999499104367
 51
150.2178363578007
  0
ARC
  5
B6
330
1F
100
AcDbEntity
  8
0
  6
Continuous
 62
     7
100
AcDbCircle
 10
10.55657958984375
 20
13.0
 30
0.0
 40
3.0
100
AcDbArc
 50
209.7821636421991
 51
270.0000000000001
  0
ARC
  5
B7
330
1F
100
AcDbEntity
  8
0
  6
Continuous
 62
     7
100
AcDbCircle
 10
5.98004150390625
 20
15.64226913452148
 30
0.0
 40
3.0
100
AcDbArc
 50
210.0000346429735
 51
270.2178326315179
  0
CIRCLE
  5
B8
330
1F
100
AcDbEntity
  8
0
  6
Continuous
 62
     7
100
AcDbCircle
 10
6.000001415503135
 20
10.39230646424792
 30
0.0
 40
2.25
  0
ARC
  5
B9
330
1F
100
AcDbEntity
  8
0
  6
Continuous
 62
     7
100
AcDbCircle
 10
0.1387825012207031
 20
8.740383148193357
 30
0.0
 40
2.0
100
AcDbArc
 50
300.000000834826
 51
330.0000016696521
  0
ARC
  5
BA
330
1F
100
AcDbEntity
  8
0
  6
Continuous
 62
     7
100
AcDbCircle
 10
0.1387825012207031
 20
-8.740379333496091
 30
0.0
 40
2.0
100
AcDbArc
 50
30.00000333930423
 51
59.99999734394111
  0
ARC
  5
BB
330
1F
100
AcDbEntity
  8
0
  6
Continuous
 62
     7
100
AcDbCircle
 10
7.5
 20
4.49038314819336
 30
0.0
 40
2.0
100
AcDbArc
 50
149.9999966606958
 51
179.9999974955218
  0
ARC
  5
BC
330
1F
100
AcDbEntity
  8
0
  6
Continuous
 62
     7
100
AcDbCircle
 10
7.5
 20
-4.490379333496093
 30
0.0
 40
2.0
100
AcDbArc
 50
179.9999974955218
 51
209.9999983303479
  0
ARC
  5
BD
330
1F
100
AcDbEntity
  8
0
  6
Continuous
 62
     7
100
AcDbCircle
 10
-7.638784078811498
 20
4.250000274345325
 30
0.0
 40
2.0
100
AcDbArc
 50
270.0
 51
300.000000834826
  0
CIRCLE
  5
BE
330
1F
100
AcDbEntity
  8
0
  6
Continuous
 62
     7
100
AcDbCircle
 10
6.000001415503135
 20
10.39230646424792
 30
0.0
 40
1.154700517654418
  0
CIRCLE
  5
BF
330
1F
100
AcDbEntity
  8
0
  6
Continuous
 62
     7
100
AcDbCircle
 10
-12.00005891038195
 20
0.0
 30
0.0
 40
1.154700517654418
  0
CIRCLE
  5
C0
330
1F
100
AcDbEntity
  8
0
  6
Continuous
 62
     7
100
AcDbCircle
 10
6.000001415503148
 20
-10.39230646424792
 30
0.0
 40
1.154700517654418
  0
CIRCLE
  5
C1
330
1F
100
AcDbEntity
  8
0
  6
Continuous
 62
     7
100
AcDbCircle
 10
-7.500000382839715
 20
-12.99038213307518
 30
0.0
 40
1.200000047683715
  0
CIRCLE
  5
C2
330
1F
100
AcDbEntity
  8
0
  6
Continuous
 62
     7
100
AcDbCircle
 10
-7.500000382839715
 20
-12.99038213307518
 30
0.0
 40
1.5
  0
CIRCLE
  5
C3
330
1F
100
AcDbEntity
  8
0
  6
Continuous
 62
     7
100
AcDbCircle
 10
-4.999999429165399
 20
-8.660253540058768
 30
0.0
 40
1.5
  0
ARC
  5
C4
330
1F
100
AcDbEntity
  8
0
  6
Continuous
 62
     7
100
AcDbCircle
 10
6.0
 20
-10.39230346679687
 30
0.0
 40
2.5
100
AcDbArc
 50
55.84194914761952
 51
184.1580804363514
  0
CIRCLE
  5
C5
330
1F
100
AcDbEntity
  8
0
  6
Continuous
 62
     7
100
AcDbCircle
 10
8.749992370605468
 20
15.15542984008789
 30
0.0
 40
1.5
  0
ARC
  5
C6
330
1F
100
AcDbEntity
  8
0
  6
Continuous
 62
     2
100
AcDbCircle
 10
0.0
 20
-0.0000190734863281
 30
0.0
 40
17.5
100
AcDbArc
 50
43.57361095611388
 51
76.42645203366004
  0
ARC
  5
C7
330
1F
100
AcDbEntity
  8
0
  6
Continuous
 62
     7
100
AcDbCircle
 10
0.0000002798843326
 20
0.0000001615913021
 30
0.0
 40
20.5
100
AcDbArc
 50
29.19645890420891
 51
90.80356310443002
  0
ARC
  5
C8
330
1F
100
AcDbEntity
  8
0
  6
Continuous
 62
     2
100
AcDbCircle
 10
0.0000190734863281
 20
0.0000076293945313
 30
0.0
 40
17.5
100
AcDbArc
 50
163.5736111076945
 51
196.4264521852407
  0
CIRCLE
  5
C9
330
1F
100
AcDbEntity
  8
0
  6
Continuous
 62
     7
100
AcDbCircle
 10
-17.49998092651367
 20
0.0
 30
0.0
 40
1.5
  0
ARC
  5
CA
330
1F
100
AcDbEntity
  8
0
  6
Continuous
 62
     7
100
AcDbCircle
 10
0.0000193533706607
 20
0.0000268644721615
 30
0.0
 40
20.5
100
AcDbArc
 50
149.1965000568021
 51
210.8035811442424
  0
CIRCLE
  5
CB
330
1F
100
AcDbEntity
  8
0
  6
Continuous
 62
     7
100
AcDbCircle
 10
8.749992370605468
 20
-15.15542602539062
 30
0.0
 40
1.5
  0
ARC
  5
CC
330
1F
100
AcDbEntity
  8
0
  6
Continuous
 62
     2
100
AcDbCircle
 10
-0.0000152587890625
 20
0.0000114440917969
 30
0.0
 40
17.5
100
AcDbArc
 50
283.573609324357
 51
316.4264521094504
  0
ARC
  5
CD
330
1F
100
AcDbEntity
  8
0
  6
Continuous
 62
     7
100
AcDbCircle
 10
-0.0000149789047299
 20
0.0000306791694271
 30
0.0
 40
20.5
100
AcDbArc
 50
269.1964904026718
 51
330.8035665953149
  0
LINE
  5
CE
330
1F
100
AcDbEntity
  8
0
  6
Continuous
 62
     7
100
AcDbLine
 10
-6.040885799839073
 20
2.863146205284863
 30
0.0
 11
-14.49088274808127
 21
17.49896998075518
 31
0.0
  0
LINE
  5
CF
330
1F
100
AcDbEntity
  8
0
  6
Continuous
 62
     7
100
AcDbLine
 10
3.381962403458146
 20
-14.14226649601092
 30
0.0
 11
-2.248461564241509
 21
-23.89444670118583
 31
0.0
  0
LINE
  5
D0
330
1F
100
AcDbEntity
  8
0
  6
Continuous
 62
     7
100
AcDbLine
 10
22.39999389648437
 20
-8.0
 30
0.0
 11
22.39999389648437
 21
8.000000139159055
 31
0.0
  0
LINE
  5
D1
330
1F
100
AcDbEntity
  8
0
  6
Continuous
 62
     7
100
AcDbLine
 10
5.5
 20
3.79998779296875
 30
0.0
 11
22.39999389648437
 21
3.79998779296875
 31
0.0
  0
LINE
  5
D2
330
1F
100
AcDbEntity
  8
0
  6
Continuous
 62
     7
100
AcDbLine
 10
5.5
 20
-3.5
 30
0.0
 11
20.19998168945313
 21
-3.5
 31
0.0
  0
LINE
  5
D3
330
1F
100
AcDbEntity
  8
0
  6
Continuous
 62
     7
100
AcDbLine
 10
5.5
 20
3.5
 30
0.0
 11
20.19998168945313
 21
3.5
 31
0.0
  0
LINE
  5
D4
330
1F
100
AcDbEntity
  8
0
  6
Continuous
 62
     7
100
AcDbLine
 10
-13.93854357345302
 20
4.14226640423432
 30
0.0
 11
-19.5689841663315
 21
13.89447540506309
 31
0.0
  0
LINE
  5
D5
330
1F
100
AcDbEntity
  8
0
  6
Continuous
 62
     2
100
AcDbLine
 10
15.0
 20
-2.082504272460937
 30
0.0
 11
15.0
 21
2.029998779296875
 31
0.0
  0
LINE
  5
D6
330
1F
100
AcDbEntity
  8
0
  6
Continuous
 62
     7
100
AcDbLine
 10
3.6084386557728
 20
10.7500012130677
 30
0.0
 11
-3.860989680937479
 21
23.68743036354061
 31
0.0
  0
LINE
  5
D7
330
1F
100
AcDbEntity
  8
0
  6
Continuous
 62
     7
100
AcDbLine
 10
-4.271790079666729
 20
23.39896598963253
 30
0.0
 11
-3.588783137384296
 21
23.21595480841595
 31
0.0
  0
LINE
  5
D8
330
1F
100
AcDbEntity
  8
0
  6
Continuous
 62
     7
100
AcDbLine
 10
5.5
 20
-4.490379333496093
 30
0.0
 11
5.5
 21
4.49038314819336
 31
0.0
  0
LINE
  5
D9
330
1F
100
AcDbEntity
  8
0
  6
CENTER
 62
     2
100
AcDbLine
 10
-22.49998064661173
 20
0.0
 30
0.0
 11
28.5675048828125
 21
0.0
 31
0.0
  0
LINE
  5
DA
330
1F
100
AcDbEntity
  8
0
  6
Continuous
 62
     7
100
AcDbLine
 10
0.5408992220918805
 20
6.663141627648158
 30
0.0
 11
-7.909097726150321
 21
21.29896540311845
 31
0.0
  0
LINE
  5
DB
330
1F
100
AcDbEntity
  8
0
  6
Continuous
 62
     7
100
AcDbLine
 10
-6.04089984856867
 20
-2.86313701585469
 30
0.0
 11
-14.49089775048516
 21
-17.49896244313729
 31
0.0
  0
LINE
  5
DC
330
1F
100
AcDbEntity
  8
0
  6
Continuous
 62
     7
100
AcDbLine
 10
3.60843425093985
 20
-10.7499905787075
 30
0.0
 11
-3.860984684703567
 21
-23.68740344605525
 31
0.0
  0
LINE
  5
DD
330
1F
100
AcDbEntity
  8
0
  6
Continuous
 62
     7
100
AcDbLine
 10
20.19998168945313
 20
-3.5
 30
0.0
 11
20.19998168945313
 21
3.5
 31
0.0
  0
LINE
  5
DE
330
1F
100
AcDbEntity
  8
0
  6
Continuous
 62
     7
100
AcDbLine
 10
6.29998779296875
 20
-3.5
 30
0.0
 11
6.29998779296875
 21
3.5
 31
0.0
  0
LINE
  5
DF
330
1F
100
AcDbEntity
  8
0
  6
Continuous
 62
     7
100
AcDbLine
 10
-18.3112085678719
 20
14.7159593811333
 30
0.0
 11
-18.12819769288411
 21
15.39896518055443
 31
0.0
  0
LINE
  5
E0
330
1F
100
AcDbEntity
  8
0
  6
Continuous
 62
     7
100
AcDbLine
 10
-6.63878405357471
 20
2.517949481346917
 30
0.0
 11
1.138784261328879
 21
7.008330722191629
 31
0.0
  0
LINE
  5
E1
330
1F
100
AcDbEntity
  8
0
  6
Continuous
 62
     7
100
AcDbLine
 10
4.051444291961331
 20
-11.51730646424791
 30
0.0
 11
1.870836138294236
 21
-7.740382418486658
 31
0.0
  0
LINE
  5
E2
330
1F
100
AcDbEntity
  8
0
  6
Continuous
 62
     7
100
AcDbLine
 10
-11.11399397887395
 20
-2.25
 30
0.0
 11
-18.58342023633914
 21
-15.18742554911483
 31
0.0
  0
LINE
  5
E3
330
1F
100
AcDbEntity
  8
0
  6
Continuous
 62
     7
100
AcDbLine
 10
-18.12819852170269
 20
-15.39896582606
 30
0.0
 11
-18.31121256581353
 21
-14.71594804201667
 31
0.0
  0
LINE
  5
E4
330
1F
100
AcDbEntity
  8
0
  6
Continuous
 62
     7
100
AcDbLine
 10
-3.588785546786568
 20
-23.21594840792909
 30
0.0
 11
-4.271813714711498
 21
-23.39896523439233
 31
0.0
  0
LINE
  5
E5
330
1F
100
AcDbEntity
  8
0
  6
CENTER
 62
     2
100
AcDbLine
 10
11.24998340212602
 20
-19.48554184069266
 30
0.0
 11
-14.28375233752919
 21
24.74018497365389
 31
0.0
  0
LINE
  5
E6
330
1F
100
AcDbEntity
  8
0
  6
Continuous
 62
     7
100
AcDbLine
 10
21.90000170718416
 20
8.499992370605468
 30
0.0
 11
22.40001069050692
 21
7.999983345135091
 31
0.0
  0
LINE
  5
E7
330
1F
100
AcDbEntity
  8
0
  6
CENTER
 62
     2
100
AcDbLine
 10
11.2500005712647
 20
19.48557157851263
 30
0.0
 11
-14.28375239051647
 21
-24.74018506543052
 31
0.0
  0
LINE
  5
E8
330
1F
100
AcDbEntity
  8
0
  6
Continuous
 62
     7
100
AcDbLine
 10
5.5
 20
-3.800003051757812
 30
0.0
 11
22.39999389648437
 21
-3.800003051757812
 31
0.0
  0
LINE
  5
E9
330
1F
100
AcDbEntity
  8
0
  6
Continuous
 62
     7
100
AcDbLine
 10
22.39999922656444
 20
-8.000001945866285
 30
0.0
 11
21.90000113028403
 21
-8.5
 31
0.0
  0
LINE
  5
EA
330
1F
100
AcDbEntity
  8
0
  6
Continuous
 62
     7
100
AcDbLine
 10
7.505553937409345
 20
-8.5
 30
0.0
 11
22.44439697265625
 21
-8.5
 31
0.0
  0
LINE
  5
EB
330
1F
100
AcDbEntity
  8
0
  6
Continuous
 62
     7
100
AcDbLine
 10
0.5408851733622271
 20
-6.663132438217949
 30
0.0
 11
-7.909112728554262
 21
-21.29895786550052
 31
0.0
  0
LINE
  5
EC
330
1F
100
AcDbEntity
  8
0
  6
Continuous
 62
     7
100
AcDbLine
 10
0.5049128480981438
 20
6.725471854666777
 30
0.0
 11
3.479407278693812
 21
10.97349010992785
 31
0.0
  0
LINE
  5
ED
330
1F
100
AcDbEntity
  8
0
  6
Continuous
 62
     7
100
AcDbLine
 10
-6.076868078104383
 20
2.925469338293858
 30
0.0
 11
-11.24301545410384
 21
2.473490010109244
 31
0.0
  0
LINE
  5
EE
330
1F
100
AcDbEntity
  8
0
  6
Continuous
 62
     7
100
AcDbLine
 10
5.571963823916419
 20
3.79998779296875
 30
0.0
 11
7.763615642534062
 21
8.500000347196163
 31
0.0
  0
LINE
  5
EF
330
1F
100
AcDbEntity
  8
0
  6
Continuous
 62
     7
100
AcDbLine
 10
5.571972538177277
 20
-3.800003051757812
 30
0.0
 11
7.763617079604586
 21
-8.5
 31
0.0
  0
LINE
  5
F0
330
1F
100
AcDbEntity
  8
0
  6
Continuous
 62
     7
100
AcDbLine
 10
19.39999389648437
 20
-3.5
 30
0.0
 11
19.39999389648437
 21
3.5
 31
0.0
  0
LINE
  5
F1
330
1F
100
AcDbEntity
  8
0
  6
Continuous
 62
     7
100
AcDbLine
 10
-13.93854536135808
 20
-4.142266496010989
 30
0.0
 11
-19.56898385660009
 21
-13.8944718636269
 31
0.0
  0
LINE
  5
F2
330
1F
100
AcDbEntity
  8
0
  6
Continuous
 62
     7
100
AcDbLine
 10
7.505547797658422
 20
8.499992370605468
 30
0.0
 11
22.44437891790189
 21
8.499992370605468
 31
0.0
  0
LINE
  5
F3
330
1F
100
AcDbEntity
  8
0
  6
Continuous
 62
     7
100
AcDbLine
 10
-11.11398343429017
 20
2.25
 30
0.0
 11
-18.58341659538792
 21
15.18743750655696
 31
0.0
  0
LINE
  5
F4
330
1F
100
AcDbEntity
  8
0
  6
Continuous
 62
     7
100
AcDbLine
 10
10.55657958984375
 20
10.0
 30
0.0
 11
21.81743621826172
 21
10.0
 31
0.0
  0
LINE
  5
F5
330
1F
100
AcDbEntity
  8
0
  6
Continuous
 62
     7
100
AcDbLine
 10
-6.638782467163252
 20
-2.517949318869796
 30
0.0
 11
1.138781775285622
 21
-7.008328208481643
 31
0.0
  0
LINE
  5
F6
330
1F
100
AcDbEntity
  8
0
  6
Continuous
 62
     7
100
AcDbLine
 10
10.55657958984375
 20
-10.0
 30
0.0
 11
21.8174244350905
 21
-10.0
 31
0.0
  0
LINE
  5
F7
330
1F
100
AcDbEntity
  8
0
  6
Continuous
 62
     7
100
AcDbLine
 10
3.381964191363323
 20
14.1422664042343
 30
0.0
 11
-2.2484758243002
 21
23.89447440529756
 31
0.0
  0
LINE
  5
F8
330
1F
100
AcDbEntity
  8
0
  6
Continuous
 62
     7
100
AcDbLine
 10
7.948556393188056
 20
9.267305752480595
 30
0.0
 11
5.767948597472724
 21
5.490382326709962
 31
0.0
  0
LINE
  5
F9
330
1F
100
AcDbEntity
  8
0
  6
Continuous
 62
     7
100
AcDbLine
 10
-6.076886054402705
 20
-2.925466951612151
 30
0.0
 11
-11.24302504433021
 21
-2.473488357113758
 31
0.0
  0
LINE
  5
FA
330
1F
100
AcDbEntity
  8
0
  6
Continuous
 62
     7
100
AcDbLine
 10
-12.00005891038195
 20
2.25
 30
0.0
 11
-7.638784078811498
 21
2.25
 31
0.0
  0
LINE
  5
FB
330
1F
100
AcDbEntity
  8
0
  6
Continuous
 62
     7
100
AcDbLine
 10
-12.00005891038195
 20
-2.25
 30
0.0
 11
-7.638782501220702
 21
-2.25
 31
0.0
  0
LINE
  5
FC
330
1F
100
AcDbEntity
  8
0
  6
Continuous
 62
     7
100
AcDbLine
 10
4.051442146104946
 20
11.51730575248157
 30
0.0
 11
1.87083435038906
 21
7.740382326709975
 31
0.0
  0
LINE
  5
FD
330
1F
100
AcDbEntity
  8
0
  6
Continuous
 62
     7
100
AcDbLine
 10
7.948558539044966
 20
-9.26730646424793
 30
0.0
 11
5.767950385377872
 21
-5.49038241848666
 31
0.0
  0
LINE
  5
FE
330
1F
100
AcDbEntity
  8
0
  6
Continuous
 62
     7
100
AcDbLine
 10
0.5049043648093346
 20
-6.725453025610406
 30
0.0
 11
3.479403623831913
 21
-10.97347817657971
 31
0.0
  0
LINE
  5
FF
330
1F
100
AcDbEntity
  8
0
  6
Continuous
 62
     7
100
AcDbLine
 10
-4.271790079666715
 20
23.39896598963253
 30
0.0
 11
-18.12819769288411
 21
15.39896518055444
 31
0.0
  0
LINE
  5
100
330
1F
100
AcDbEntity
  8
0
  6
Continuous
 62
     7
100
AcDbLine
 10
0.2810889627199487
 20
6.513140101769295
 30
0.0
 11
-7.068901882006628
 21
19.2436974515108
 31
0.0
  0
LINE
  5
101
330
1F
100
AcDbEntity
  8
0
  6
Continuous
 62
     7
100
AcDbLine
 10
-5.781088754965764
 20
3.013140101769266
 30
0.0
 11
-13.13107959969234
 21
15.74369745151079
 31
0.0
  0
LINE
  5
102
330
1F
100
AcDbEntity
  8
0
  6
Continuous
 62
     2
100
AcDbLine
 10
-5.696498325051777
 20
14.0316334262875
 30
0.0
 11
-9.258030377091897
 21
11.97538190040859
 31
0.0
  0
LINE
  5
103
330
1F
100
AcDbEntity
  8
0
  6
Continuous
 62
     7
100
AcDbLine
 10
-7.068901882006628
 20
19.2436974515108
 30
0.0
 11
-13.13107959969234
 21
15.74369745151079
 31
0.0
  0
LINE
  5
104
330
1F
100
AcDbEntity
  8
0
  6
Continuous
 62
     7
100
AcDbLine
 10
-6.668907985522253
 20
18.55088771251712
 30
0.0
 11
-12.73108570320796
 21
15.05088771251712
 31
0.0
  0
LINE
  5
105
330
1F
100
AcDbEntity
  8
0
  6
Continuous
 62
     7
100
AcDbLine
 10
-12.73108749111312
 20
-15.0508878042938
 30
0.0
 11
-6.668909773427457
 21
-18.5508878042938
 31
0.0
  0
LINE
  5
106
330
1F
100
AcDbEntity
  8
0
  6
Continuous
 62
     2
100
AcDbLine
 10
-9.303503255099286
 20
-11.9491292456032
 30
0.0
 11
-5.741971203059193
 21
-14.0053807714821
 31
0.0
  0
LINE
  5
107
330
1F
100
AcDbEntity
  8
0
  6
Continuous
 62
     7
100
AcDbLine
 10
-13.1310813875975
 20
-15.74369754328747
 30
0.0
 11
-7.068903669911832
 21
-19.24369754328747
 31
0.0
  0
LINE
  5
108
330
1F
100
AcDbEntity
  8
0
  6
Continuous
 62
     7
100
AcDbLine
 10
-5.781089589196625
 20
-3.013138541733617
 30
0.0
 11
-13.1310813875975
 21
-15.74369754328747
 31
0.0
  0
LINE
  5
109
330
1F
100
AcDbEntity
  8
0
  6
Continuous
 62
     7
100
AcDbLine
 10
0.2810881284890456
 20
-6.513138541733624
 30
0.0
 11
-7.068903669911832
 21
-19.24369754328747
 31
0.0
  0
LINE
  5
10A
330
1F
100
AcDbEntity
  8
0
  6
Continuous
 62
     7
100
AcDbLine
 10
-18.12819852170269
 20
-15.39896582605999
 30
0.0
 11
-4.271802133593155
 21
-23.39896015431893
 31
0.0
  0
LINE
  5
10B
330
1F
100
AcDbEntity
  8
0
  6
Continuous
 62
     7
100
AcDbLine
 10
-0.1189049337644264
 20
7.205949840762968
 30
0.0
 11
-6.181082651450153
 21
3.705949840762948
 31
0.0
  0
LINE
  5
10C
330
1F
100
AcDbEntity
  8
0
  6
Continuous
 62
     7
100
AcDbLine
 10
-6.181083485681015
 20
-3.705948280727312
 30
0.0
 11
-0.1189057679953578
 21
-7.205948280727283
 31
0.0
  0
LINE
  5
10D
330
1F
100
AcDbEntity
  8
0
  6
Continuous
 62
     2
100
AcDbLine
 10
10.0
 20
2.029998779296875
 30
0.0
 11
10.0
 21
-2.082504272460937
 31
0.0
  0
LINE
  5
10E
330
1F
100
AcDbEntity
  8
0
  6
Continuous
 62
     2
100
AcDbLine
 10
-6.758030377091898
 20
7.645254959204521
 30
0.0
 11
-3.196498325051805
 21
9.701506485083427
 31
0.0
  0
LINE
  5
10F
330
1F
100
AcDbEntity
  8
0
  6
Continuous
 62
     2
100
AcDbLine
 10
-3.241970249384876
 20
-9.675252178465695
 30
0.0
 11
-6.803502301424969
 21
-7.61900065258679
 31
0.0
  0
LINE
  5
110
330
1F
100
AcDbEntity
  8
0
  6
Continuous
 62
     7
100
AcDbLine
 10
4.845302610835418
 20
10.39230646424792
 30
0.0
 11
5.422652013169269
 21
9.392307965686143
 31
0.0
  0
LINE
  5
111
330
1F
100
AcDbEntity
  8
0
  6
Continuous
 62
     7
100
AcDbLine
 10
5.422652013169269
 20
9.392307965686143
 30
0.0
 11
6.577350817837
 21
9.392307965686143
 31
0.0
  0
LINE
  5
112
330
1F
100
AcDbEntity
  8
0
  6
Continuous
 62
     7
100
AcDbLine
 10
6.577350817837
 20
9.392307965686143
 30
0.0
 11
7.154700220170852
 21
10.39230646424792
 31
0.0
  0
LINE
  5
113
330
1F
100
AcDbEntity
  8
0
  6
Continuous
 62
     7
100
AcDbLine
 10
7.154700220170852
 20
10.39230646424792
 30
0.0
 11
6.577350817837
 21
11.3923049628097
 31
0.0
  0
LINE
  5
114
330
1F
100
AcDbEntity
  8
0
  6
Continuous
 62
     7
100
AcDbLine
 10
6.577350817837
 20
11.3923049628097
 30
0.0
 11
5.422652013169269
 21
11.3923049628097
 31
0.0
  0
LINE
  5
115
330
1F
100
AcDbEntity
  8
0
  6
Continuous
 62
     7
100
AcDbLine
 10
5.422652013169269
 20
11.3923049628097
 30
0.0
 11
4.845302610835418
 21
10.39230646424792
 31
0.0
  0
LINE
  5
116
330
1F
100
AcDbEntity
  8
0
  6
Continuous
 62
     7
100
AcDbLine
 10
-11.42270950804809
 20
0.99999849856178
 30
0.0
 11
-12.57740831271582
 21
0.99999849856178
 31
0.0
  0
LINE
  5
117
330
1F
100
AcDbEntity
  8
0
  6
Continuous
 62
     7
100
AcDbLine
 10
-12.57740831271582
 20
0.99999849856178
 30
0.0
 11
-13.15475771504966
 21
0.0
 31
0.0
  0
LINE
  5
118
330
1F
100
AcDbEntity
  8
0
  6
Continuous
 62
     7
100
AcDbLine
 10
-10.84536010571423
 20
0.0
 30
0.0
 11
-11.42270950804809
 21
0.99999849856178
 31
0.0
  0
LINE
  5
119
330
1F
100
AcDbEntity
  8
0
  6
Continuous
 62
     7
100
AcDbLine
 10
-13.15475771504966
 20
0.0
 30
0.0
 11
-12.57740831271582
 21
-0.99999849856178
 31
0.0
  0
LINE
  5
11A
330
1F
100
AcDbEntity
  8
0
  6
Continuous
 62
     7
100
AcDbLine
 10
-12.57740831271582
 20
-0.99999849856178
 30
0.0
 11
-11.42270950804809
 21
-0.99999849856178
 31
0.0
  0
LINE
  5
11B
330
1F
100
AcDbEntity
  8
0
  6
Continuous
 62
     7
100
AcDbLine
 10
-11.42270950804809
 20
-0.99999849856178
 30
0.0
 11
-10.84536010571423
 21
0.0
 31
0.0
  0
LINE
  5
11C
330
1F
100
AcDbEntity
  8
0
  6
Continuous
 62
     7
100
AcDbLine
 10
6.577350817837014
 20
-9.392307965686143
 30
0.0
 11
5.422652013169283
 21
-9.392307965686143
 31
0.0
  0
LINE
  5
11D
330
1F
100
AcDbEntity
  8
0
  6
Continuous
 62
     7
100
AcDbLine
 10
5.422652013169283
 20
-9.392307965686143
 30
0.0
 11
4.845302610835432
 21
-10.39230646424792
 31
0.0
  0
LINE
  5
11E
330
1F
100
AcDbEntity
  8
0
  6
Continuous
 62
     7
100
AcDbLine
 10
7.154700220170866
 20
-10.39230646424792
 30
0.0
 11
6.577350817837014
 21
-9.392307965686143
 31
0.0
  0
LINE
  5
11F
330
1F
100
AcDbEntity
  8
0
  6
Continuous
 62
     7
100
AcDbLine
 10
4.845302610835432
 20
-10.39230646424792
 30
0.0
 11
5.422652013169283
 21
-11.3923049628097
 31
0.0
  0
LINE
  5
120
330
1F
100
AcDbEntity
  8
0
  6
Continuous
 62
     7
100
AcDbLine
 10
5.422652013169283
 20
-11.3923049628097
 30
0.0
 11
6.577350817837014
 21
-11.3923049628097
 31
0.0
  0
LINE
  5
121
330
1F
100
AcDbEntity
  8
0
  6
Continuous
 62
     7
100
AcDbLine
 10
6.577350817837014
 20
-11.3923049628097
 30
0.0
 11
7.154700220170866
 21
-10.39230646424792
 31
0.0
  0
CIRCLE
  5
122
330
1F
100
AcDbEntity
  8
0
  6
Continuous
 62
     7
100
AcDbCircle
 10
-7.499999896122929
 20
12.99038129005703
 30
0.0
 40
1.200000047683715
  0
CIRCLE
  5
123
330
1F
100
AcDbEntity
  8
0
  6
Continuous
 62
     7
100
AcDbCircle
 10
-7.499999896122929
 20
12.99038129005703
 30
0.0
 40
1.5
  0
CIRCLE
  5
124
330
1F
100
AcDbEntity
  8
0
  6
Continuous
 62
     7
100
AcDbCircle
 10
-4.999999896122929
 20
8.660254348852959
 30
0.0
 40
1.5
  0
ENDBLK
  5
125
330
1F
100
AcDbEntity
  8
0
100
AcDbBlockEnd
  0
BLOCK
  5
126
330
20
100
AcDbEntity
  8
0
100
AcDbBlockBegin
  2
NHE2-16-3
 70
     0
 10
0.0
 20
0.0
 30
0.0
  3
NHE2-16-3
  1

  0
CIRCLE
  5
127
330
20
100
AcDbEntity
  8
0
  6
Continuous
 62
     7
100
AcDbCircle
 10
0.0
 20
-0.0000000000000071
 30
0.0
 40
4.0
  0
CIRCLE
  5
128
330
20
100
AcDbEntity
  8
0
  6
Continuous
 62
     7
100
AcDbCircle
 10
0.0
 20
0.0
 30
0.0
 40
3.0
  0
CIRCLE
  5
129
330
20
100
AcDbEntity
  8
0
  6
Continuous
 62
     7
100
AcDbCircle
 10
0.0
 20
0.0
 30
0.0
 40
3.5
  0
ARC
  5
12A
330
20
100
AcDbEntity
  8
0
  6
Continuous
 62
     7
100
AcDbCircle
 10
-17.50000282189128
 20
0.0
 30
0.0
 40
3.0
100
AcDbArc
 50
269.9999949910439
 51
90.00000500895634
  0
CIRCLE
  5
12B
330
20
100
AcDbEntity
  8
0
  6
Continuous
 62
     7
100
AcDbCircle
 10
0.0
 20
-0.0000000000000071
 30
0.0
 40
11.0
  0
CIRCLE
  5
12C
330
20
100
AcDbEntity
  8
0
  6
Continuous
 62
     7
100
AcDbCircle
 10
0.0
 20
0.0
 30
0.0
 40
12.5
  0
CIRCLE
  5
12D
330
20
100
AcDbEntity
  8
0
  6
Continuous
 62
     7
100
AcDbCircle
 10
17.5
 20
0.0
 30
0.0
 40
1.5
  0
CIRCLE
  5
12E
330
20
100
AcDbEntity
  8
0
  6
Continuous
 62
     7
100
AcDbCircle
 10
0.0
 20
-0.0000000000000071
 30
0.0
 40
10.75
  0
CIRCLE
  5
12F
330
20
100
AcDbEntity
  8
0
  6
Continuous
 62
     7
100
AcDbCircle
 10
-17.50000282189128
 20
0.0
 30
0.0
 40
2.75
  0
ARC
  5
130
330
20
100
AcDbEntity
  8
0
  6
Continuous
 62
     7
100
AcDbCircle
 10
0.0
 20
0.0
 30
0.0
 40
10.25
100
AcDbArc
 50
28.59215560131661
 51
151.4079103194932
  0
ARC
  5
131
330
20
100
AcDbEntity
  8
0
  6
Continuous
 62
     7
100
AcDbCircle
 10
0.0
 20
0.0
 30
0.0
 40
10.25
100
AcDbArc
 50
208.5920896805068
 51
331.4078443986834
  0
ARC
  5
132
330
20
100
AcDbEntity
  8
0
  6
Continuous
 62
     7
100
AcDbCircle
 10
0.0
 20
0.0
 30
0.0
 40
24.0
100
AcDbArc
 50
35.37568155605422
 51
84.62431755336172
  0
ARC
  5
133
330
20
100
AcDbEntity
  8
0
  6
Continuous
 62
     7
100
AcDbCircle
 10
-0.0000228881835938
 20
-0.000030517578125
 30
0.0
 40
24.0
100
AcDbArc
 50
275.3757700563708
 51
324.6244060537397
  0
ARC
  5
134
330
20
100
AcDbEntity
  8
0
  6
Continuous
 62
     7
100
AcDbCircle
 10
-0.0000381469726563
 20
0.0
 30
0.0
 40
24.0
100
AcDbArc
 50
155.3756816478359
 51
204.6243183521641
  0
ARC
  5
135
330
20
100
AcDbEntity
  8
0
  6
Continuous
 62
     7
100
AcDbCircle
 10
15.07915977576496
 20
-13.11787414550781
 30
0.0
 40
2.5
100
AcDbArc
 50
237.3451592763033
 51
40.61256230642875
  0
ARC
  5
136
330
20
100
AcDbEntity
  8
0
  6
Continuous
 62
     7
100
AcDbCircle
 10
15.07915977576496
 20
-13.11787414550781
 30
0.0
 40
2.25
100
AcDbArc
 50
239.0500223044627
 51
38.90769156918461
  0
ARC
  5
137
330
20
100
AcDbEntity
  8
0
  6
Continuous
 62
     7
100
AcDbCircle
 10
15.07915977576496
 20
-13.11787414550781
 30
0.0
 40
1.154700517654418
100
AcDbArc
 50
253.910678325071
 51
24.04709732666625
  0
ARC
  5
138
330
20
100
AcDbEntity
  8
0
  6
Continuous
 62
     7
100
AcDbCircle
 10
3.820836106331369
 20
-19.61787414550781
 30
0.0
 40
1.154700517654418
100
AcDbArc
 50
215.9529056658445
 51
346.0893483111302
  0
ARC
  5
139
330
20
100
AcDbEntity
  8
0
  6
Continuous
 62
     7
100
AcDbCircle
 10
3.820836106331369
 20
-19.61787414550781
 30
0.0
 40
2.25
100
AcDbArc
 50
201.0922567663974
 51
0.9499972105773045
  0
ARC
  5
13A
330
20
100
AcDbEntity
  8
0
  6
Continuous
 62
     7
100
AcDbCircle
 10
3.820836106331369
 20
-19.61787414550781
 30
0.0
 40
2.5
100
AcDbArc
 50
199.387392504095
 51
2.654861472879728
  0
CIRCLE
  5
13B
330
20
100
AcDbEntity
  8
0
  6
Continuous
 62
     7
100
AcDbCircle
 10
0.0
 20
0.0
 30
0.0
 40
20.5
  0
ARC
  5
13C
330
20
100
AcDbEntity
  8
0
  6
Continuous
 62
     7
100
AcDbCircle
 10
15.07915977576496
 20
13.11787414550781
 30
0.0
 40
2.5
100
AcDbArc
 50
319.387437693571
 51
122.6547970293358
  0
ARC
  5
13D
330
20
100
AcDbEntity
  8
0
  6
Continuous
 62
     7
100
AcDbCircle
 10
15.07915977576496
 20
13.11787414550781
 30
0.0
 40
2.25
100
AcDbArc
 50
321.0923084308153
 51
120.9499262920918
  0
ARC
  5
13E
330
20
100
AcDbEntity
  8
0
  6
Continuous
 62
     7
100
AcDbCircle
 10
15.07915977576496
 20
13.11787414550781
 30
0.0
 40
1.154700517654418
100
AcDbArc
 50
335.9530263063892
 51
106.089208416518
  0
ARC
  5
13F
330
20
100
AcDbEntity
  8
0
  6
Continuous
 62
     7
100
AcDbCircle
 10
3.820836106331369
 20
19.61787414550781
 30
0.0
 40
1.154700517654418
100
AcDbArc
 50
13.91065168886979
 51
144.0470943341555
  0
ARC
  5
140
330
20
100
AcDbEntity
  8
0
  6
Continuous
 62
     7
100
AcDbCircle
 10
3.820836106331369
 20
19.61787414550781
 30
0.0
 40
2.25
100
AcDbArc
 50
359.0500027894226
 51
158.9077432336025
  0
ARC
  5
141
330
20
100
AcDbEntity
  8
0
  6
Continuous
 62
     7
100
AcDbCircle
 10
3.820836106331369
 20
19.61787414550781
 30
0.0
 40
2.5
100
AcDbArc
 50
357.3451385271203
 51
160.612607495905
  0
ARC
  5
142
330
20
100
AcDbEntity
  8
0
  6
Continuous
 62
     7
100
AcDbCircle
 10
-18.89998908898112
 20
-6.499996185302734
 30
0.0
 40
1.154700517654418
100
AcDbArc
 50
133.9109899883257
 51
264.0467691857017
  0
ARC
  5
143
330
20
100
AcDbEntity
  8
0
  6
Continuous
 62
     7
100
AcDbCircle
 10
-18.89999671837566
 20
6.5
 30
0.0
 40
1.154700517654418
100
AcDbArc
 50
95.95288734330329
 51
226.0894807136866
  0
ARC
  5
144
330
20
100
AcDbEntity
  8
0
  6
Continuous
 62
     7
100
AcDbCircle
 10
-18.89998908898112
 20
-6.499996185302734
 30
0.0
 40
2.25
100
AcDbArc
 50
119.0501654423546
 51
278.907593731673
  0
ARC
  5
145
330
20
100
AcDbEntity
  8
0
  6
Continuous
 62
     7
100
AcDbCircle
 10
-18.89998908898112
 20
-6.499996185302734
 30
0.0
 40
2.5
100
AcDbArc
 50
117.3452846917394
 51
280.6124744822881
  0
ARC
  5
146
330
20
100
AcDbEntity
  8
0
  6
Continuous
 62
     7
100
AcDbCircle
 10
-18.89999671837566
 20
6.5
 30
0.0
 40
2.5
100
AcDbArc
 50
79.38732286002701
 51
242.6549115095296
  0
ARC
  5
147
330
20
100
AcDbEntity
  8
0
  6
Continuous
 62
     7
100
AcDbCircle
 10
-18.89999671837566
 20
6.5
 30
0.0
 40
2.25
100
AcDbArc
 50
81.09218005397261
 51
240.950054315584
  0
CIRCLE
  5
148
330
20
100
AcDbEntity
  8
0
  6
CENTER
 62
     2
100
AcDbCircle
 10
0.0
 20
-0.0000000000000142
 30
0.0
 40
17.5
  0
CIRCLE
  5
149
330
20
100
AcDbEntity
  8
0
  6
Continuous
 62
     7
100
AcDbCircle
 10
8.750000117785276
 20
-15.15544449822433
 30
0.0
 40
2.75
  0
CIRCLE
  5
14A
330
20
100
AcDbEntity
  8
0
  6
Continuous
 62
     7
100
AcDbCircle
 10
-8.750000117785262
 20
15.15544449822431
 30
0.0
 40
1.5
  0
ARC
  5
14B
330
20
100
AcDbEntity
  8
0
  6
Continuous
 62
     7
100
AcDbCircle
 10
8.750000117785276
 20
-15.15544449822433
 30
0.0
 40
3.0
100
AcDbArc
 50
29.99998967892588
 51
209.9999946878822
  0
ARC
  5
14C
330
20
100
AcDbEntity
  8
0
  6
Continuous
 62
     7
100
AcDbCircle
 10
8.750004807503231
 20
15.15544891357422
 30
0.0
 40
3.0
100
AcDbArc
 50
149.9999966606958
 51
330.0000016696521
  0
CIRCLE
  5
14D
330
20
100
AcDbEntity
  8
0
  6
Continuous
 62
     7
100
AcDbCircle
 10
-8.750000117785276
 20
-15.15544449822433
 30
0.0
 40
1.5
  0
CIRCLE
  5
14E
330
20
100
AcDbEntity
  8
0
  6
Continuous
 62
     7
100
AcDbCircle
 10
8.750004807503231
 20
15.15544891357422
 30
0.0
 40
2.75
  0
CIRCLE
  5
14F
330
20
100
AcDbEntity
  8
0
  6
Continuous
 62
     7
100
AcDbCircle
 10
17.5
 20
0.0
 30
0.0
 40
2.0
  0
CIRCLE
  5
150
330
20
100
AcDbEntity
  8
0
  6
Continuous
 62
     7
100
AcDbCircle
 10
-8.750000117785262
 20
15.15544449822431
 30
0.0
 40
2.0
  0
CIRCLE
  5
151
330
20
100
AcDbEntity
  8
0
  6
Continuous
 62
     7
100
AcDbCircle
 10
-8.750000117785276
 20
-15.15544449822433
 30
0.0
 40
2.0
  0
LINE
  5
152
330
20
100
AcDbEntity
  8
0
  6
CENTER
 62
     2
100
AcDbLine
 10
10.49999769071492
 20
18.18652915325809
 30
0.0
 11
-10.50000230928506
 21
-18.1865371528561
 31
0.0
  0
LINE
  5
153
330
20
100
AcDbEntity
  8
0
  6
CENTER
 62
     2
100
AcDbLine
 10
-21.00000282189129
 20
0.0
 30
0.0
 11
20.99999717810872
 21
0.0
 31
0.0
  0
LINE
  5
154
330
20
100
AcDbEntity
  8
0
  6
Continuous
 62
     7
100
AcDbLine
 10
-20.27929979067325
 20
-3.0
 30
0.0
 11
-17.50000282189128
 21
-3.0
 31
0.0
  0
LINE
  5
155
330
20
100
AcDbEntity
  8
0
  6
Continuous
 62
     7
100
AcDbLine
 10
-20.27929979067325
 20
3.0
 30
0.0
 11
-17.50000282189128
 21
3.0
 31
0.0
  0
LINE
  5
156
330
20
100
AcDbEntity
  8
0
  6
CENTER
 62
     2
100
AcDbLine
 10
10.50000115307726
 20
-18.18653515024548
 30
0.0
 11
-10.49999980059705
 21
18.18653280768106
 31
0.0
  0
LINE
  5
157
330
20
100
AcDbEntity
  8
0
  6
Continuous
 62
     7
100
AcDbLine
 10
-9.000002821891287
 20
5.8789836881853
 30
0.0
 11
-9.000002821891287
 21
-5.878983688185314
 31
0.0
  0
LINE
  5
158
330
20
100
AcDbEntity
  8
0
  6
Continuous
 62
     7
100
AcDbLine
 10
8.999997178108701
 20
5.878992328115032
 30
0.0
 11
8.999997178108701
 21
-5.878992328115047
 31
0.0
  0
LINE
  5
159
330
20
100
AcDbEntity
  8
0
  6
Continuous
 62
     7
100
AcDbLine
 10
-17.89553016817328
 20
-10.0
 30
0.0
 11
-21.81746237624408
 21
-10.0
 31
0.0
  0
LINE
  5
15A
330
20
100
AcDbEntity
  8
0
  6
Continuous
 62
     7
100
AcDbLine
 10
0.2875113597363566
 20
20.4979837354317
 30
0.0
 11
2.24845840992124
 21
23.89444359634379
 31
0.0
  0
LINE
  5
15B
330
20
100
AcDbEntity
  8
0
  6
Continuous
 62
     7
100
AcDbLine
 10
-17.89553016817328
 20
10.0
 30
0.0
 11
-21.81746237624408
 21
10.0
 31
0.0
  0
LINE
  5
15C
330
20
100
AcDbEntity
  8
0
  6
Continuous
 62
     7
100
AcDbLine
 10
17.60801811556985
 20
-10.49798542777443
 30
0.0
 11
19.568964532238
 21
-13.89444419140336
 31
0.0
  0
LINE
  5
15D
330
20
100
AcDbEntity
  8
0
  6
Continuous
 62
     7
100
AcDbLine
 10
0.2875093896330583
 20
-20.49798376306493
 30
0.0
 11
2.248472058209955
 21
-23.89447067582503
 31
0.0
  0
LINE
  5
15E
330
20
100
AcDbEntity
  8
0
  6
Continuous
 62
     7
100
AcDbLine
 10
17.60801912455264
 20
10.4979837354317
 30
0.0
 11
19.56896617473751
 21
13.89444359634379
 31
0.0
  0
LINE
  5
15F
330
20
100
AcDbEntity
  8
0
  6
Continuous
 62
     7
100
AcDbLine
 10
4.398182569150407
 20
-20.61787199683809
 30
0.0
 11
3.243482583471902
 21
-20.61787199683809
 31
0.0
  0
LINE
  5
160
330
20
100
AcDbEntity
  8
0
  6
Continuous
 62
     7
100
AcDbLine
 10
3.04420394300223
 20
-20.27271127287639
 30
0.0
 11
3.243482583471902
 21
-20.61787199683809
 31
0.0
  0
LINE
  5
161
330
20
100
AcDbEntity
  8
0
  6
Continuous
 62
     7
100
AcDbLine
 10
4.398182569150407
 20
-20.61787199683809
 30
0.0
 11
4.794485458105768
 21
-19.93145527030107
 31
0.0
  0
LINE
  5
162
330
20
100
AcDbEntity
  8
0
  6
Continuous
 62
     7
100
AcDbLine
 10
16.03457966595371
 20
-12.77271000475906
 30
0.0
 11
16.23386088162144
 21
-13.11787518909454
 31
0.0
  0
LINE
  5
163
330
20
100
AcDbEntity
  8
0
  6
Continuous
 62
     7
100
AcDbLine
 10
15.65651110198561
 20
-14.11787496966508
 30
0.0
 11
16.23386171844069
 21
-13.11787438613191
 31
0.0
  0
LINE
  5
164
330
20
100
AcDbEntity
  8
0
  6
Continuous
 62
     7
100
AcDbLine
 10
15.65651420691731
 20
-14.11787414550781
 30
0.0
 11
14.86390403846028
 21
-14.11787414550781
 31
0.0
  0
LINE
  5
165
330
20
100
AcDbEntity
  8
0
  6
Continuous
 62
     7
100
AcDbLine
 10
4.398179044288297
 20
20.61787466212607
 30
0.0
 11
4.794483151738192
 21
19.93145582509463
 31
0.0
  0
LINE
  5
166
330
20
100
AcDbEntity
  8
0
  6
Continuous
 62
     7
100
AcDbLine
 10
4.398179044288297
 20
20.61787466212607
 30
0.0
 11
3.243486773401472
 21
20.61787466212607
 31
0.0
  0
LINE
  5
167
330
20
100
AcDbEntity
  8
0
  6
Continuous
 62
     7
100
AcDbLine
 10
3.0442063826207
 20
20.27271090653668
 30
0.0
 11
3.243486773401472
 21
20.61787466212607
 31
0.0
  0
LINE
  5
168
330
20
100
AcDbEntity
  8
0
  6
Continuous
 62
     7
100
AcDbLine
 10
15.65650959175569
 20
14.11787414550781
 30
0.0
 11
14.86390357919487
 21
14.11787414550781
 31
0.0
  0
LINE
  5
169
330
20
100
AcDbEntity
  8
0
  6
Continuous
 62
     7
100
AcDbLine
 10
16.03458167578483
 20
12.7727127299797
 30
0.0
 11
16.23386029341915
 21
13.11787341438941
 31
0.0
  0
LINE
  5
16A
330
20
100
AcDbEntity
  8
0
  6
Continuous
 62
     7
100
AcDbLine
 10
15.65650959175569
 20
14.11787414550781
 30
0.0
 11
16.23386033372273
 21
13.11787334458157
 31
0.0
  0
LINE
  5
16B
330
20
100
AcDbEntity
  8
0
  6
Continuous
 62
     7
100
AcDbLine
 10
-20.05469382114168
 20
6.499999175842745
 30
0.0
 11
-19.4773432046866
 21
7.499999759375896
 31
0.0
  0
LINE
  5
16C
330
20
100
AcDbEntity
  8
0
  6
Continuous
 62
     7
100
AcDbLine
 10
-19.07878394982097
 20
7.5
 30
0.0
 11
-19.47734352013348
 21
7.5
 31
0.0
  0
LINE
  5
16D
330
20
100
AcDbEntity
  8
0
  6
Continuous
 62
     7
100
AcDbLine
 10
-19.07878394982097
 20
-7.5
 30
0.0
 11
-19.47734352013348
 21
-7.5
 31
0.0
  0
LINE
  5
16E
330
20
100
AcDbEntity
  8
0
  6
Continuous
 62
     7
100
AcDbLine
 10
7.541573832132627
 20
-19.06238873107177
 30
0.0
 11
6.151923767361055
 21
-16.65544425734643
 31
0.0
  0
LINE
  5
16F
330
20
100
AcDbEntity
  8
0
  6
Continuous
 62
     7
100
AcDbLine
 10
12.73772623152376
 20
-16.06238869068829
 30
0.0
 11
11.34807659934364
 21
-13.65544496623329
 31
0.0
  0
LINE
  5
170
330
20
100
AcDbEntity
  8
0
  6
Continuous
 62
     7
100
AcDbLine
 10
7.541573870092832
 20
19.06238871605374
 30
0.0
 11
6.151925340689757
 21
16.6554469016646
 31
0.0
  0
LINE
  5
171
330
20
100
AcDbEntity
  8
0
  6
Continuous
 62
     7
100
AcDbLine
 10
12.73772619953772
 20
16.06238871605374
 30
0.0
 11
11.34807767013464
 21
13.6554469016646
 31
0.0
  0
LINE
  5
172
330
20
100
AcDbEntity
  8
0
  6
Continuous
 62
     7
100
AcDbLine
 10
7.30663068644867
 20
15.15544984044417
 30
0.0
 11
8.028316944283034
 21
13.90545257475081
 31
0.0
  0
LINE
  5
173
330
20
100
AcDbEntity
  8
0
  6
Continuous
 62
     7
100
AcDbLine
 10
8.028316944283034
 20
13.90545257475081
 30
0.0
 11
9.471689459951759
 21
13.90545257475081
 31
0.0
  0
LINE
  5
174
330
20
100
AcDbEntity
  8
0
  6
Continuous
 62
     7
100
AcDbLine
 10
9.471689459951759
 20
13.90545257475081
 30
0.0
 11
10.19337571778612
 21
15.15544984044417
 31
0.0
  0
LINE
  5
175
330
20
100
AcDbEntity
  8
0
  6
Continuous
 62
     7
100
AcDbLine
 10
10.19337571778612
 20
15.15544984044417
 30
0.0
 11
9.471689459951759
 21
16.40544710613754
 31
0.0
  0
LINE
  5
176
330
20
100
AcDbEntity
  8
0
  6
Continuous
 62
     7
100
AcDbLine
 10
9.471689459951759
 20
16.40544710613754
 30
0.0
 11
8.028316944283034
 21
16.40544710613754
 31
0.0
  0
LINE
  5
177
330
20
100
AcDbEntity
  8
0
  6
Continuous
 62
     7
100
AcDbLine
 10
8.028316944283034
 20
16.40544710613754
 30
0.0
 11
7.30663068644867
 21
15.15544984044417
 31
0.0
  0
LINE
  5
178
330
20
100
AcDbEntity
  8
0
  6
Continuous
 62
     7
100
AcDbLine
 10
-16.77831508511001
 20
1.250003534782947
 30
0.0
 11
-18.22168760077873
 21
1.250003534782947
 31
0.0
  0
LINE
  5
179
330
20
100
AcDbEntity
  8
0
  6
Continuous
 62
     7
100
AcDbLine
 10
-16.05662882727564
 20
0.0000062690895817
 30
0.0
 11
-16.77831508511001
 21
1.250003534782947
 31
0.0
  0
LINE
  5
17A
330
20
100
AcDbEntity
  8
0
  6
Continuous
 62
     7
100
AcDbLine
 10
-18.22168760077873
 20
1.250003534782947
 30
0.0
 11
-18.9433738586131
 21
0.0000062690895817
 31
0.0
  0
LINE
  5
17B
330
20
100
AcDbEntity
  8
0
  6
Continuous
 62
     7
100
AcDbLine
 10
-16.77831508511001
 20
-1.249990996603784
 30
0.0
 11
-16.05662882727564
 21
0.0000062690895817
 31
0.0
  0
LINE
  5
17C
330
20
100
AcDbEntity
  8
0
  6
Continuous
 62
     7
100
AcDbLine
 10
-18.22168760077873
 20
-1.249990996603784
 30
0.0
 11
-16.77831508511001
 21
-1.249990996603784
 31
0.0
  0
LINE
  5
17D
330
20
100
AcDbEntity
  8
0
  6
Continuous
 62
     7
100
AcDbLine
 10
-18.9433738586131
 20
0.0000062690895817
 30
0.0
 11
-18.22168760077873
 21
-1.249990996603784
 31
0.0
  0
LINE
  5
17E
330
20
100
AcDbEntity
  8
0
  6
Continuous
 62
     7
100
AcDbLine
 10
9.471684914889976
 20
-13.90544537879127
 30
0.0
 11
8.028312399221249
 21
-13.90544537879127
 31
0.0
  0
LINE
  5
17F
330
20
100
AcDbEntity
  8
0
  6
Continuous
 62
     7
100
AcDbLine
 10
10.19337117272434
 20
-15.15544264448463
 30
0.0
 11
9.471684914889976
 21
-13.90544537879127
 31
0.0
  0
LINE
  5
180
330
20
100
AcDbEntity
  8
0
  6
Continuous
 62
     7
100
AcDbLine
 10
8.028312399221249
 20
-13.90544537879127
 30
0.0
 11
7.306626141386886
 21
-15.15544264448463
 31
0.0
  0
LINE
  5
181
330
20
100
AcDbEntity
  8
0
  6
Continuous
 62
     7
100
AcDbLine
 10
9.471684914889976
 20
-16.40543991017801
 30
0.0
 11
10.19337117272434
 21
-15.15544264448463
 31
0.0
  0
LINE
  5
182
330
20
100
AcDbEntity
  8
0
  6
Continuous
 62
     7
100
AcDbLine
 10
8.028312399221249
 20
-16.40543991017801
 30
0.0
 11
9.471684914889976
 21
-16.40543991017801
 31
0.0
  0
LINE
  5
183
330
20
100
AcDbEntity
  8
0
  6
Continuous
 62
     7
100
AcDbLine
 10
7.306626141386886
 20
-15.15544264448463
 30
0.0
 11
8.028312399221249
 21
-16.40543991017801
 31
0.0
  0
CIRCLE
  5
184
330
20
100
AcDbEntity
  8
0
  6
Continuous
 62
     7
100
AcDbCircle
 10
-17.5
 20
-0.0000000000000142
 30
0.0
 40
2.75
  0
ARC
  5
185
330
20
100
AcDbEntity
  8
0
  6
Continuous
 62
     7
100
AcDbCircle
 10
-17.5
 20
-0.0000000000000142
 30
0.0
 40
3.0
100
AcDbArc
 50
269.9999949910439
 51
90.00000500895634
  0
LINE
  5
186
330
20
100
AcDbEntity
  8
0
  6
Continuous
 62
     7
100
AcDbLine
 10
-20.05468956729398
 20
-6.500001707950887
 30
0.0
 11
-19.65838773574566
 21
-5.813586812896545
 31
0.0
  0
LINE
  5
187
330
20
100
AcDbEntity
  8
0
  6
Continuous
 62
     7
100
AcDbLine
 10
-20.05468955968001
 20
-6.500001694763106
 30
0.0
 11
-19.47733970970809
 21
-7.500000950708525
 31
0.0
  0
LINE
  5
188
330
20
100
AcDbEntity
  8
0
  6
Continuous
 62
     7
100
AcDbLine
 10
-20.05469382114168
 20
6.499999175842745
 30
0.0
 11
-19.65838967179168
 21
5.813580266238176
 31
0.0
  0
ENDBLK
  5
189
330
20
100
AcDbEntity
  8
0
100
AcDbBlockEnd
  0
BLOCK
  5
18A
330
21
100
AcDbEntity
  8
0
100
AcDbBlockBegin
  2
NHE2-16-4
 70
     0
 10
0.0
 20
0.0
 30
0.0
  3
NHE2-16-4
  1

  0
ELLIPSE
  5
18B
330
21
100
AcDbEntity
  8
0
  6
Continuous
 62
     7
100
AcDbEllipse
 10
16.00001525878906
 20
-2.935842514038085
 30
0.0
 11
1.25
 21
0.0
 31
0.0
210
0.0
220
0.0
230
1.0
 40
0.5204727172851563
 41
0.0
 42
6.283185307179585
  0
ARC
  5
18C
330
21
100
AcDbEntity
  8
0
  6
Continuous
 62
     7
100
AcDbCircle
 10
3.500007629394531
 20
7.722217559814453
 30
0.0
 40
1.0
100
AcDbArc
 50
180.000053958268
 51
0.0000589672243628
  0
ARC
  5
18D
330
21
100
AcDbEntity
  8
0
  6
Continuous
 62
     7
100
AcDbCircle
 10
3.500007629394531
 20
14.72219848632812
 30
0.0
 40
1.0
100
AcDbArc
 50
0.0000589672243628
 51
180.0000229950457
  0
CIRCLE
  5
18E
330
21
100
AcDbEntity
  8
0
  6
Continuous
 62
     7
100
AcDbCircle
 10
3.500007629394531
 20
11.6310806274414
 30
0.0
 40
1.0
  0
ARC
  5
18F
330
21
100
AcDbEntity
  8
0
  6
Continuous
 62
     7
100
AcDbCircle
 10
3.500007629394531
 20
7.631080627441406
 30
0.0
 40
1.0
100
AcDbArc
 50
5.228978588219324
 51
174.7710214117807
  0
ARC
  5
190
330
21
100
AcDbEntity
  8
0
  6
Continuous
 62
     7
100
AcDbCircle
 10
3.500007629394531
 20
13.1310806274414
 30
0.0
 40
1.0
100
AcDbArc
 50
0.0000589672243628
 51
180.0000229950457
  0
CIRCLE
  5
191
330
21
100
AcDbEntity
  8
0
  6
Continuous
 62
     7
100
AcDbCircle
 10
16.00001525878906
 20
-11.50000381469726
 30
0.0
 40
1.25
  0
LINE
  5
192
330
21
100
AcDbEntity
  8
0
  6
CENTER
 62
     2
100
AcDbLine
 10
-3.746566772460937
 20
0.0
 30
0.0
 11
84.20000076293945
 21
0.0
 31
0.0
  0
LINE
  5
193
330
21
100
AcDbEntity
  8
0
  6
Continuous
 62
     7
100
AcDbLine
 10
37.20001602172852
 20
11.5
 30
0.0
 11
34.50001525878907
 21
11.5
 31
0.0
  0
LINE
  5
194
330
21
100
AcDbEntity
  8
0
  6
Continuous
 62
     7
100
AcDbLine
 10
37.50001526124606
 20
11.20000076048245
 30
0.0
 11
37.20001602172852
 21
11.5
 31
0.0
  0
LINE
  5
195
330
21
100
AcDbEntity
  8
0
  6
Continuous
 62
     7
100
AcDbLine
 10
37.20001602172852
 20
11.5
 30
0.0
 11
37.20001602172852
 21
7.532760620117187
 31
0.0
  0
LINE
  5
196
330
21
100
AcDbEntity
  8
0
  6
Continuous
 62
     7
100
AcDbLine
 10
37.50001525878906
 20
11.20000076293945
 30
0.0
 11
37.50001525878906
 21
7.532760620117187
 31
0.0
  0
LINE
  5
197
330
21
100
AcDbEntity
  8
0
  6
Continuous
 62
     7
100
AcDbLine
 10
34.50001525878907
 20
12.72891235351562
 30
0.0
 11
34.50001525878907
 21
7.532760620117187
 31
0.0
  0
LINE
  5
198
330
21
100
AcDbEntity
  8
0
  6
Continuous
 62
     7
100
AcDbLine
 10
38.00001525878906
 20
12.72891235351562
 30
0.0
 11
34.50001525878907
 21
12.72891235351562
 31
0.0
  0
LINE
  5
199
330
21
100
AcDbEntity
  8
0
  6
Continuous
 62
     7
100
AcDbLine
 10
40.00001525878905
 20
12.5
 30
0.0
 11
77.50001716613771
 21
12.5
 31
0.0
  0
LINE
  5
19A
330
21
100
AcDbEntity
  8
0
  6
Continuous
 62
     7
100
AcDbLine
 10
81.20001792907716
 20
-9.0
 30
0.0
 11
81.20001792907716
 21
9.0
 31
0.0
  0
LINE
  5
19B
330
21
100
AcDbEntity
  8
0
  6
Continuous
 62
     7
100
AcDbLine
 10
38.00001525878906
 20
-12.29999923706055
 30
0.0
 11
40.00001525878905
 21
-12.29999923706055
 31
0.0
  0
LINE
  5
19C
330
21
100
AcDbEntity
  8
0
  6
Continuous
 62
     7
100
AcDbLine
 10
37.50001846113378
 20
20.5
 30
0.0
 11
38.00001525878906
 21
20.00000320234471
 31
0.0
  0
LINE
  5
19D
330
21
100
AcDbEntity
  8
0
  6
Continuous
 62
     7
100
AcDbLine
 10
32.00001525878907
 20
-20.50000381469727
 30
0.0
 11
32.00001525878907
 21
20.5
 31
0.0
  0
LINE
  5
19E
330
21
100
AcDbEntity
  8
0
  6
Continuous
 62
     7
100
AcDbLine
 10
37.50001840643204
 20
-20.49999727752261
 30
0.0
 11
38.00001893722678
 21
-19.99999674672785
 31
0.0
  0
LINE
  5
19F
330
21
100
AcDbEntity
  8
0
  6
Continuous
 62
     7
100
AcDbLine
 10
38.00001525878906
 20
-19.99999618530273
 30
0.0
 11
38.00001525878906
 21
20.00000320234471
 31
0.0
  0
LINE
  5
1A0
330
21
100
AcDbEntity
  8
0
  6
Continuous
 62
     7
100
AcDbLine
 10
40.00001525878905
 20
-12.49999618530273
 30
0.0
 11
77.50001716613771
 21
-12.49999618530273
 31
0.0
  0
LINE
  5
1A1
330
21
100
AcDbEntity
  8
0
  6
Continuous
 62
     7
100
AcDbLine
 10
80.7000169297031
 20
9.0
 30
0.0
 11
80.7000169297031
 21
-8.999998612888731
 31
0.0
  0
LINE
  5
1A2
330
21
100
AcDbEntity
  8
0
  6
Continuous
 62
     7
100
AcDbLine
 10
77.50001716613771
 20
-12.49999618530273
 30
0.0
 11
77.50001716613771
 21
12.5
 31
0.0
  0
LINE
  5
1A3
330
21
100
AcDbEntity
  8
0
  6
Continuous
 62
     7
100
AcDbLine
 10
78.0000171661377
 20
-11.99999618530273
 30
0.0
 11
77.50001716613771
 21
-12.49999618530273
 31
0.0
  0
LINE
  5
1A4
330
21
100
AcDbEntity
  8
0
  6
Continuous
 62
     7
100
AcDbLine
 10
78.0000171661377
 20
-11.99999618530273
 30
0.0
 11
78.0000171661377
 21
12.00000019968274
 31
0.0
  0
LINE
  5
1A5
330
21
100
AcDbEntity
  8
0
  6
Continuous
 62
     7
100
AcDbLine
 10
40.00001525878905
 20
-12.49999618530273
 30
0.0
 11
40.00001525878905
 21
12.5
 31
0.0
  0
LINE
  5
1A6
330
21
100
AcDbEntity
  8
0
  6
Continuous
 62
     7
100
AcDbLine
 10
38.00001525878906
 20
12.30000305175781
 30
0.0
 11
40.00001525878905
 21
12.30000305175781
 31
0.0
  0
LINE
  5
1A7
330
21
100
AcDbEntity
  8
0
  6
Continuous
 62
     7
100
AcDbLine
 10
78.0000171661377
 20
12.00000019968274
 30
0.0
 11
77.50001716613771
 21
12.50000019968274
 31
0.0
  0
LINE
  5
1A8
330
21
100
AcDbEntity
  8
0
  6
Continuous
 62
     7
100
AcDbLine
 10
78.0000171661377
 20
-9.0
 30
0.0
 11
81.20001792907716
 21
-9.0
 31
0.0
  0
LINE
  5
1A9
330
21
100
AcDbEntity
  8
0
  6
Continuous
 62
     7
100
AcDbLine
 10
78.0000171661377
 20
9.0
 30
0.0
 11
81.20001792907716
 21
9.0
 31
0.0
  0
LINE
  5
1AA
330
21
100
AcDbEntity
  8
0
  6
Continuous
 62
     7
100
AcDbLine
 10
8.000003814697265
 20
-24.0
 30
0.0
 11
13.00000381469726
 21
-24.0
 31
0.0
  0
LINE
  5
1AB
330
21
100
AcDbEntity
  8
0
  6
Continuous
 62
     7
100
AcDbLine
 10
14.00000381469726
 20
-20.50000381469727
 30
0.0
 11
37.50000953674317
 21
-20.50000381469727
 31
0.0
  0
LINE
  5
1AC
330
21
100
AcDbEntity
  8
0
  6
Continuous
 62
     7
100
AcDbLine
 10
8.000003814697265
 20
-24.0
 30
0.0
 11
8.000003814697265
 21
-22.44000053405761
 31
0.0
  0
LINE
  5
1AD
330
21
100
AcDbEntity
  8
0
  6
Continuous
 62
     7
100
AcDbLine
 10
14.00000381469726
 20
-23.0
 30
0.0
 11
14.00000381469726
 21
-20.50000381469727
 31
0.0
  0
LINE
  5
1AE
330
21
100
AcDbEntity
  8
0
  6
Continuous
 62
     7
100
AcDbLine
 10
6.000003814697265
 20
-22.44000053405761
 30
0.0
 11
6.000003814697265
 21
3.860988616943359
 31
0.0
  0
LINE
  5
1AF
330
21
100
AcDbEntity
  8
0
  6
Continuous
 62
     2
100
AcDbLine
 10
-0.9701385498046876
 20
-15.0
 30
0.0
 11
3.508277893066406
 21
-15.0
 31
0.0
  0
LINE
  5
1B0
330
21
100
AcDbEntity
  8
0
  6
Continuous
 62
     7
100
AcDbLine
 10
0.0
 20
-19.39999771118164
 30
0.0
 11
1.5
 21
-19.39999771118164
 31
0.0
  0
LINE
  5
1B1
330
21
100
AcDbEntity
  8
0
  6
Continuous
 62
     7
100
AcDbLine
 10
1.0
 20
-20.19999313354492
 30
0.0
 11
1.5
 21
-20.19999313354492
 31
0.0
  0
LINE
  5
1B2
330
21
100
AcDbEntity
  8
0
  6
Continuous
 62
     7
100
AcDbLine
 10
1.5
 20
18.58341217041016
 30
0.0
 11
1.5
 21
13.1310806274414
 31
0.0
  0
LINE
  5
1B3
330
21
100
AcDbEntity
  8
0
  6
Continuous
 62
     7
100
AcDbLine
 10
1.5
 20
-22.39999961853027
 30
0.0
 11
6.000003814697265
 21
-22.39999961853027
 31
0.0
  0
LINE
  5
1B4
330
21
100
AcDbEntity
  8
0
  6
Continuous
 62
     7
100
AcDbLine
 10
0.0
 20
-19.39999771118164
 30
0.0
 11
0.0
 21
-6.29998779296875
 31
0.0
  0
LINE
  5
1B5
330
21
100
AcDbEntity
  8
0
  6
Continuous
 62
     7
100
AcDbLine
 10
6.000003814697265
 20
-22.44000053405761
 30
0.0
 11
8.000003814697265
 21
-22.44000053405761
 31
0.0
  0
LINE
  5
1B6
330
21
100
AcDbEntity
  8
0
  6
Continuous
 62
     7
100
AcDbLine
 10
20.00000381469726
 20
-20.50000381469727
 30
0.0
 11
20.00000381469726
 21
-0.5825004577636719
 31
0.0
  0
LINE
  5
1B7
330
21
100
AcDbEntity
  8
0
  6
Continuous
 62
     7
100
AcDbLine
 10
20.00000381469726
 20
20.5
 30
0.0
 11
37.50001846113378
 21
20.5
 31
0.0
  0
LINE
  5
1B8
330
21
100
AcDbEntity
  8
0
  6
Continuous
 62
     7
100
AcDbLine
 10
13.00000381469726
 20
2.248466491699218
 30
0.0
 11
6.000003814697265
 21
2.248466491699218
 31
0.0
  0
LINE
  5
1B9
330
21
100
AcDbEntity
  8
0
  6
Continuous
 62
     7
100
AcDbLine
 10
13.00000381469726
 20
19.56897735595703
 30
0.0
 11
6.000003814697265
 21
19.56897735595703
 31
0.0
  0
LINE
  5
1BA
330
21
100
AcDbEntity
  8
0
  6
Continuous
 62
     7
100
AcDbLine
 10
8.000003814697265
 20
3.860988616943359
 30
0.0
 11
1.5
 21
3.860988616943359
 31
0.0
  0
LINE
  5
1BB
330
21
100
AcDbEntity
  8
0
  6
Continuous
 62
     7
100
AcDbLine
 10
8.000003814697265
 20
18.58341217041016
 30
0.0
 11
1.5
 21
18.58341217041016
 31
0.0
  0
LINE
  5
1BC
330
21
100
AcDbEntity
  8
0
  6
Continuous
 62
     7
100
AcDbLine
 10
8.000003814697265
 20
3.860988616943359
 30
0.0
 11
8.000003814697265
 21
18.58341217041016
 31
0.0
  0
LINE
  5
1BD
330
21
100
AcDbEntity
  8
0
  6
Continuous
 62
     7
100
AcDbLine
 10
6.000003814697265
 20
18.58341217041016
 30
0.0
 11
6.000003814697265
 21
19.56897735595703
 31
0.0
  0
LINE
  5
1BE
330
21
100
AcDbEntity
  8
0
  6
Continuous
 62
     7
100
AcDbLine
 10
4.500015258789063
 20
14.72219848632812
 30
0.0
 11
6.000015258789063
 21
14.72219848632812
 31
0.0
  0
LINE
  5
1BF
330
21
100
AcDbEntity
  8
0
  6
Continuous
 62
     7
100
AcDbLine
 10
4.500015258789063
 20
7.722217559814453
 30
0.0
 11
6.000015258789063
 21
7.722217559814453
 31
0.0
  0
LINE
  5
1C0
330
21
100
AcDbEntity
  8
0
  6
Continuous
 62
     7
100
AcDbLine
 10
1.5
 20
14.72219848632812
 30
0.0
 11
2.500007629394531
 21
14.72219848632812
 31
0.0
  0
LINE
  5
1C1
330
21
100
AcDbEntity
  8
0
  6
Continuous
 62
     7
100
AcDbLine
 10
1.5
 20
7.722217559814453
 30
0.0
 11
2.500015258789062
 21
7.722217559814453
 31
0.0
  0
LINE
  5
1C2
330
21
100
AcDbEntity
  8
0
  6
Continuous
 62
     7
100
AcDbLine
 10
6.000003814697265
 20
14.72219848632812
 30
0.0
 11
6.000003814697265
 21
7.722217559814453
 31
0.0
  0
LINE
  5
1C3
330
21
100
AcDbEntity
  8
0
  6
Continuous
 62
     7
100
AcDbLine
 10
1.0
 20
13.1310806274414
 30
0.0
 11
2.500007629394531
 21
13.1310806274414
 31
0.0
  0
LINE
  5
1C4
330
21
100
AcDbEntity
  8
0
  6
Continuous
 62
     7
100
AcDbLine
 10
4.500015258789063
 20
13.1310806274414
 30
0.0
 11
6.000015258789063
 21
13.1310806274414
 31
0.0
  0
LINE
  5
1C5
330
21
100
AcDbEntity
  8
0
  6
Continuous
 62
     7
100
AcDbLine
 10
4.500014360918385
 20
14.72220525000187
 30
0.0
 11
4.500014360918385
 21
13.13107976172062
 31
0.0
  0
LINE
  5
1C6
330
21
100
AcDbEntity
  8
0
  6
Continuous
 62
     7
100
AcDbLine
 10
2.500005273692707
 20
13.13107736002305
 30
0.0
 11
2.500005273692707
 21
14.7222028483043
 31
0.0
  0
LINE
  5
1C7
330
21
100
AcDbEntity
  8
0
  6
Continuous
 62
     7
100
AcDbLine
 10
1.5
 20
7.722217559814453
 30
0.0
 11
1.5
 21
-22.39999961853027
 31
0.0
  0
LINE
  5
1C8
330
21
100
AcDbEntity
  8
0
  6
Continuous
 62
     7
100
AcDbLine
 10
1.0
 20
7.068901062011719
 30
0.0
 11
1.0
 21
13.1310806274414
 31
0.0
  0
LINE
  5
1C9
330
21
100
AcDbEntity
  8
0
  6
Continuous
 62
     7
100
AcDbLine
 10
2.0
 20
-8.0
 30
0.0
 11
2.0
 21
-4.0
 31
0.0
  0
LINE
  5
1CA
330
21
100
AcDbEntity
  8
0
  6
Continuous
 62
     7
100
AcDbLine
 10
4.500003814697265
 20
-8.25
 30
0.0
 11
4.500003814697265
 21
-3.479408264160155
 31
0.0
  0
LINE
  5
1CB
330
21
100
AcDbEntity
  8
0
  6
Continuous
 62
     7
100
AcDbLine
 10
4.500003814697265
 20
-3.75
 30
0.0
 11
2.25
 21
-3.75
 31
0.0
  0
LINE
  5
1CC
330
21
100
AcDbEntity
  8
0
  6
Continuous
 62
     7
100
AcDbLine
 10
1.999999734602838
 20
-7.999999686281229
 30
0.0
 11
2.250000000000212
 21
-8.249999951678603
 31
0.0
  0
LINE
  5
1CD
330
21
100
AcDbEntity
  8
0
  6
Continuous
 62
     7
100
AcDbLine
 10
6.000003814697265
 20
-8.25
 30
0.0
 11
2.250000000000212
 21
-8.25
 31
0.0
  0
LINE
  5
1CE
330
21
100
AcDbEntity
  8
0
  6
Continuous
 62
     7
100
AcDbLine
 10
1.999999734602624
 20
-4.000000265397375
 30
0.0
 11
2.25
 21
-3.75
 31
0.0
  0
LINE
  5
1CF
330
21
100
AcDbEntity
  8
0
  6
Continuous
 62
     7
100
AcDbLine
 10
6.000003814697265
 20
-3.479408264160155
 30
0.0
 11
1.5
 21
-3.479408264160155
 31
0.0
  0
LINE
  5
1D0
330
21
100
AcDbEntity
  8
0
  6
Continuous
 62
     7
100
AcDbLine
 10
2.250000000000212
 20
-8.25
 30
0.0
 11
2.250000000000212
 21
-3.75
 31
0.0
  0
LINE
  5
1D1
330
21
100
AcDbEntity
  8
0
  6
Continuous
 62
     7
100
AcDbLine
 10
1.5
 20
-6.29998779296875
 30
0.0
 11
0.0
 21
-6.29998779296875
 31
0.0
  0
LINE
  5
1D2
330
21
100
AcDbEntity
  8
0
  6
Continuous
 62
     7
100
AcDbLine
 10
1.5
 20
-5.5
 30
0.0
 11
1.0
 21
-5.5
 31
0.0
  0
LINE
  5
1D3
330
21
100
AcDbEntity
  8
0
  6
Continuous
 62
     7
100
AcDbLine
 10
1.0
 20
-20.19999313354492
 30
0.0
 11
1.0
 21
-19.39999771118164
 31
0.0
  0
LINE
  5
1D4
330
21
100
AcDbEntity
  8
0
  6
Continuous
 62
     7
100
AcDbLine
 10
1.0
 20
-6.29998779296875
 30
0.0
 11
1.0
 21
-5.5
 31
0.0
  0
LINE
  5
1D5
330
21
100
AcDbEntity
  8
0
  6
Continuous
 62
     7
100
AcDbLine
 10
1.5
 20
-0.2810897827148438
 30
0.0
 11
1.0
 21
-0.2810897827148438
 31
0.0
  0
LINE
  5
1D6
330
21
100
AcDbEntity
  8
0
  6
Continuous
 62
     7
100
AcDbLine
 10
1.5
 20
0.1189041137695313
 30
0.0
 11
0.0
 21
0.1189041137695313
 31
0.0
  0
LINE
  5
1D7
330
21
100
AcDbEntity
  8
0
  6
Continuous
 62
     7
100
AcDbLine
 10
1.5
 20
6.668907165527343
 30
0.0
 11
0.0
 21
6.668907165527343
 31
0.0
  0
LINE
  5
1D8
330
21
100
AcDbEntity
  8
0
  6
Continuous
 62
     7
100
AcDbLine
 10
1.5
 20
7.068901062011719
 30
0.0
 11
1.0
 21
7.068901062011719
 31
0.0
  0
LINE
  5
1D9
330
21
100
AcDbEntity
  8
0
  6
Continuous
 62
     7
100
AcDbLine
 10
0.0
 20
0.1189041137695313
 30
0.0
 11
0.0
 21
12.73108673095703
 31
0.0
  0
LINE
  5
1DA
330
21
100
AcDbEntity
  8
0
  6
Continuous
 62
     7
100
AcDbLine
 10
1.0
 20
-0.2810897827148438
 30
0.0
 11
1.0
 21
0.1189041137695313
 31
0.0
  0
LINE
  5
1DB
330
21
100
AcDbEntity
  8
0
  6
Continuous
 62
     7
100
AcDbLine
 10
1.0
 20
12.73108673095703
 30
0.0
 11
0.0
 21
12.73108673095703
 31
0.0
  0
LINE
  5
1DC
330
21
100
AcDbEntity
  8
0
  6
Continuous
 62
     7
100
AcDbLine
 10
14.00000381469726
 20
-0.5825004577636719
 30
0.0
 11
14.00000381469726
 21
18.56897735595703
 31
0.0
  0
LINE
  5
1DD
330
21
100
AcDbEntity
  8
0
  6
Continuous
 62
     7
100
AcDbLine
 10
14.00000381469726
 20
-21.81744384765625
 30
0.0
 11
6.000003814697265
 21
-21.81744384765625
 31
0.0
  0
LINE
  5
1DE
330
21
100
AcDbEntity
  8
0
  6
Continuous
 62
     7
100
AcDbLine
 10
14.00000381469726
 20
-23.0
 30
0.0
 11
13.00000381469726
 21
-24.0
 31
0.0
  0
LINE
  5
1DF
330
21
100
AcDbEntity
  8
0
  6
Continuous
 62
     7
100
AcDbLine
 10
13.00000381469726
 20
-24.0
 30
0.0
 11
13.00000381469726
 21
-21.81744384765625
 31
0.0
  0
LINE
  5
1E0
330
21
100
AcDbEntity
  8
0
  6
Continuous
 62
     7
100
AcDbLine
 10
14.00000381469726
 20
18.56897758246361
 30
0.0
 11
13.00000404120385
 21
19.56897735595703
 31
0.0
  0
LINE
  5
1E1
330
21
100
AcDbEntity
  8
0
  6
Continuous
 62
     7
100
AcDbLine
 10
13.00000381469726
 20
2.248466491699218
 30
0.0
 11
13.00000381469726
 21
19.56897735595703
 31
0.0
  0
LINE
  5
1E2
330
21
100
AcDbEntity
  8
0
  6
Continuous
 62
     7
100
AcDbLine
 10
20.00000381469726
 20
-0.5825004577636719
 30
0.0
 11
14.00000381469726
 21
-0.5825004577636719
 31
0.0
  0
LINE
  5
1E3
330
21
100
AcDbEntity
  8
0
  6
Continuous
 62
     7
100
AcDbLine
 10
13.00000381473742
 20
2.248466491739378
 30
0.0
 11
14.00000661704476
 21
1.248463689432043
 31
0.0
  0
LINE
  5
1E4
330
21
100
AcDbEntity
  8
0
  6
Continuous
 62
     7
100
AcDbLine
 10
20.00000381469726
 20
16.73799896240234
 30
0.0
 11
14.00000381469726
 21
16.73799896240234
 31
0.0
  0
LINE
  5
1E5
330
21
100
AcDbEntity
  8
0
  6
Continuous
 62
     7
100
AcDbLine
 10
20.00000381469726
 20
16.73799896240234
 30
0.0
 11
20.00000381469726
 21
20.5
 31
0.0
  0
LINE
  5
1E6
330
21
100
AcDbEntity
  8
0
  6
Continuous
 62
     7
100
AcDbLine
 10
-1.699996948242187
 20
-8.5
 30
0.0
 11
-2.0
 21
-8.80000305175781
 31
0.0
  0
LINE
  5
1E7
330
21
100
AcDbEntity
  8
0
  6
Continuous
 62
     7
100
AcDbLine
 10
-1.699996948242187
 20
-8.5
 30
0.0
 11
0.0
 21
-8.5
 31
0.0
  0
LINE
  5
1E8
330
21
100
AcDbEntity
  8
0
  6
Continuous
 62
     7
100
AcDbLine
 10
-1.699996948242187
 20
-11.5
 30
0.0
 11
0.0
 21
-11.5
 31
0.0
  0
LINE
  5
1E9
330
21
100
AcDbEntity
  8
0
  6
Continuous
 62
     7
100
AcDbLine
 10
-1.699996948242187
 20
-11.5
 30
0.0
 11
-2.0
 21
-11.19999694824217
 31
0.0
  0
LINE
  5
1EA
330
21
100
AcDbEntity
  8
0
  6
Continuous
 62
     7
100
AcDbLine
 10
-1.699996948242187
 20
-11.5
 30
0.0
 11
-1.699996948242187
 21
-8.5
 31
0.0
  0
LINE
  5
1EB
330
21
100
AcDbEntity
  8
0
  6
Continuous
 62
     7
100
AcDbLine
 10
-2.0
 20
-8.80000305175781
 30
0.0
 11
-2.0
 21
-11.19999694824217
 31
0.0
  0
LINE
  5
1EC
330
21
100
AcDbEntity
  8
0
  6
Continuous
 62
     7
100
AcDbLine
 10
-1.699996948242187
 20
6.5
 30
0.0
 11
-2.0
 21
6.199996948242188
 31
0.0
  0
LINE
  5
1ED
330
21
100
AcDbEntity
  8
0
  6
Continuous
 62
     7
100
AcDbLine
 10
-1.699996948242187
 20
3.5
 30
0.0
 11
-2.0
 21
3.800003051757812
 31
0.0
  0
LINE
  5
1EE
330
21
100
AcDbEntity
  8
0
  6
Continuous
 62
     7
100
AcDbLine
 10
-2.0
 20
6.199996948242188
 30
0.0
 11
-2.0
 21
3.800003051757812
 31
0.0
  0
LINE
  5
1EF
330
21
100
AcDbEntity
  8
0
  6
Continuous
 62
     7
100
AcDbLine
 10
-1.699996948242187
 20
3.5
 30
0.0
 11
-1.699996948242187
 21
6.5
 31
0.0
  0
LINE
  5
1F0
330
21
100
AcDbEntity
  8
0
  6
Continuous
 62
     7
100
AcDbLine
 10
-1.699996948242187
 20
3.5
 30
0.0
 11
0.0
 21
3.5
 31
0.0
  0
LINE
  5
1F1
330
21
100
AcDbEntity
  8
0
  6
Continuous
 62
     2
100
AcDbLine
 10
-3.746566772460937
 20
5.0
 30
0.0
 11
1.5
 21
5.0
 31
0.0
  0
LINE
  5
1F2
330
21
100
AcDbEntity
  8
0
  6
Continuous
 62
     7
100
AcDbLine
 10
-1.699996948242187
 20
6.5
 30
0.0
 11
0.0
 21
6.5
 31
0.0
  0
LINE
  5
1F3
330
21
100
AcDbEntity
  8
0
  6
Continuous
 62
     7
100
AcDbLine
 10
32.00001525878907
 20
-20.18510818481445
 30
0.0
 11
20.00000381469726
 21
-20.18510818481445
 31
0.0
  0
LINE
  5
1F4
330
21
100
AcDbEntity
  8
0
  6
Continuous
 62
     7
100
AcDbLine
 10
32.00001525878907
 20
-18.295654296875
 30
0.0
 11
20.00000381469726
 21
-18.295654296875
 31
0.0
  0
LINE
  5
1F5
330
21
100
AcDbEntity
  8
0
  6
Continuous
 62
     7
100
AcDbLine
 10
32.00001525878907
 20
1.139129638671875
 30
0.0
 11
14.00000381469726
 21
1.139129638671875
 31
0.0
  0
LINE
  5
1F6
330
21
100
AcDbEntity
  8
0
  6
Continuous
 62
     7
100
AcDbLine
 10
32.00001525878907
 20
6.992809295654296
 30
0.0
 11
14.00000381469726
 21
6.992809295654296
 31
0.0
  0
LINE
  5
1F7
330
21
100
AcDbEntity
  8
0
  6
Continuous
 62
     7
100
AcDbLine
 10
32.00001525878907
 20
13.19229888916015
 30
0.0
 11
14.00000381469726
 21
13.19229888916015
 31
0.0
  0
LINE
  5
1F8
330
21
100
AcDbEntity
  8
0
  6
Continuous
 62
     7
100
AcDbLine
 10
32.00001525878907
 20
17.15652465820312
 30
0.0
 11
20.00000381469726
 21
17.15652465820312
 31
0.0
  0
LINE
  5
1F9
330
21
100
AcDbEntity
  8
0
  6
Continuous
 62
     2
100
AcDbLine
 10
16.00001525878906
 20
-14.75000381469726
 30
0.0
 11
16.00001525878906
 21
-8.250003814697265
 31
0.0
  0
LINE
  5
1FA
330
21
100
AcDbEntity
  8
0
  6
Continuous
 62
     2
100
AcDbLine
 10
19.25001525878906
 20
-11.50000381469726
 30
0.0
 11
12.75001525878906
 21
-11.50000381469726
 31
0.0
  0
LINE
  5
1FB
330
21
100
AcDbEntity
  8
0
  6
Continuous
 62
     2
100
AcDbLine
 10
19.25001525878906
 20
-2.935844421386718
 30
0.0
 11
12.75001525878906
 21
-2.935844421386718
 31
0.0
  0
LINE
  5
1FC
330
21
100
AcDbEntity
  8
0
  6
Continuous
 62
     2
100
AcDbLine
 10
16.00001525878906
 20
-5.586433410644531
 30
0.0
 11
16.00001525878906
 21
-0.2852516174316406
 31
0.0
  0
LINE
  5
1FD
330
21
100
AcDbEntity
  8
0
  6
Continuous
 62
     7
100
AcDbLine
 10
38.00001525878906
 20
7.532760620117187
 30
0.0
 11
34.50001525878907
 21
7.532760620117187
 31
0.0
  0
LINE
  5
1FE
330
21
100
AcDbEntity
  8
0
  6
Continuous
 62
     2
100
AcDbLine
 10
-3.746566772460937
 20
-10.0
 30
0.0
 11
5.751480102539063
 21
-9.999996185302734
 31
0.0
  0
ENDBLK
  5
1FF
330
21
100
AcDbEntity
  8
0
100
AcDbBlockEnd
  0
BLOCK
  5
23
330
22
100
AcDbEntity
  8
0
 62
     0
100
AcDbBlockBegin
  2
_OPEN30
 70
     2
 10
0.0
 20
0.0
 30
0.0
  3
_OPEN30
  1

  0
LINE
  5
24
330
22
100
AcDbEntity
  8
0
  6
ByBlock
 62
     0
100
AcDbLine
 10
-1.0
 20
0.267949
 30
0.0
 11
0.0
 21
0.0
 31
0.0
  0
LINE
  5
25
330
22
100
AcDbEntity
  8
0
  6
ByBlock
 62
     0
100
AcDbLine
 10
0.0
 20
0.0
 30
0.0
 11
-1.0
 21
-0.267949
 31
0.0
  0
LINE
  5
26
330
22
100
AcDbEntity
  8
0
  6
ByBlock
 62
     0
100
AcDbLine
 10
0.0
 20
0.0
 30
0.0
 11
-1.0
 21
0.0
 31
0.0
  0
ENDBLK
  5
27
330
22
100
AcDbEntity
  8
0
 62
     0
100
AcDbBlockEnd
  0
ENDSEC
  0
SECTION
  2
ENTITIES
  0
INSERT
  5
200
330
A
100
AcDbEntity
  8
0
  6
ByBlock
100
AcDbBlockReference
  2
NHE2-16-4
 10
-40.0
 20
70.0
 30
0.0
  0
INSERT
  5
201
330
A
100
AcDbEntity
  8
0
  6
ByBlock
100
AcDbBlockReference
  2
NHE2-16-3
 10
110.0
 20
-30.0
 30
0.0
  0
INSERT
  5
203
330
A
100
AcDbEntity
  8
0
  6
ByBlock
100
AcDbBlockReference
  2
NHE2-16-1
 10
-40.0
 20
-30.0
 30
0.0
  0
MTEXT
  5
204
330
A
100
AcDbEntity
  8
0
  6
Continuous
 62
     7
100
AcDbMText
 10
-158.7211538479394
 20
95.60000610351563
 30
0.0
 40
4.5
 41
0.0
 71
     4
 72
     5
  1
\W1.038;\A1;NHE2-16-H
 73
     1
 44
1.0
1001
ACAD
1000
MTEXTBEGIN
1070
    73
1070
     1
1070
    44
1040
1.0
1070
    74
1070
     0
1000
MTEXTEND
  0
MTEXT
  5
205
330
A
100
AcDbEntity
  8
0
  6
Continuous
 62
     7
100
AcDbMText
 10
-158.7211538479394
 20
101.6000061035156
 30
0.0
 40
4.5
 41
0.0
 71
     4
 72
     5
  1
\W1.038;\A1;NHE2-16-M
 73
     1
 44
1.0
1001
ACAD
1000
MTEXTBEGIN
1070
    73
1070
     1
1070
    44
1040
1.0
1070
    74
1070
     0
1000
MTEXTEND
  0
MTEXT
  5
206
330
A
100
AcDbEntity
  8
0
  6
Continuous
 62
   255
100
AcDbMText
 10
-191.4334593338748
 20
128.8500061035156
 30
0.0
 40
4.5
 41
0.0
 71
     4
 72
     5
  1
\W1.089;\A1;3 FINGERS GRIPPERS
 73
     1
 44
1.0
1001
ACAD
1000
MTEXTBEGIN
1070
    73
1070
     1
1070
    44
1040
1.0
1070
    74
1070
     0
1000
MTEXTEND
  0
MTEXT
  5
207
330
A
100
AcDbEntity
  8
0
  6
Continuous
 62
   255
100
AcDbMText
 10
-166.7124968313799
 20
121.3500061035156
 30
0.0
 40
4.5
 41
0.0
 71
     4
 72
     5
  1
\W1.050;\A1;NHE2-16
 73
     1
 44
1.0
1001
ACAD
1000
MTEXTBEGIN
1070
    73
1070
     1
1070
    44
1040
1.0
1070
    74
1070
     0
1000
MTEXTEND
  0
MTEXT
  5
208
330
A
100
AcDbEntity
  8
0
  6
Continuous
 62
     7
100
AcDbMText
 10
-185.6964285731392
 20
107.6000061035156
 30
0.0
 40
4.5
 41
0.0
 71
     4
 72
     5
  1
\W1.071;\A1;MODEL:NHE2-16-L
 73
     1
 44
1.0
1001
ACAD
1000
MTEXTBEGIN
1070
    73
1070
     1
1070
    44
1040
1.0
1070
    74
1070
     0
1000
MTEXTEND
  0
LINE
  5
209
330
A
100
AcDbEntity
  8
0
  6
Continuous
 62
     7
100
AcDbLine
 10
-194.25
 20
132.6000061035156
 30
0.0
 11
194.8000030517578
 21
132.6000061035156
 31
0.0
  0
LINE
  5
20A
330
A
100
AcDbEntity
  8
0
  6
Continuous
 62
     7
100
AcDbLine
 10
194.8000030517578
 20
132.6000061035156
 30
0.0
 11
194.8000030517578
 21
-133.5
 31
0.0
  0
LINE
  5
20B
330
A
100
AcDbEntity
  8
0
  6
Continuous
 62
     7
100
AcDbLine
 10
-194.25
 20
132.6000061035156
 30
0.0
 11
-194.25
 21
-133.5
 31
0.0
  0
LINE
  5
20C
330
A
100
AcDbEntity
  8
0
  6
Continuous
 62
     7
100
AcDbLine
 10
-194.25
 20
-133.5
 30
0.0
 11
194.8000030517578
 21
-133.5
 31
0.0
  0
LINE
  5
20D
330
A
100
AcDbEntity
  8
0
  6
Continuous
 62
     7
100
AcDbLine
 10
109.8000030517578
 20
-118.5
 30
0.0
 11
109.8000030517578
 21
-133.5
 31
0.0
  0
LINE
  5
20E
330
A
100
AcDbEntity
  8
0
  6
Continuous
 62
     7
100
AcDbLine
 10
109.8000030517578
 20
-118.5
 30
0.0
 11
194.8000030517578
 21
-118.5
 31
0.0
  0
LINE
  5
20F
330
A
100
AcDbEntity
  8
0
  6
Continuous
 62
     7
100
AcDbLine
 10
109.8000030517578
 20
132.6000061035156
 30
0.0
 11
109.8000030517578
 21
117.6000061035156
 31
0.0
  0
LINE
  5
210
330
A
100
AcDbEntity
  8
0
  6
Continuous
 62
     7
100
AcDbLine
 10
109.8000030517578
 20
117.6000061035156
 30
0.0
 11
194.8000030517578
 21
117.6000061035156
 31
0.0
  0
LINE
  5
211
330
A
100
AcDbEntity
  8
0
  6
Continuous
 62
     7
100
AcDbLine
 10
-194.25
 20
117.6000061035156
 30
0.0
 11
-109.25
 21
117.6000061035156
 31
0.0
  0
LINE
  5
212
330
A
100
AcDbEntity
  8
0
  6
Continuous
 62
     7
100
AcDbLine
 10
-109.25
 20
132.6000061035156
 30
0.0
 11
-109.25
 21
117.6000061035156
 31
0.0
  0
MTEXT
  5
213
330
A
100
AcDbEntity
  8
0
  6
Continuous
 62
     7
100
AcDbMText
 10
135.2836132057677
 20
125.1000061035156
 30
0.0
 40
4.5
 41
0.0
 71
     4
 72
     5
  1
\W1.311;\A1;Ver. 1.0
 73
     1
 44
1.0
1001
ACAD
1000
MTEXTBEGIN
1070
    73
1070
     1
1070
    44
1040
1.0
1070
    74
1070
     0
1000
MTEXTEND
  0
MTEXT
  5
214
330
A
100
AcDbEntity
  8
0
  6
Continuous
 62
     7
100
AcDbMText
 10
115.5267199617605
 20
-126.0
 30
0.0
 40
6.300000190734863
 41
0.0
 71
     4
 72
     5
  1
\W1.121;\A1;KOGANEI CORP.
 73
     1
 44
1.0
1001
ACAD
1000
MTEXTBEGIN
1070
    73
1070
     1
1070
    44
1040
1.0
1070
    74
1070
     0
1000
MTEXTEND
  0
ARC
  5
227
102
{ACAD_REACTORS
330
2B0
102
}
330
A
100
AcDbEntity
  8
0
  6
Continuous
 62
     7
100
AcDbCircle
 10
-110.0000191667811
 20
-29.99996932083057
 30
0.0
 40
24.0
100
AcDbArc
 50
95.37567913944045
 51
144.6243151367481
  0
CIRCLE
  5
228
102
{ACAD_REACTORS
330
2B0
102
}
330
A
100
AcDbEntity
  8
0
  6
Continuous
 62
     7
100
AcDbCircle
 10
-110.0000003731791
 20
-30.0
 30
0.0
 40
3.0
  0
CIRCLE
  5
229
102
{ACAD_REACTORS
330
2B0
102
}
330
A
100
AcDbEntity
  8
0
  6
Continuous
 62
     7
100
AcDbCircle
 10
-100.0000003731791
 20
-30.0
 30
0.0
 40
1.5
  0
CIRCLE
  5
22A
102
{ACAD_REACTORS
330
2B0
102
}
330
A
100
AcDbEntity
  8
0
  6
Continuous
 62
     7
100
AcDbCircle
 10
-95.00000037317914
 20
-30.0
 30
0.0
 40
1.200000047683715
  0
ARC
  5
22B
102
{ACAD_REACTORS
330
2B0
102
}
330
A
100
AcDbEntity
  8
0
  6
Continuous
 62
     7
100
AcDbCircle
 10
-126.5366214669291
 20
-27.35773086547852
 30
0.0
 40
3.0
100
AcDbArc
 50
329.9968051272892
 51
30.00000044529225
  0
ARC
  5
22C
102
{ACAD_REACTORS
330
2B0
102
}
330
A
100
AcDbEntity
  8
0
  6
Continuous
 62
     7
100
AcDbCircle
 10
-110.0000000932948
 20
-29.9999998384087
 30
0.0
 40
24.0
100
AcDbArc
 50
335.3756812234731
 51
24.62431792780136
  0
ARC
  5
22D
102
{ACAD_REACTORS
330
2B0
102
}
330
A
100
AcDbEntity
  8
0
  6
Continuous
 62
     7
100
AcDbCircle
 10
-117.6387828743998
 20
-34.25
 30
0.0
 40
2.0
100
AcDbArc
 50
59.99999734394095
 51
90.00000500895614
  0
ARC
  5
22E
102
{ACAD_REACTORS
330
2B0
102
}
330
A
100
AcDbEntity
  8
0
  6
Continuous
 62
     7
100
AcDbCircle
 10
-104.0199588692729
 20
-45.64226531982422
 30
0.0
 40
3.0
100
AcDbArc
 50
89.78216721020285
 51
150.0000066786086
  0
CIRCLE
  5
22F
102
{ACAD_REACTORS
330
2B0
102
}
330
A
100
AcDbEntity
  8
0
  6
Continuous
 62
     7
100
AcDbCircle
 10
-95.00000037317914
 20
-30.0
 30
0.0
 40
1.5
  0
ARC
  5
230
102
{ACAD_REACTORS
330
2B0
102
}
330
A
100
AcDbEntity
  8
0
  6
Continuous
 62
     7
100
AcDbCircle
 10
-110.0000382402674
 20
-29.9999998384087
 30
0.0
 40
24.0
100
AcDbArc
 50
215.3757647927128
 51
264.6244007900758
  0
CIRCLE
  5
231
102
{ACAD_REACTORS
330
2B0
102
}
330
A
100
AcDbEntity
  8
0
  6
Continuous
 62
     7
100
AcDbCircle
 10
-122.0000592835611
 20
-30.0
 30
0.0
 40
2.25
  0
CIRCLE
  5
232
102
{ACAD_REACTORS
330
2B0
102
}
330
A
100
AcDbEntity
  8
0
  6
Continuous
 62
     7
100
AcDbCircle
 10
-103.9999989576759
 20
-40.39230646424792
 30
0.0
 40
2.25
  0
ARC
  5
233
102
{ACAD_REACTORS
330
2B0
102
}
330
A
100
AcDbEntity
  8
0
  6
Continuous
 62
     7
100
AcDbCircle
 10
-126.5366214669291
 20
-32.64226531982422
 30
0.0
 40
3.0
100
AcDbArc
 50
330.0000016696523
 51
29.99901069409581
  0
ARC
  5
234
102
{ACAD_REACTORS
330
2B0
102
}
330
A
100
AcDbEntity
  8
0
  6
Continuous
 62
     7
100
AcDbCircle
 10
-99.44342078333539
 20
-43.0
 30
0.0
 40
3.0
100
AcDbArc
 50
89.99999499104387
 51
150.2178363578008
  0
ARC
  5
235
102
{ACAD_REACTORS
330
2B0
102
}
330
A
100
AcDbEntity
  8
0
  6
Continuous
 62
     7
100
AcDbCircle
 10
-99.44342078333539
 20
-17.0
 30
0.0
 40
3.0
100
AcDbArc
 50
209.7821636421991
 51
270.0
  0
ARC
  5
236
102
{ACAD_REACTORS
330
2B0
102
}
330
A
100
AcDbEntity
  8
0
  6
Continuous
 62
     7
100
AcDbCircle
 10
-104.0199588692729
 20
-14.35773086547851
 30
0.0
 40
3.0
100
AcDbArc
 50
210.0000346429736
 51
270.2178326315177
  0
CIRCLE
  5
237
102
{ACAD_REACTORS
330
2B0
102
}
330
A
100
AcDbEntity
  8
0
  6
Continuous
 62
     7
100
AcDbCircle
 10
-103.999998957676
 20
-19.60769353575208
 30
0.0
 40
2.25
  0
ARC
  5
238
102
{ACAD_REACTORS
330
2B0
102
}
330
A
100
AcDbEntity
  8
0
  6
Continuous
 62
     7
100
AcDbCircle
 10
-109.8612178719584
 20
-21.25961685180664
 30
0.0
 40
2.0
100
AcDbArc
 50
300.0000008348258
 51
330.0000016696523
  0
ARC
  5
239
102
{ACAD_REACTORS
330
2B0
102
}
330
A
100
AcDbEntity
  8
0
  6
Continuous
 62
     7
100
AcDbCircle
 10
-109.8612178719584
 20
-38.7403793334961
 30
0.0
 40
2.0
100
AcDbArc
 50
30.00000333930425
 51
59.99999734394095
  0
ARC
  5
23A
102
{ACAD_REACTORS
330
2B0
102
}
330
A
100
AcDbEntity
  8
0
  6
Continuous
 62
     7
100
AcDbCircle
 10
-102.5000003731791
 20
-25.50961685180664
 30
0.0
 40
2.0
100
AcDbArc
 50
149.9999966606959
 51
179.9999974955217
  0
ARC
  5
23B
102
{ACAD_REACTORS
330
2B0
102
}
330
A
100
AcDbEntity
  8
0
  6
Continuous
 62
     7
100
AcDbCircle
 10
-102.5000003731791
 20
-34.4903793334961
 30
0.0
 40
2.0
100
AcDbArc
 50
179.9999974955217
 51
209.9999983303477
  0
ARC
  5
23C
102
{ACAD_REACTORS
330
2B0
102
}
330
A
100
AcDbEntity
  8
0
  6
Continuous
 62
     7
100
AcDbCircle
 10
-117.6387844519906
 20
-25.74999972565468
 30
0.0
 40
2.0
100
AcDbArc
 50
270.0
 51
300.0000008348258
  0
CIRCLE
  5
23D
102
{ACAD_REACTORS
330
2B0
102
}
330
A
100
AcDbEntity
  8
0
  6
Continuous
 62
     7
100
AcDbCircle
 10
-103.999998957676
 20
-19.60769353575208
 30
0.0
 40
1.154700517654418
  0
CIRCLE
  5
23E
102
{ACAD_REACTORS
330
2B0
102
}
330
A
100
AcDbEntity
  8
0
  6
Continuous
 62
     7
100
AcDbCircle
 10
-122.0000592835611
 20
-30.0
 30
0.0
 40
1.154700517654418
  0
CIRCLE
  5
23F
102
{ACAD_REACTORS
330
2B0
102
}
330
A
100
AcDbEntity
  8
0
  6
Continuous
 62
     7
100
AcDbCircle
 10
-103.9999989576759
 20
-40.39230646424792
 30
0.0
 40
1.154700517654418
  0
CIRCLE
  5
240
102
{ACAD_REACTORS
330
2B0
102
}
330
A
100
AcDbEntity
  8
0
  6
Continuous
 62
     7
100
AcDbCircle
 10
-117.5000007560188
 20
-42.99038213307517
 30
0.0
 40
1.200000047683715
  0
CIRCLE
  5
241
102
{ACAD_REACTORS
330
2B0
102
}
330
A
100
AcDbEntity
  8
0
  6
Continuous
 62
     7
100
AcDbCircle
 10
-117.5000007560188
 20
-42.99038213307517
 30
0.0
 40
1.5
  0
CIRCLE
  5
242
102
{ACAD_REACTORS
330
2B0
102
}
330
A
100
AcDbEntity
  8
0
  6
Continuous
 62
     7
100
AcDbCircle
 10
-114.9999998023445
 20
-38.66025354005877
 30
0.0
 40
1.5
  0
ARC
  5
243
102
{ACAD_REACTORS
330
2B0
102
}
330
A
100
AcDbEntity
  8
0
  6
Continuous
 62
     7
100
AcDbCircle
 10
-104.0000003731791
 20
-40.39230346679687
 30
0.0
 40
2.5
100
AcDbArc
 50
55.8419491476197
 51
184.1580804363514
  0
ARC
  5
245
102
{ACAD_REACTORS
330
2B0
102
}
330
A
100
AcDbEntity
  8
0
  6
Continuous
 62
     2
100
AcDbCircle
 10
-110.0000003731791
 20
-30.00001907348633
 30
0.0
 40
17.5
100
AcDbArc
 50
43.57361095611388
 51
76.42645203366043
  0
ARC
  5
246
102
{ACAD_REACTORS
330
2B0
102
}
330
A
100
AcDbEntity
  8
0
  6
Continuous
 62
     7
100
AcDbCircle
 10
-110.0000000932948
 20
-29.9999998384087
 30
0.0
 40
20.5
100
AcDbArc
 50
29.19645890420897
 51
90.80356310442992
  0
ARC
  5
247
102
{ACAD_REACTORS
330
2B0
102
}
330
A
100
AcDbEntity
  8
0
  6
Continuous
 62
     2
100
AcDbCircle
 10
-109.9999812996928
 20
-29.99999237060547
 30
0.0
 40
17.5
100
AcDbArc
 50
163.5736111076946
 51
196.4264521852407
  0
ARC
  5
249
102
{ACAD_REACTORS
330
2B0
102
}
330
A
100
AcDbEntity
  8
0
  6
Continuous
 62
     7
100
AcDbCircle
 10
-109.9999810198085
 20
-29.99997313552784
 30
0.0
 40
20.5
100
AcDbArc
 50
149.196500056802
 51
210.8035811442425
  0
ARC
  5
24B
102
{ACAD_REACTORS
330
2B0
102
}
330
A
100
AcDbEntity
  8
0
  6
Continuous
 62
     2
100
AcDbCircle
 10
-110.0000156319682
 20
-29.99998855590821
 30
0.0
 40
17.5
100
AcDbArc
 50
283.5736093243573
 51
316.4264521094505
  0
ARC
  5
24C
102
{ACAD_REACTORS
330
2B0
102
}
330
A
100
AcDbEntity
  8
0
  6
Continuous
 62
     7
100
AcDbCircle
 10
-110.0000153520838
 20
-29.99996932083057
 30
0.0
 40
20.5
100
AcDbArc
 50
269.1964904026714
 51
330.8035665953149
  0
LINE
  5
24D
102
{ACAD_REACTORS
330
2B0
102
}
330
A
100
AcDbEntity
  8
0
  6
Continuous
 62
     7
100
AcDbLine
 10
-116.0408861730182
 20
-27.13685379471514
 30
0.0
 11
-124.4908831212604
 21
-12.50103001924482
 31
0.0
  0
LINE
  5
24E
102
{ACAD_REACTORS
330
2B0
102
}
330
A
100
AcDbEntity
  8
0
  6
Continuous
 62
     7
100
AcDbLine
 10
-106.618037969721
 20
-44.14226649601092
 30
0.0
 11
-112.2484619374206
 21
-53.89444670118583
 31
0.0
  0
LINE
  5
24F
102
{ACAD_REACTORS
330
2B0
102
}
330
A
100
AcDbEntity
  8
0
  6
Continuous
 62
     7
100
AcDbLine
 10
-87.60000647669476
 20
-38.0
 30
0.0
 11
-87.60000647669476
 21
-21.99999986084094
 31
0.0
  0
LINE
  5
250
102
{ACAD_REACTORS
330
2B0
102
}
330
A
100
AcDbEntity
  8
0
  6
Continuous
 62
     7
100
AcDbLine
 10
-104.5000003731791
 20
-26.20001220703125
 30
0.0
 11
-87.60000647669476
 21
-26.20001220703125
 31
0.0
  0
LINE
  5
251
102
{ACAD_REACTORS
330
2B0
102
}
330
A
100
AcDbEntity
  8
0
  6
Continuous
 62
     7
100
AcDbLine
 10
-104.5000003731791
 20
-33.5
 30
0.0
 11
-89.80001868372601
 21
-33.5
 31
0.0
  0
LINE
  5
252
102
{ACAD_REACTORS
330
2B0
102
}
330
A
100
AcDbEntity
  8
0
  6
Continuous
 62
     7
100
AcDbLine
 10
-104.5000003731791
 20
-26.5
 30
0.0
 11
-89.80001868372601
 21
-26.5
 31
0.0
  0
LINE
  5
253
102
{ACAD_REACTORS
330
2B0
102
}
330
A
100
AcDbEntity
  8
0
  6
Continuous
 62
     7
100
AcDbLine
 10
-123.9385439466321
 20
-25.85773359576568
 30
0.0
 11
-129.5689845395106
 21
-16.10552459493691
 31
0.0
  0
LINE
  5
254
102
{ACAD_REACTORS
330
2B0
102
}
330
A
100
AcDbEntity
  8
0
  6
Continuous
 62
     2
100
AcDbLine
 10
-95.00000037317914
 20
-32.08250427246094
 30
0.0
 11
-95.00000037317914
 21
-27.97000122070313
 31
0.0
  0
LINE
  5
255
102
{ACAD_REACTORS
330
2B0
102
}
330
A
100
AcDbEntity
  8
0
  6
Continuous
 62
     7
100
AcDbLine
 10
-106.3915617174063
 20
-19.24999878693229
 30
0.0
 11
-113.8609900541166
 21
-6.312569636459389
 31
0.0
  0
LINE
  5
256
102
{ACAD_REACTORS
330
2B0
102
}
330
A
100
AcDbEntity
  8
0
  6
Continuous
 62
     7
100
AcDbLine
 10
-114.2717904528458
 20
-6.60103401036747
 30
0.0
 11
-113.5887835105634
 21
-6.784045191584052
 31
0.0
  0
LINE
  5
257
102
{ACAD_REACTORS
330
2B0
102
}
330
A
100
AcDbEntity
  8
0
  6
Continuous
 62
     7
100
AcDbLine
 10
-104.5000003731791
 20
-34.4903793334961
 30
0.0
 11
-104.5000003731791
 21
-25.50961685180664
 31
0.0
  0
LINE
  5
258
102
{ACAD_REACTORS
330
2B0
102
}
330
A
100
AcDbEntity
  8
0
  6
CENTER
 62
     2
100
AcDbLine
 10
-132.4999810197909
 20
-30.0
 30
0.0
 11
-81.43249549036664
 21
-30.0
 31
0.0
  0
LINE
  5
259
102
{ACAD_REACTORS
330
2B0
102
}
330
A
100
AcDbEntity
  8
0
  6
Continuous
 62
     7
100
AcDbLine
 10
-109.4591011510872
 20
-23.33685837235184
 30
0.0
 11
-117.9090980993294
 21
-8.701034596881555
 31
0.0
  0
LINE
  5
25A
102
{ACAD_REACTORS
330
2B0
102
}
330
A
100
AcDbEntity
  8
0
  6
Continuous
 62
     7
100
AcDbLine
 10
-116.0409002217478
 20
-32.86313701585469
 30
0.0
 11
-124.4908981236643
 21
-47.49896244313728
 31
0.0
  0
LINE
  5
25B
102
{ACAD_REACTORS
330
2B0
102
}
330
A
100
AcDbEntity
  8
0
  6
Continuous
 62
     7
100
AcDbLine
 10
-106.3915661222393
 20
-40.7499905787075
 30
0.0
 11
-113.8609850578827
 21
-53.68740344605525
 31
0.0
  0
LINE
  5
25C
102
{ACAD_REACTORS
330
2B0
102
}
330
A
100
AcDbEntity
  8
0
  6
Continuous
 62
     7
100
AcDbLine
 10
-89.80001868372601
 20
-33.5
 30
0.0
 11
-89.80001868372601
 21
-26.5
 31
0.0
  0
LINE
  5
25D
102
{ACAD_REACTORS
330
2B0
102
}
330
A
100
AcDbEntity
  8
0
  6
Continuous
 62
     7
100
AcDbLine
 10
-103.7000125802103
 20
-33.5
 30
0.0
 11
-103.7000125802103
 21
-26.5
 31
0.0
  0
LINE
  5
25E
102
{ACAD_REACTORS
330
2B0
102
}
330
A
100
AcDbEntity
  8
0
  6
Continuous
 62
     7
100
AcDbLine
 10
-128.311208941051
 20
-15.28404061886669
 30
0.0
 11
-128.1281980660632
 21
-14.60103481944557
 31
0.0
  0
LINE
  5
25F
102
{ACAD_REACTORS
330
2B0
102
}
330
A
100
AcDbEntity
  8
0
  6
Continuous
 62
     7
100
AcDbLine
 10
-116.6387844267538
 20
-27.48205051865308
 30
0.0
 11
-108.8612161118502
 21
-22.99166927780837
 31
0.0
  0
LINE
  5
260
102
{ACAD_REACTORS
330
2B0
102
}
330
A
100
AcDbEntity
  8
0
  6
Continuous
 62
     7
100
AcDbLine
 10
-105.9485560812178
 20
-41.5173064642479
 30
0.0
 11
-108.1291642348849
 21
-37.74038241848666
 31
0.0
  0
LINE
  5
261
102
{ACAD_REACTORS
330
2B0
102
}
330
A
100
AcDbEntity
  8
0
  6
Continuous
 62
     7
100
AcDbLine
 10
-121.1139943520531
 20
-32.25
 30
0.0
 11
-128.5834206095183
 21
-45.18742554911482
 31
0.0
  0
LINE
  5
262
102
{ACAD_REACTORS
330
2B0
102
}
330
A
100
AcDbEntity
  8
0
  6
Continuous
 62
     7
100
AcDbLine
 10
-128.1281988948818
 20
-45.39896582606
 30
0.0
 11
-128.3112129389927
 21
-44.71594804201667
 31
0.0
  0
LINE
  5
263
102
{ACAD_REACTORS
330
2B0
102
}
330
A
100
AcDbEntity
  8
0
  6
Continuous
 62
     7
100
AcDbLine
 10
-113.5887859199657
 20
-53.21594840792909
 30
0.0
 11
-114.2718140878906
 21
-53.39896523439232
 31
0.0
  0
LINE
  5
264
102
{ACAD_REACTORS
330
2B0
102
}
330
A
100
AcDbEntity
  8
0
  6
CENTER
 62
     2
100
AcDbLine
 10
-98.75001697105311
 20
-49.48554184069266
 30
0.0
 11
-124.2837527107083
 21
-5.259815026346107
 31
0.0
  0
LINE
  5
265
102
{ACAD_REACTORS
330
2B0
102
}
330
A
100
AcDbEntity
  8
0
  6
Continuous
 62
     7
100
AcDbLine
 10
-88.09999866599497
 20
-21.50000762939453
 30
0.0
 11
-87.59998968267222
 21
-22.00001665486491
 31
0.0
  0
LINE
  5
266
102
{ACAD_REACTORS
330
2B0
102
}
330
A
100
AcDbEntity
  8
0
  6
CENTER
 62
     2
100
AcDbLine
 10
-98.74999980191443
 20
-10.51442842148736
 30
0.0
 11
-124.2837527636956
 21
-54.74018506543051
 31
0.0
  0
LINE
  5
267
102
{ACAD_REACTORS
330
2B0
102
}
330
A
100
AcDbEntity
  8
0
  6
Continuous
 62
     7
100
AcDbLine
 10
-104.5000003731791
 20
-33.80000305175781
 30
0.0
 11
-87.60000647669476
 21
-33.80000305175781
 31
0.0
  0
LINE
  5
268
102
{ACAD_REACTORS
330
2B0
102
}
330
A
100
AcDbEntity
  8
0
  6
Continuous
 62
     7
100
AcDbLine
 10
-87.60000114661471
 20
-38.00000194586629
 30
0.0
 11
-88.09999924289511
 21
-38.5
 31
0.0
  0
LINE
  5
269
102
{ACAD_REACTORS
330
2B0
102
}
330
A
100
AcDbEntity
  8
0
  6
Continuous
 62
     7
100
AcDbLine
 10
-102.4944464357698
 20
-38.5
 30
0.0
 11
-87.55560340052289
 21
-38.5
 31
0.0
  0
LINE
  5
26A
102
{ACAD_REACTORS
330
2B0
102
}
330
A
100
AcDbEntity
  8
0
  6
Continuous
 62
     7
100
AcDbLine
 10
-109.4591151998169
 20
-36.66313243821795
 30
0.0
 11
-117.9091131017334
 21
-51.29895786550052
 31
0.0
  0
LINE
  5
26B
102
{ACAD_REACTORS
330
2B0
102
}
330
A
100
AcDbEntity
  8
0
  6
Continuous
 62
     7
100
AcDbLine
 10
-109.495087525081
 20
-23.27452814533322
 30
0.0
 11
-106.5205930944853
 21
-19.02650989007215
 31
0.0
  0
LINE
  5
26C
102
{ACAD_REACTORS
330
2B0
102
}
330
A
100
AcDbEntity
  8
0
  6
Continuous
 62
     7
100
AcDbLine
 10
-116.0768684512835
 20
-27.07453066170614
 30
0.0
 11
-121.243015827283
 21
-27.52650998989075
 31
0.0
  0
LINE
  5
26D
102
{ACAD_REACTORS
330
2B0
102
}
330
A
100
AcDbEntity
  8
0
  6
Continuous
 62
     7
100
AcDbLine
 10
-104.4280365492627
 20
-26.20001220703125
 30
0.0
 11
-102.236384730645
 21
-21.49999965280384
 31
0.0
  0
LINE
  5
26E
102
{ACAD_REACTORS
330
2B0
102
}
330
A
100
AcDbEntity
  8
0
  6
Continuous
 62
     7
100
AcDbLine
 10
-104.4280278350018
 20
-33.80000305175781
 30
0.0
 11
-102.2363832935745
 21
-38.5
 31
0.0
  0
LINE
  5
26F
102
{ACAD_REACTORS
330
2B0
102
}
330
A
100
AcDbEntity
  8
0
  6
Continuous
 62
     7
100
AcDbLine
 10
-90.60000647669475
 20
-33.5
 30
0.0
 11
-90.60000647669475
 21
-26.5
 31
0.0
  0
LINE
  5
270
102
{ACAD_REACTORS
330
2B0
102
}
330
A
100
AcDbEntity
  8
0
  6
Continuous
 62
     7
100
AcDbLine
 10
-123.9385457345372
 20
-34.14226649601099
 30
0.0
 11
-129.5689842297792
 21
-43.8944718636269
 31
0.0
  0
LINE
  5
271
102
{ACAD_REACTORS
330
2B0
102
}
330
A
100
AcDbEntity
  8
0
  6
Continuous
 62
     7
100
AcDbLine
 10
-102.4944525755207
 20
-21.50000762939453
 30
0.0
 11
-87.55562145527724
 21
-21.50000762939453
 31
0.0
  0
LINE
  5
272
102
{ACAD_REACTORS
330
2B0
102
}
330
A
100
AcDbEntity
  8
0
  6
Continuous
 62
     7
100
AcDbLine
 10
-121.1139838074693
 20
-27.75
 30
0.0
 11
-128.5834169685671
 21
-14.81256249344304
 31
0.0
  0
LINE
  5
273
102
{ACAD_REACTORS
330
2B0
102
}
330
A
100
AcDbEntity
  8
0
  6
Continuous
 62
     7
100
AcDbLine
 10
-99.44342078333539
 20
-20.0
 30
0.0
 11
-88.18256415491742
 21
-20.0
 31
0.0
  0
LINE
  5
274
102
{ACAD_REACTORS
330
2B0
102
}
330
A
100
AcDbEntity
  8
0
  6
Continuous
 62
     7
100
AcDbLine
 10
-116.6387828403424
 20
-32.5179493188698
 30
0.0
 11
-108.8612185978935
 21
-37.00832820848165
 31
0.0
  0
LINE
  5
275
102
{ACAD_REACTORS
330
2B0
102
}
330
A
100
AcDbEntity
  8
0
  6
Continuous
 62
     7
100
AcDbLine
 10
-99.44342078333539
 20
-40.0
 30
0.0
 11
-88.18257593808864
 21
-40.0
 31
0.0
  0
LINE
  5
276
102
{ACAD_REACTORS
330
2B0
102
}
330
A
100
AcDbEntity
  8
0
  6
Continuous
 62
     7
100
AcDbLine
 10
-106.6180361818158
 20
-15.85773359576569
 30
0.0
 11
-112.2484761974793
 21
-6.105525594702438
 31
0.0
  0
LINE
  5
277
102
{ACAD_REACTORS
330
2B0
102
}
330
A
100
AcDbEntity
  8
0
  6
Continuous
 62
     7
100
AcDbLine
 10
-102.0514439799911
 20
-20.7326942475194
 30
0.0
 11
-104.2320517757064
 21
-24.50961767329004
 31
0.0
  0
LINE
  5
278
102
{ACAD_REACTORS
330
2B0
102
}
330
A
100
AcDbEntity
  8
0
  6
Continuous
 62
     7
100
AcDbLine
 10
-116.0768864275818
 20
-32.92546695161215
 30
0.0
 11
-121.2430254175093
 21
-32.47348835711376
 31
0.0
  0
LINE
  5
279
102
{ACAD_REACTORS
330
2B0
102
}
330
A
100
AcDbEntity
  8
0
  6
Continuous
 62
     7
100
AcDbLine
 10
-122.0000592835611
 20
-27.75
 30
0.0
 11
-117.6387844519906
 21
-27.75
 31
0.0
  0
LINE
  5
27A
102
{ACAD_REACTORS
330
2B0
102
}
330
A
100
AcDbEntity
  8
0
  6
Continuous
 62
     7
100
AcDbLine
 10
-122.0000592835611
 20
-32.25
 30
0.0
 11
-117.6387828743998
 21
-32.25
 31
0.0
  0
LINE
  5
27B
102
{ACAD_REACTORS
330
2B0
102
}
330
A
100
AcDbEntity
  8
0
  6
Continuous
 62
     7
100
AcDbLine
 10
-105.9485582270742
 20
-18.48269424751842
 30
0.0
 11
-108.1291660227901
 21
-22.25961767329002
 31
0.0
  0
LINE
  5
27C
102
{ACAD_REACTORS
330
2B0
102
}
330
A
100
AcDbEntity
  8
0
  6
Continuous
 62
     7
100
AcDbLine
 10
-102.0514418341341
 20
-39.26730646424793
 30
0.0
 11
-104.2320499878012
 21
-35.49038241848666
 31
0.0
  0
LINE
  5
27D
102
{ACAD_REACTORS
330
2B0
102
}
330
A
100
AcDbEntity
  8
0
  6
Continuous
 62
     7
100
AcDbLine
 10
-109.4950960083698
 20
-36.72545302561041
 30
0.0
 11
-106.5205967493472
 21
-40.97347817657971
 31
0.0
  0
LINE
  5
27E
102
{ACAD_REACTORS
330
2B0
102
}
330
A
100
AcDbEntity
  8
0
  6
Continuous
 62
     7
100
AcDbLine
 10
-114.2717904528458
 20
-6.60103401036747
 30
0.0
 11
-128.1281980660632
 21
-14.60103481944556
 31
0.0
  0
LINE
  5
27F
102
{ACAD_REACTORS
330
2B0
102
}
330
A
100
AcDbEntity
  8
0
  6
Continuous
 62
     7
100
AcDbLine
 10
-109.7189114104592
 20
-23.48685989823071
 30
0.0
 11
-117.0689022551857
 21
-10.7563025484892
 31
0.0
  0
LINE
  5
280
102
{ACAD_REACTORS
330
2B0
102
}
330
A
100
AcDbEntity
  8
0
  6
Continuous
 62
     7
100
AcDbLine
 10
-115.7810891281449
 20
-26.98685989823073
 30
0.0
 11
-123.1310799728714
 21
-14.2563025484892
 31
0.0
  0
LINE
  5
281
102
{ACAD_REACTORS
330
2B0
102
}
330
A
100
AcDbEntity
  8
0
  6
Continuous
 62
     2
100
AcDbLine
 10
-115.6964986982309
 20
-15.9683665737125
 30
0.0
 11
-119.258030750271
 21
-18.0246180995914
 31
0.0
  0
LINE
  5
282
102
{ACAD_REACTORS
330
2B0
102
}
330
A
100
AcDbEntity
  8
0
  6
Continuous
 62
     7
100
AcDbLine
 10
-117.0689022551857
 20
-10.7563025484892
 30
0.0
 11
-123.1310799728714
 21
-14.2563025484892
 31
0.0
  0
LINE
  5
283
102
{ACAD_REACTORS
330
2B0
102
}
330
A
100
AcDbEntity
  8
0
  6
Continuous
 62
     7
100
AcDbLine
 10
-116.6689083587014
 20
-11.44911228748287
 30
0.0
 11
-122.7310860763871
 21
-14.94911228748287
 31
0.0
  0
LINE
  5
284
102
{ACAD_REACTORS
330
2B0
102
}
330
A
100
AcDbEntity
  8
0
  6
Continuous
 62
     7
100
AcDbLine
 10
-122.7310878642922
 20
-45.0508878042938
 30
0.0
 11
-116.6689101466066
 21
-48.5508878042938
 31
0.0
  0
LINE
  5
285
102
{ACAD_REACTORS
330
2B0
102
}
330
A
100
AcDbEntity
  8
0
  6
Continuous
 62
     2
100
AcDbLine
 10
-119.3035036282784
 20
-41.9491292456032
 30
0.0
 11
-115.7419715762383
 21
-44.00538077148211
 31
0.0
  0
LINE
  5
286
102
{ACAD_REACTORS
330
2B0
102
}
330
A
100
AcDbEntity
  8
0
  6
Continuous
 62
     7
100
AcDbLine
 10
-123.1310817607766
 20
-45.74369754328747
 30
0.0
 11
-117.0689040430909
 21
-49.24369754328747
 31
0.0
  0
LINE
  5
287
102
{ACAD_REACTORS
330
2B0
102
}
330
A
100
AcDbEntity
  8
0
  6
Continuous
 62
     7
100
AcDbLine
 10
-115.7810899623757
 20
-33.01313854173362
 30
0.0
 11
-123.1310817607766
 21
-45.74369754328746
 31
0.0
  0
LINE
  5
288
102
{ACAD_REACTORS
330
2B0
102
}
330
A
100
AcDbEntity
  8
0
  6
Continuous
 62
     7
100
AcDbLine
 10
-109.7189122446901
 20
-36.51313854173363
 30
0.0
 11
-117.0689040430909
 21
-49.24369754328747
 31
0.0
  0
LINE
  5
289
102
{ACAD_REACTORS
330
2B0
102
}
330
A
100
AcDbEntity
  8
0
  6
Continuous
 62
     7
100
AcDbLine
 10
-128.1281988948818
 20
-45.39896582605999
 30
0.0
 11
-114.2718025067723
 21
-53.39896015431893
 31
0.0
  0
LINE
  5
28A
102
{ACAD_REACTORS
330
2B0
102
}
330
A
100
AcDbEntity
  8
0
  6
Continuous
 62
     7
100
AcDbLine
 10
-110.1189053069435
 20
-22.79405015923703
 30
0.0
 11
-116.1810830246293
 21
-26.29405015923705
 31
0.0
  0
LINE
  5
28B
102
{ACAD_REACTORS
330
2B0
102
}
330
A
100
AcDbEntity
  8
0
  6
Continuous
 62
     7
100
AcDbLine
 10
-116.1810838588601
 20
-33.70594828072731
 30
0.0
 11
-110.1189061411745
 21
-37.20594828072729
 31
0.0
  0
LINE
  5
28C
102
{ACAD_REACTORS
330
2B0
102
}
330
A
100
AcDbEntity
  8
0
  6
Continuous
 62
     2
100
AcDbLine
 10
-100.0000003731791
 20
-27.97000122070313
 30
0.0
 11
-100.0000003731791
 21
-32.08250427246094
 31
0.0
  0
LINE
  5
28D
102
{ACAD_REACTORS
330
2B0
102
}
330
A
100
AcDbEntity
  8
0
  6
Continuous
 62
     2
100
AcDbLine
 10
-116.758030750271
 20
-22.35474504079548
 30
0.0
 11
-113.1964986982309
 21
-20.29849351491657
 31
0.0
  0
LINE
  5
28E
102
{ACAD_REACTORS
330
2B0
102
}
330
A
100
AcDbEntity
  8
0
  6
Continuous
 62
     2
100
AcDbLine
 10
-113.241970622564
 20
-39.6752521784657
 30
0.0
 11
-116.8035026746041
 21
-37.61900065258679
 31
0.0
  0
LINE
  5
28F
102
{ACAD_REACTORS
330
2B0
102
}
330
A
100
AcDbEntity
  8
0
  6
Continuous
 62
     7
100
AcDbLine
 10
-105.1546977623437
 20
-19.60769353575208
 30
0.0
 11
-104.5773483600098
 21
-20.60769203431386
 31
0.0
  0
LINE
  5
290
102
{ACAD_REACTORS
330
2B0
102
}
330
A
100
AcDbEntity
  8
0
  6
Continuous
 62
     7
100
AcDbLine
 10
-104.5773483600098
 20
-20.60769203431386
 30
0.0
 11
-103.4226495553421
 21
-20.60769203431386
 31
0.0
  0
LINE
  5
291
102
{ACAD_REACTORS
330
2B0
102
}
330
A
100
AcDbEntity
  8
0
  6
Continuous
 62
     7
100
AcDbLine
 10
-103.4226495553421
 20
-20.60769203431386
 30
0.0
 11
-102.8453001530083
 21
-19.60769353575208
 31
0.0
  0
LINE
  5
292
102
{ACAD_REACTORS
330
2B0
102
}
330
A
100
AcDbEntity
  8
0
  6
Continuous
 62
     7
100
AcDbLine
 10
-102.8453001530083
 20
-19.60769353575208
 30
0.0
 11
-103.4226495553421
 21
-18.6076950371903
 31
0.0
  0
LINE
  5
293
102
{ACAD_REACTORS
330
2B0
102
}
330
A
100
AcDbEntity
  8
0
  6
Continuous
 62
     7
100
AcDbLine
 10
-103.4226495553421
 20
-18.6076950371903
 30
0.0
 11
-104.5773483600098
 21
-18.6076950371903
 31
0.0
  0
LINE
  5
294
102
{ACAD_REACTORS
330
2B0
102
}
330
A
100
AcDbEntity
  8
0
  6
Continuous
 62
     7
100
AcDbLine
 10
-104.5773483600098
 20
-18.6076950371903
 30
0.0
 11
-105.1546977623437
 21
-19.60769353575208
 31
0.0
  0
LINE
  5
295
102
{ACAD_REACTORS
330
2B0
102
}
330
A
100
AcDbEntity
  8
0
  6
Continuous
 62
     7
100
AcDbLine
 10
-121.4227098812272
 20
-29.00000150143822
 30
0.0
 11
-122.5774086858949
 21
-29.00000150143822
 31
0.0
  0
LINE
  5
296
102
{ACAD_REACTORS
330
2B0
102
}
330
A
100
AcDbEntity
  8
0
  6
Continuous
 62
     7
100
AcDbLine
 10
-122.5774086858949
 20
-29.00000150143822
 30
0.0
 11
-123.1547580882288
 21
-30.0
 31
0.0
  0
LINE
  5
297
102
{ACAD_REACTORS
330
2B0
102
}
330
A
100
AcDbEntity
  8
0
  6
Continuous
 62
     7
100
AcDbLine
 10
-120.8453604788934
 20
-30.0
 30
0.0
 11
-121.4227098812272
 21
-29.00000150143822
 31
0.0
  0
LINE
  5
298
102
{ACAD_REACTORS
330
2B0
102
}
330
A
100
AcDbEntity
  8
0
  6
Continuous
 62
     7
100
AcDbLine
 10
-123.1547580882288
 20
-30.0
 30
0.0
 11
-122.5774086858949
 21
-30.99999849856178
 31
0.0
  0
LINE
  5
299
102
{ACAD_REACTORS
330
2B0
102
}
330
A
100
AcDbEntity
  8
0
  6
Continuous
 62
     7
100
AcDbLine
 10
-122.5774086858949
 20
-30.99999849856178
 30
0.0
 11
-121.4227098812272
 21
-30.99999849856178
 31
0.0
  0
LINE
  5
29A
102
{ACAD_REACTORS
330
2B0
102
}
330
A
100
AcDbEntity
  8
0
  6
Continuous
 62
     7
100
AcDbLine
 10
-121.4227098812272
 20
-30.99999849856178
 30
0.0
 11
-120.8453604788934
 21
-30.0
 31
0.0
  0
LINE
  5
29B
102
{ACAD_REACTORS
330
2B0
102
}
330
A
100
AcDbEntity
  8
0
  6
Continuous
 62
     7
100
AcDbLine
 10
-103.4226495553421
 20
-39.39230796568614
 30
0.0
 11
-104.5773483600098
 21
-39.39230796568614
 31
0.0
  0
LINE
  5
29C
102
{ACAD_REACTORS
330
2B0
102
}
330
A
100
AcDbEntity
  8
0
  6
Continuous
 62
     7
100
AcDbLine
 10
-104.5773483600098
 20
-39.39230796568614
 30
0.0
 11
-105.1546977623437
 21
-40.39230646424792
 31
0.0
  0
LINE
  5
29D
102
{ACAD_REACTORS
330
2B0
102
}
330
A
100
AcDbEntity
  8
0
  6
Continuous
 62
     7
100
AcDbLine
 10
-102.8453001530083
 20
-40.39230646424792
 30
0.0
 11
-103.4226495553421
 21
-39.39230796568614
 31
0.0
  0
LINE
  5
29E
102
{ACAD_REACTORS
330
2B0
102
}
330
A
100
AcDbEntity
  8
0
  6
Continuous
 62
     7
100
AcDbLine
 10
-105.1546977623437
 20
-40.39230646424792
 30
0.0
 11
-104.5773483600098
 21
-41.3923049628097
 31
0.0
  0
LINE
  5
29F
102
{ACAD_REACTORS
330
2B0
102
}
330
A
100
AcDbEntity
  8
0
  6
Continuous
 62
     7
100
AcDbLine
 10
-104.5773483600098
 20
-41.3923049628097
 30
0.0
 11
-103.4226495553421
 21
-41.3923049628097
 31
0.0
  0
LINE
  5
2A0
102
{ACAD_REACTORS
330
2B0
102
}
330
A
100
AcDbEntity
  8
0
  6
Continuous
 62
     7
100
AcDbLine
 10
-103.4226495553421
 20
-41.3923049628097
 30
0.0
 11
-102.8453001530083
 21
-40.39230646424792
 31
0.0
  0
CIRCLE
  5
2A1
102
{ACAD_REACTORS
330
2B0
102
}
330
A
100
AcDbEntity
  8
0
  6
Continuous
 62
     7
100
AcDbCircle
 10
-117.500000269302
 20
-17.00961870994297
 30
0.0
 40
1.200000047683715
  0
CIRCLE
  5
2A2
102
{ACAD_REACTORS
330
2B0
102
}
330
A
100
AcDbEntity
  8
0
  6
Continuous
 62
     7
100
AcDbCircle
 10
-117.500000269302
 20
-17.00961870994297
 30
0.0
 40
1.5
  0
CIRCLE
  5
2A3
102
{ACAD_REACTORS
330
2B0
102
}
330
A
100
AcDbEntity
  8
0
  6
Continuous
 62
     7
100
AcDbCircle
 10
-115.000000269302
 20
-21.33974565114704
 30
0.0
 40
1.5
  0
CIRCLE
  5
2AD
102
{ACAD_REACTORS
330
2B0
102
}
330
A
100
AcDbEntity
  8
0
  6
Continuous
100
AcDbCircle
 10
-101.2500082345726
 20
-14.8445699684837
 30
0.0
 40
1.6
  0
CIRCLE
  5
2AE
102
{ACAD_REACTORS
330
2B0
102
}
330
A
100
AcDbEntity
  8
0
  6
Continuous
100
AcDbCircle
 10
-127.4999812996911
 20
-30.0
 30
0.0
 40
1.6
  0
CIRCLE
  5
2AF
102
{ACAD_REACTORS
330
2B0
102
}
330
A
100
AcDbEntity
  8
0
  6
Continuous
100
AcDbCircle
 10
-101.2500087456449
 20
-45.15542914631319
 30
0.0
 40
1.6
  0
ENDSEC
  0
SECTION
  2
OBJECTS
  0
DICTIONARY
  5
19
330
0
100
AcDbDictionary
281
     1
  3
ACAD_COLOR
350
21D
  3
ACAD_GROUP
350
1A
  3
ACAD_LAYOUT
350
220
  3
ACAD_MATERIAL
350
21C
  3
ACAD_MLINESTYLE
350
1B
  3
ACAD_PLOTSETTINGS
350
221
  3
ACAD_PLOTSTYLENAME
350
21A
  3
ACAD_TABLESTYLE
350
21E
  3
ACDBHEADERROUNDTRIPXREC
350
2B6
  3
AcDbVariableDictionary
350
2B1
  0
DICTIONARY
  5
2A4
330
A
100
AcDbDictionary
280
     1
281
     1
  3
ACAD_SORTENTS
360
2A5
  0
DICTIONARY
  5
21D
102
{ACAD_REACTORS
330
19
102
}
330
19
100
AcDbDictionary
281
     1
  0
DICTIONARY
  5
1A
102
{ACAD_REACTORS
330
19
102
}
330
19
100
AcDbDictionary
281
     1
  3
*A1
350
2B0
  0
DICTIONARY
  5
220
102
{ACAD_REACTORS
330
19
102
}
330
19
100
AcDbDictionary
281
     1
  3
Model
350
222
  3
レイアウト1
350
223
  0
DICTIONARY
  5
21C
102
{ACAD_REACTORS
330
19
102
}
330
19
100
AcDbDictionary
281
     1
  0
DICTIONARY
  5
1B
102
{ACAD_REACTORS
330
19
102
}
330
19
100
AcDbDictionary
281
     1
  3
STANDARD
350
1C
  0
DICTIONARY
  5
221
102
{ACAD_REACTORS
330
19
102
}
330
19
100
AcDbDictionary
281
     1
  0
ACDBDICTIONARYWDFLT
  5
21A
102
{ACAD_REACTORS
330
19
102
}
330
19
100
AcDbDictionary
281
     1
  3
Normal
350
21B
100
AcDbDictionaryWithDefault
340
21B
  0
DICTIONARY
  5
21E
102
{ACAD_REACTORS
330
19
102
}
330
19
100
AcDbDictionary
281
     1
  3
Standard
350
21F
  0
DICTIONARY
  5
2B6
102
{ACAD_REACTORS
330
19
102
}
330
19
100
AcDbDictionary
281
     1
  0
DICTIONARY
  5
2B1
102
{ACAD_REACTORS
330
19
102
}
330
19
100
AcDbDictionary
281
     1
  3
CTABLESTYLE
350
2B2
  3
DIMASSOC
350
2B3
  3
PROJECTNAME
350
2B4
  0
SORTENTSTABLE
  5
2A5
102
{ACAD_REACTORS
330
2A4
102
}
330
2A4
100
AcDbSortentsTable
330
A
331
204
  5
293
331
285
  5
273
331
258
  5
246
331
236
  5
212
331
296
  5
284
331
274
  5
262
331
247
  5
235
331
283
  5
271
331
256
  5
244
331
234
  5
210
331
294
  5
282
331
272
  5
260
331
267
  5
255
331
245
  5
233
331
2A3
  5
291
331
281
  5
26F
331
254
  5
242
331
232
  5
20E
331
292
  5
280
331
270
  5
25E
331
265
  5
253
331
243
  5
231
331
200
  5
200
331
20F
  5
29E
331
2A1
  5
28F
331
27F
  5
26D
331
252
  5
240
331
230
  5
20C
331
290
  5
27E
331
26E
  5
25C
331
263
  5
251
331
241
  5
22F
331
213
  5
2A2
331
250
  5
23E
331
20D
  5
29C
331
29F
  5
28D
331
27D
  5
26B
331
28E
  5
27C
331
26C
  5
25A
331
261
  5
24F
331
22E
  5
20A
331
23F
  5
22D
331
211
  5
2A0
331
20B
  5
29A
331
29D
  5
28B
331
27B
  5
269
331
28C
  5
27A
331
26A
  5
258
331
25F
  5
24D
331
24E
  5
23C
331
22C
  5
208
331
23D
  5
22B
331
209
  5
298
331
29B
  5
289
331
279
  5
267
331
28A
  5
278
331
268
  5
256
331
25D
  5
24B
331
24C
  5
23A
331
22A
  5
206
331
23B
  5
229
331
207
  5
296
331
299
  5
287
331
288
  5
276
331
25B
  5
249
331
277
  5
265
331
228
  5
204
331
239
  5
227
331
205
  5
294
331
286
  5
274
331
259
  5
247
331
237
  5
213
331
297
  5
285
331
275
  5
263
331
203
  5
292
331
284
  5
272
331
257
  5
245
331
235
  5
211
331
295
  5
283
331
273
  5
261
331
246
  5
234
331
282
  5
270
331
255
  5
243
331
233
  5
20F
331
293
  5
281
331
271
  5
25F
331
266
  5
254
331
201
  5
201
331
2A2
  5
290
331
280
  5
26E
331
253
  5
241
331
231
  5
20D
331
291
  5
27F
331
26F
  5
25D
331
264
  5
252
331
242
  5
230
331
214
  5
2A3
331
251
  5
23F
331
20E
  5
29D
331
2A0
  5
28E
331
27E
  5
26C
331
28F
  5
27D
331
26D
  5
25B
331
262
  5
250
331
22F
  5
20B
331
240
  5
22E
331
212
  5
2A1
331
20C
  5
29B
331
29E
  5
28C
331
27C
  5
26A
331
28D
  5
27B
331
26B
  5
259
331
260
  5
24E
331
24F
  5
23D
331
22D
  5
209
331
23E
  5
22C
331
210
  5
29F
331
20A
  5
299
331
29C
  5
28A
331
27A
  5
268
331
28B
  5
279
331
269
  5
257
331
25E
  5
24C
331
24D
  5
23B
331
22B
  5
207
331
23C
  5
22A
331
208
  5
297
331
29A
  5
288
331
278
  5
266
331
289
  5
277
331
25C
  5
24A
331
24B
  5
239
331
229
  5
205
331
23A
  5
228
331
206
  5
295
331
298
  5
286
331
287
  5
275
331
25A
  5
248
331
276
  5
264
331
249
  5
237
331
227
  5
203
331
238
  5
214
  0
GROUP
  5
2B0
102
{ACAD_REACTORS
330
1A
102
}
330
1A
100
AcDbGroup
300

 70
     1
 71
     1
340
2AF
340
2AE
340
2AD
340
2A3
340
2A2
340
2A1
340
2A0
340
29F
340
29E
340
29D
340
29C
340
29B
340
29A
340
299
340
298
340
297
340
296
340
295
340
294
340
293
340
292
340
291
340
290
340
28F
340
28E
340
28D
340
28C
340
28B
340
28A
340
289
340
288
340
287
340
286
340
285
340
284
340
283
340
282
340
281
340
280
340
27F
340
27E
340
27D
340
27C
340
27B
340
27A
340
279
340
278
340
277
340
276
340
275
340
274
340
273
340
272
340
271
340
270
340
26F
340
26E
340
26D
340
26C
340
26B
340
26A
340
269
340
268
340
267
340
266
340
265
340
264
340
263
340
262
340
261
340
260
340
25F
340
25E
340
25D
340
25C
340
25B
340
25A
340
259
340
258
340
257
340
256
340
255
340
254
340
253
340
252
340
251
340
250
340
24F
340
24E
340
24D
340
24C
340
24B
340
249
340
247
340
246
340
245
340
243
340
242
340
241
340
240
340
23F
340
23E
340
23D
340
23C
340
23B
340
23A
340
239
340
238
340
237
340
236
340
235
340
234
340
233
340
232
340
231
340
230
340
22F
340
22E
340
22D
340
22C
340
22B
340
22A
340
229
340
228
340
227
  0
LAYOUT
  5
222
102
{ACAD_XDICTIONARY
360
2B7
102
}
102
{ACAD_REACTORS
330
220
102
}
330
220
100
AcDbPlotSettings
  1

  2
DocuCentre 559
  4

  6

 40
0.0
 41
0.0
 42
0.0
 43
0.0
 44
0.0
 45
0.0
 46
0.0
 47
0.0
 48
0.0
 49
0.0
140
0.0
141
0.0
142
1.0
143
1.0
 70
  1712
 72
     0
 73
     0
 74
     0
  7

 75
     0
147
1.0
148
0.0
149
0.0
100
AcDbLayout
  1
Model
 70
     1
 71
     0
 10
0.0
 20
0.0
 11
12.0
 21
9.0
 12
0.0
 22
0.0
 32
0.0
 14
0.0
 24
0.0
 34
0.0
 15
0.0
 25
0.0
 35
0.0
146
0.0
 13
0.0
 23
0.0
 33
0.0
 16
1.0
 26
0.0
 36
0.0
 17
0.0
 27
1.0
 37
0.0
 76
     0
330
A
  0
LAYOUT
  5
223
102
{ACAD_XDICTIONARY
360
2B9
102
}
102
{ACAD_REACTORS
330
220
102
}
330
220
100
AcDbPlotSettings
  1

  2
DocuCentre 559
  4

  6

 40
0.0
 41
0.0
 42
0.0
 43
0.0
 44
0.0
 45
0.0
 46
0.0
 47
0.0
 48
0.0
 49
0.0
140
0.0
141
0.0
142
1.0
143
1.0
 70
   688
 72
     0
 73
     0
 74
     5
  7

 75
    16
147
1.0
148
0.0
149
0.0
100
AcDbLayout
  1
レイアウト1
 70
     0
 71
     1
 10
0.0
 20
0.0
 11
12.0
 21
9.0
 12
0.0
 22
0.0
 32
0.0
 14
1.000000000000000E+20
 24
1.000000000000000E+20
 34
1.000000000000000E+20
 15
-1.000000000000000E+20
 25
-1.000000000000000E+20
 35
-1.000000000000000E+20
146
0.0
 13
0.0
 23
0.0
 33
0.0
 16
1.0
 26
0.0
 36
0.0
 17
0.0
 27
1.0
 37
0.0
 76
     0
330
B
  0
MLINESTYLE
  5
1C
102
{ACAD_REACTORS
330
1B
102
}
330
1B
100
AcDbMlineStyle
  2
STANDARD
 70
     0
  3

 62
     0
 51
90.0
 52
90.0
 71
     2
 49
0.5
 62
   256
  6
BYLAYER
 49
-0.5
 62
   256
  6
BYLAYER
  0
ACDBPLACEHOLDER
  5
21B
102
{ACAD_REACTORS
330
21A
102
}
330
21A
  0
TABLESTYLE
  5
21F
102
{ACAD_REACTORS
330
21E
102
}
330
21E
100
AcDbTableStyle
  3
Standard
 70
     0
 71
     0
 40
0.06
 41
0.06
280
     0
281
     0
  7
MX_NOTE_STANDARD
140
0.18
170
     2
 62
     0
 63
     7
283
     0
274
    -2
284
     1
 64
     0
275
    -2
285
     1
 65
     0
276
    -2
286
     1
 66
     0
277
    -2
287
     1
 67
     0
278
    -2
288
     1
 68
     0
279
    -2
289
     1
 69
     0
  7
MX_NOTE_STANDARD
140
0.25
170
     5
 62
     0
 63
     7
283
     0
274
    -2
284
     1
 64
     0
275
    -2
285
     1
 65
     0
276
    -2
286
     1
 66
     0
277
    -2
287
     1
 67
     0
278
    -2
288
     1
 68
     0
279
    -2
289
     1
 69
     0
  7
MX_NOTE_STANDARD
140
0.18
170
     5
 62
     0
 63
     7
283
     0
274
    -2
284
     1
 64
     0
275
    -2
285
     1
 65
     0
276
    -2
286
     1
 66
     0
277
    -2
287
     1
 67
     0
278
    -2
288
     1
 68
     0
279
    -2
289
     1
 69
     0
  0
DICTIONARYVAR
  5
2B2
102
{ACAD_REACTORS
330
2B1
102
}
330
2B1
100
DictionaryVariables
280
     0
  1
STANDARD
  0
DICTIONARYVAR
  5
2B3
102
{ACAD_REACTORS
330
2B1
102
}
330
2B1
100
DictionaryVariables
280
     0
  1
1
  0
DICTIONARYVAR
  5
2B4
102
{ACAD_REACTORS
330
2B1
102
}
330
2B1
100
DictionaryVariables
280
     0
  1

  0
DICTIONARY
  5
2B7
330
222
100
AcDbDictionary
280
     1
281
     1
  3
ACAD_XREC_ROUNDTRIP
360
2B8
  0
DICTIONARY
  5
2B9
330
223
100
AcDbDictionary
280
     1
281
     1
  3
ACAD_XREC_ROUNDTRIP
360
2BA
  0
XRECORD
  5
2B8
102
{ACAD_REACTORS
330
2B7
102
}
330
2B7
100
AcDbXrecord
280
     1
102
SHADEPLOT
 70
     0
102
SHADEPLOTRESLEVEL
 70
     2
102
SHADEPLOTCUSTOMDPI
 70
   300
  0
XRECORD
  5
2BA
102
{ACAD_REACTORS
330
2B9
102
}
330
2B9
100
AcDbXrecord
280
     1
102
SHADEPLOT
 70
     0
102
SHADEPLOTRESLEVEL
 70
     2
102
SHADEPLOTCUSTOMDPI
 70
   300
  0
ENDSEC
  0
EOF
