  0
SECTION
  2
HEADER
  9
$ACADVER
  1
AC1002
  9
$INSBASE
 10
0.0
 20
0.0
  9
$EXTMIN
 10
-131.1236
 20
-90.00001
  9
$EXTMAX
 10
131.1236
 20
90.00001
  9
$LIMMIN
 10
0.0
 20
0.0
  9
$LIMMAX
 10
12.0
 20
9.0
  9
$VIEWCTR
 10
10.11492432
 20
0.0
  9
$VIEWSIZE
 40
180.00002
  9
$SNAPMODE
 70
     0
  9
$SNAPUNIT
 10
1.0
 20
1.0
  9
$SNAPBASE
 10
0.0
 20
0.0
  9
$SNAPANG
 50
0.0
  9
$SNAPSTYLE
 70
     0
  9
$SNAPISOPAIR
 70
     0
  9
$GRIDMODE
 70
     0
  9
$GRIDUNIT
 10
0.0
 20
0.0
  9
$ORTHOMODE
 70
     0
  9
$REGENMODE
 70
     1
  9
$FILLMODE
 70
     1
  9
$QTEXTMODE
 70
     0
  9
$DRAGMODE
 70
     2
  9
$LTSCALE
 40
1.0
  9
$OSMODE
 70
     0
  9
$ATTMODE
 70
     1
  9
$TEXTSIZE
 40
0.2
  9
$TRACEWID
 40
0.05
  9
$TEXTSTYLE
  7
AAA
  9
$CLAYER
  8
0
  9
$CELTYPE
  6
BYLAYER
  9
$CECOLOR
 62
   256
  9
$DIMSCALE
 40
1.0
  9
$DIMASZ
 40
0.18
  9
$DIMEXO
 40
0.0625
  9
$DIMDLI
 40
0.38
  9
$DIMRND
 40
0.0
  9
$DIMDLE
 40
0.0
  9
$DIMEXE
 40
0.18
  9
$DIMTP
 40
0.0
  9
$DIMTM
 40
0.0
  9
$DIMTXT
 40
0.18
  9
$DIMCEN
 40
0.09
  9
$DIMTSZ
 40
0.0
  9
$DIMTOL
 70
     0
  9
$DIMLIM
 70
     0
  9
$DIMTIH
 70
     1
  9
$DIMTOH
 70
     1
  9
$DIMSE1
 70
     0
  9
$DIMSE2
 70
     0
  9
$DIMTAD
 70
     0
  9
$DIMZIN
 70
     0
  9
$DIMBLK
  1

  9
$LUNITS
 70
     2
  9
$LUPREC
 70
     4
  9
$AXISMODE
 70
     0
  9
$AXISUNIT
 10
0.0
 20
0.0
  9
$SKETCHINC
 40
0.1
  9
$FILLETRAD
 40
0.0
  9
$AUNITS
 70
     0
  9
$AUPREC
 70
     0
  9
$MENU
  1
ACAD
  9
$ELEVATION
 40
0.0
  9
$THICKNESS
 40
0.0
  9
$VIEWDIR
 10
0.0
 20
0.0
 30
1.0
  9
$LIMCHECK
 70
     0
  9
$BLIPMODE
 70
     1
  9
$CHAMFERA
 40
0.0
  9
$CHAMFERB
 40
0.0
  9
$FASTZOOM
 70
     1
  9
$SKPOLY
 70
     0
  9
$TDCREATE
 40
2447853.7463426421
  9
$TDUPDATE
 40
2447853.7463426421
  9
$TDINDWG
 40
0.0029398148
  9
$TDUSRTIMER
 40
0.0029398148
  9
$USRTIMER
 70
     1
  9
$ANGBASE
 50
0.0
  9
$ANGDIR
 70
     0
  9
$PDMODE
 70
     0
  9
$PDSIZE
 40
0.0
  9
$PLINEWID
 40
0.0
  9
$COORDS
 70
     0
  9
$USERI1
 70
     0
  9
$USERI2
 70
     0
  9
$USERI3
 70
     0
  9
$USERI4
 70
     0
  9
$USERI5
 70
     0
  9
$USERR1
 40
0.0
  9
$USERR2
 40
0.0
  9
$USERR3
 40
0.0
  9
$USERR4
 40
0.0
  9
$USERR5
 40
0.0
  0
ENDSEC
  0
SECTION
  2
TABLES
  0
TABLE
  2
LTYPE
 70
     4
  0
LTYPE
  2
CONTINUOUS
 70
    64
  3
SOLID
 72
    65
 73
     0
 40
0.0
  0
LTYPE
  2
DASHED
 70
    64
  3
DASHED
 72
    65
 73
     2
 40
0.75
 49
0.5
 49
-0.25
  0
LTYPE
  2
CENTER
 70
    64
  3
CENTER
 72
    65
 73
     4
 40
2.0
 49
1.25
 49
-0.25
 49
0.25
 49
-0.25
  0
LTYPE
  2
PHANTOM
 70
    64
  3
PHANTOM
 72
    65
 73
     6
 40
2.5
 49
1.25
 49
-0.25
 49
0.25
 49
-0.25
 49
0.25
 49
-0.25
  0
ENDTAB
  0
TABLE
  2
LAYER
 70
     1
  0
LAYER
  2
0
 70
    64
 62
     7
  6
CONTINUOUS
  0
ENDTAB
  0
TABLE
  2
STYLE
 70
     2
  0
STYLE
  2
AAA
 70
     0
 40
0.0
 41
1.0
 50
0.0
 71
     0
 42
0.2
  3
TXT
  4

  0
STYLE
  2
STANDARD
 70
    64
 40
0.0
 41
1.0
 50
0.0
 71
     0
 42
0.2
  3
TXT
  4
BIGFONT
  0
ENDTAB
  0
TABLE
  2
VIEW
 70
     0
  0
ENDTAB
  0
ENDSEC
  0
SECTION
  2
BLOCKS
  0
ENDSEC
  0
SECTION
  2
ENTITIES
  0
POINT
  8
0
  6
CONTINUOUS
 62
     7
 10
-32.0
 20
29.0
  0
POINT
  8
0
  6
CONTINUOUS
 62
     7
 10
-40.0
 20
29.0
  0
POINT
  8
0
  6
CONTINUOUS
 62
     7
 10
48.0
 20
29.0
  0
POINT
  8
0
  6
CONTINUOUS
 62
     7
 10
-67.62361
 20
-31.0
  0
POINT
  8
0
  6
CONTINUOUS
 62
     7
 10
-71.12361
 20
-31.0
  0
POINT
  8
0
  6
CONTINUOUS
 62
     7
 10
-38.8
 20
-31.0
  0
POINT
  8
0
  6
CONTINUOUS
 62
     7
 10
-36.3
 20
-31.0
  0
POINT
  8
0
  6
CONTINUOUS
 62
     7
 10
44.33333
 20
-31.0
  0
POINT
  8
0
  6
CONTINUOUS
 62
     7
 10
35.83333
 20
-31.0
  0
POINT
  8
0
  6
CONTINUOUS
 62
     7
 10
71.12361
 20
-31.0
  0
POINT
  8
0
  6
CONTINUOUS
 62
     7
 10
75.12361
 20
-31.0
  0
POINT
  8
0
  6
CONTINUOUS
 62
     7
 10
23.5
 20
29.0
  0
LINE
  8
0
  6
CONTINUOUS
 62
     7
 10
-131.1236
 20
-90.00001
 11
-131.1236
 21
90.00001
  0
LINE
  8
0
  6
CONTINUOUS
 62
     7
 10
131.1236
 20
90.00001
 11
131.1236
 21
-90.00001
  0
LINE
  8
0
  6
CONTINUOUS
 62
     7
 10
-131.1236
 20
-90.00001
 11
131.1236
 21
-90.00001
  0
LINE
  8
0
  6
CONTINUOUS
 62
     7
 10
-131.1236
 20
90.00001
 11
131.1236
 21
90.00001
  0
LINE
  8
0
  6
CONTINUOUS
 62
     7
 10
-131.1236
 20
79.88764
 11
-77.19102
 21
79.88764
  0
LINE
  8
0
  6
CONTINUOUS
 62
     7
 10
-77.19102
 20
79.88764
 11
-77.19102
 21
90.00001
  0
LINE
  8
0
  6
CONTINUOUS
 62
     7
 10
77.19101
 20
-79.88764
 11
131.1236
 21
-79.88764
  0
LINE
  8
0
  6
CONTINUOUS
 62
     7
 10
91.35169
 20
-82.31916
 11
96.53259
 21
-82.31916
  0
LINE
  8
0
  6
CONTINUOUS
 62
     7
 10
91.35169
 20
-86.91354
 11
95.75056
 21
-86.91354
  0
LINE
  8
0
  6
CONTINUOUS
 62
     7
 10
91.35169
 20
-88.08657
 11
97.31461
 21
-88.08657
  0
LINE
  8
0
  6
CONTINUOUS
 62
     7
 10
91.35169
 20
-83.49218
 11
95.75056
 21
-83.49218
  0
LINE
  8
0
  6
CONTINUOUS
 62
     7
 10
91.35169
 20
-82.31916
 11
91.35169
 21
-83.49218
  0
LINE
  8
0
  6
CONTINUOUS
 62
     7
 10
97.31461
 20
-83.10118
 11
97.31461
 21
-88.08657
  0
LINE
  8
0
  6
CONTINUOUS
 62
     7
 10
95.75056
 20
-83.49218
 11
95.75056
 21
-86.91354
  0
LINE
  8
0
  6
CONTINUOUS
 62
     7
 10
98.19438
 20
-82.31916
 11
98.19438
 21
-83.49218
  0
LINE
  8
0
  6
CONTINUOUS
 62
     7
 10
103.7663
 20
-83.49218
 11
103.7663
 21
-87.30457
  0
LINE
  8
0
  6
CONTINUOUS
 62
     7
 10
102.2023
 20
-83.49218
 11
102.2023
 21
-86.91354
  0
LINE
  8
0
  6
CONTINUOUS
 62
     7
 10
91.35169
 20
-86.91354
 11
91.35169
 21
-88.08657
  0
LINE
  8
0
  6
CONTINUOUS
 62
     7
 10
98.19438
 20
-82.31916
 11
99.73978
 21
-82.31916
  0
LINE
  8
0
  6
CONTINUOUS
 62
     7
 10
98.19438
 20
-88.08657
 11
99.4088
 21
-88.08657
  0
LINE
  8
0
  6
CONTINUOUS
 62
     7
 10
98.19463
 20
-88.08676
 11
99.4257
 21
-83.49239
  0
LINE
  8
0
  6
CONTINUOUS
 62
     7
 10
98.19438
 20
-83.49218
 11
99.42545
 21
-83.49218
  0
LINE
  8
0
  6
CONTINUOUS
 62
     7
 10
99.40903
 20
-88.08674
 11
100.6401
 21
-83.49235
  0
LINE
  8
0
  6
CONTINUOUS
 62
     7
 10
101.0292
 20
-86.91354
 11
102.2023
 21
-86.91354
  0
LINE
  8
0
  6
CONTINUOUS
 62
     7
 10
101.0291
 20
-86.91348
 11
101.3434
 21
-88.08647
  0
LINE
  8
0
  6
CONTINUOUS
 62
     7
 10
101.3435
 20
-88.08657
 11
102.9843
 21
-88.08657
  0
LINE
  8
0
  6
CONTINUOUS
 62
     7
 10
100.6399
 20
-83.49218
 11
102.2023
 21
-83.49218
  0
LINE
  8
0
  6
CONTINUOUS
 62
     7
 10
100.9542
 20
-82.31916
 11
102.5933
 21
-82.31916
  0
LINE
  8
0
  6
CONTINUOUS
 62
     7
 10
99.73981
 20
-82.31919
 11
99.97292
 21
-81.44921
  0
LINE
  8
0
  6
CONTINUOUS
 62
     7
 10
100.9542
 20
-82.31916
 11
101.1873
 21
-81.44919
  0
LINE
  8
0
  6
CONTINUOUS
 62
     7
 10
104.7438
 20
-82.31916
 11
106.6011
 21
-82.31916
  0
LINE
  8
0
  6
CONTINUOUS
 62
     7
 10
104.7438
 20
-83.49218
 11
109.3053
 21
-83.49218
  0
LINE
  8
0
  6
CONTINUOUS
 62
     7
 10
106.6011
 20
-88.08657
 11
108.1652
 21
-88.08657
  0
LINE
  8
0
  6
CONTINUOUS
 62
     7
 10
104.7438
 20
-82.31916
 11
104.7438
 21
-83.49218
  0
LINE
  8
0
  6
CONTINUOUS
 62
     7
 10
110.5112
 20
-85.61926
 11
110.5112
 21
-86.91354
  0
LINE
  8
0
  6
CONTINUOUS
 62
     7
 10
104.7437
 20
-86.91345
 11
106.601
 21
-86.04738
  0
LINE
  8
0
  6
CONTINUOUS
 62
     7
 10
104.7438
 20
-85.61927
 11
109.3053
 21
-83.4922
  0
LINE
  8
0
  6
CONTINUOUS
 62
     7
 10
104.7438
 20
-85.61926
 11
104.7438
 21
-86.91354
  0
LINE
  8
0
  6
CONTINUOUS
 62
     7
 10
108.1652
 20
-85.81956
 11
110.5112
 21
-86.91356
  0
LINE
  8
0
  6
CONTINUOUS
 62
     7
 10
109.0154
 20
-84.92177
 11
110.5113
 21
-85.61932
  0
LINE
  8
0
  6
CONTINUOUS
 62
     7
 10
110.5112
 20
-83.10118
 11
110.5112
 21
-83.72594
  0
LINE
  8
0
  6
CONTINUOUS
 62
     7
 10
106.6011
 20
-81.44916
 11
106.6011
 21
-82.31916
  0
LINE
  8
0
  6
CONTINUOUS
 62
     7
 10
108.1652
 20
-81.44916
 11
108.1652
 21
-82.31916
  0
LINE
  8
0
  6
CONTINUOUS
 62
     7
 10
108.1652
 20
-82.31916
 11
109.7292
 21
-82.31916
  0
LINE
  8
0
  6
CONTINUOUS
 62
     7
 10
106.6011
 20
-86.04747
 11
106.6011
 21
-88.08657
  0
LINE
  8
0
  6
CONTINUOUS
 62
     7
 10
108.1652
 20
-85.81956
 11
108.1652
 21
-88.08657
  0
LINE
  8
0
  6
CONTINUOUS
 62
     7
 10
109.0153
 20
-84.92168
 11
110.0597
 21
-84.43469
  0
LINE
  8
0
  6
CONTINUOUS
 62
     7
 10
115.7899
 20
-81.80107
 11
116.9629
 21
-81.80107
  0
LINE
  8
0
  6
CONTINUOUS
 62
     7
 10
111.0
 20
-84.22416
 11
111.0
 21
-85.48656
  0
LINE
  8
0
  6
CONTINUOUS
 62
     7
 10
116.9629
 20
-81.80107
 11
116.9629
 21
-82.31916
  0
LINE
  8
0
  6
CONTINUOUS
 62
     7
 10
115.7899
 20
-81.80107
 11
115.7899
 21
-82.05386
  0
LINE
  8
0
  6
CONTINUOUS
 62
     7
 10
114.2258
 20
-84.20361
 11
114.2258
 21
-88.08657
  0
LINE
  8
0
  6
CONTINUOUS
 62
     7
 10
111.0001
 20
-84.22427
 11
115.5435
 21
-82.41731
  0
LINE
  8
0
  6
CONTINUOUS
 62
     7
 10
111.0
 20
-85.48662
 11
114.2259
 21
-84.20366
  0
LINE
  8
0
  6
CONTINUOUS
 62
     7
 10
114.2258
 20
-88.08657
 11
115.7899
 21
-88.08657
  0
LINE
  8
0
  6
CONTINUOUS
 62
     7
 10
115.7899
 20
-83.58156
 11
115.7899
 21
-88.08657
  0
LINE
  8
0
  6
CONTINUOUS
 62
     7
 10
115.79
 20
-83.58161
 11
116.2235
 21
-83.40919
  0
LINE
  8
0
  6
CONTINUOUS
 62
     7
 10
99.87858
 20
-81.44916
 11
101.1873
 21
-81.44916
  0
LINE
  8
0
  6
CONTINUOUS
 62
     7
 10
103.1309
 20
-81.44916
 11
103.6294
 21
-81.44916
  0
LINE
  8
0
  6
CONTINUOUS
 62
     7
 10
106.6011
 20
-81.44916
 11
108.1652
 21
-81.44916
  0
LINE
  8
0
  6
CONTINUOUS
 62
     7
 10
103.1309
 20
-82.23119
 11
103.6294
 21
-82.23119
  0
LINE
  8
0
  6
CONTINUOUS
 62
     7
 10
103.1309
 20
-81.44916
 11
103.1309
 21
-82.23119
  0
LINE
  8
0
  6
CONTINUOUS
 62
     7
 10
103.6294
 20
-81.44916
 11
103.6294
 21
-82.23119
  0
LINE
  8
0
  6
CONTINUOUS
 62
     7
 10
103.9227
 20
-81.44916
 11
103.9227
 21
-82.23119
  0
LINE
  8
0
  6
CONTINUOUS
 62
     7
 10
104.4799
 20
-81.44916
 11
104.4799
 21
-82.23119
  0
LINE
  8
0
  6
CONTINUOUS
 62
     7
 10
103.9227
 20
-81.44916
 11
104.4799
 21
-81.44916
  0
LINE
  8
0
  6
CONTINUOUS
 62
     7
 10
103.9227
 20
-82.23119
 11
104.4799
 21
-82.23119
  0
LINE
  8
0
  6
CONTINUOUS
 62
     7
 10
77.19101
 20
79.88764
 11
131.1236
 21
79.88764
  0
LINE
  8
0
  6
CONTINUOUS
 62
     7
 10
77.19101
 20
90.00001
 11
77.19101
 21
79.88764
  0
LINE
  8
0
  6
CONTINUOUS
 62
     7
 10
77.19101
 20
-79.88764
 11
77.19101
 21
-90.00001
  0
LINE
  8
0
  6
CONTINUOUS
 62
     2
 10
26.50002
 20
47.15813
 11
23.50002
 21
48.25004
  0
LINE
  8
0
  6
CONTINUOUS
 62
     2
 10
26.50003
 20
49.34189
 11
23.50003
 21
48.24998
  0
LINE
  8
0
  6
CONTINUOUS
 62
     7
 10
-91.3633562
 20
-78.11945
 11
-83.54176524
 21
-78.11945
  0
LINE
  8
0
  6
CONTINUOUS
 62
     2
 10
40.0
 20
35.5
 11
40.0
 21
49.25
  0
LINE
  8
0
  6
CONTINUOUS
 62
     2
 10
23.5
 20
38.25
 11
23.5
 21
59.25
  0
LINE
  8
0
  6
CONTINUOUS
 62
     2
 10
7.0
 20
30.5
 11
7.0
 21
69.25
  0
LINE
  8
0
  6
CONTINUOUS
 62
     2
 10
48.0
 20
34.65
 11
48.0
 21
69.25
  0
LINE
  8
0
  6
CONTINUOUS
 62
     2
 10
7.0
 20
68.25
 11
48.0
 21
68.25
  0
LINE
  8
0
  6
CONTINUOUS
 62
     2
 10
23.5
 20
58.25
 11
48.0
 21
58.25
  0
LINE
  8
0
  6
CONTINUOUS
 62
     2
 10
23.5
 20
48.25
 11
40.0
 21
48.25
  0
LINE
  8
0
  6
CONTINUOUS
 62
     7
 10
-86.54176524
 20
-77.02755
 11
-83.54176524
 21
-78.11946
  0
LINE
  8
0
  6
CONTINUOUS
 62
     7
 10
-86.54178524
 20
-79.21136
 11
-83.54178524
 21
-78.11945
  0
LINE
  8
0
  6
CONTINUOUS
 62
     2
 10
45.0
 20
69.34189
 11
48.0
 21
68.24998
  0
LINE
  8
0
  6
CONTINUOUS
 62
     2
 10
44.99997
 20
67.15809
 11
47.99997
 21
68.25
  0
LINE
  8
0
  6
CONTINUOUS
 62
     2
 10
45.0
 20
59.34188
 11
48.0
 21
58.24997
  0
LINE
  8
0
  6
CONTINUOUS
 62
     2
 10
44.99997
 20
57.15809
 11
47.99998
 21
58.25
  0
LINE
  8
0
  6
CONTINUOUS
 62
     2
 10
37.0
 20
49.34188
 11
40.0
 21
48.24997
  0
LINE
  8
0
  6
CONTINUOUS
 62
     2
 10
36.99998
 20
47.15809
 11
39.99998
 21
48.25
  0
LINE
  8
0
  6
CONTINUOUS
 62
     2
 10
10.00002
 20
67.15813
 11
7.00002
 21
68.25004
  0
LINE
  8
0
  6
CONTINUOUS
 62
     2
 10
10.00003
 20
69.3419
 11
7.00003
 21
68.24999
  0
LINE
  8
0
  6
CONTINUOUS
 62
     2
 10
26.50002
 20
57.15813
 11
23.50002
 21
58.25004
  0
LINE
  8
0
  6
CONTINUOUS
 62
     2
 10
26.50003
 20
59.34189
 11
23.50003
 21
58.24998
  0
LINE
  8
0
  6
CENTER
 62
     2
 10
-49.46976
 20
29.0
 11
-30.63348
 21
29.0
  0
LINE
  8
0
  6
CENTER
 62
     2
 10
-40.0
 20
39.31268
 11
-40.0
 21
18.51032
  0
LINE
  8
0
  6
CONTINUOUS
 62
     7
 10
-48.0
 20
33.6188
 11
-48.0
 21
24.3812
  0
LINE
  8
0
  6
CONTINUOUS
 62
     7
 10
-48.0
 20
24.3812
 11
-40.0
 21
19.7624
  0
LINE
  8
0
  6
CONTINUOUS
 62
     7
 10
-40.0
 20
19.76239
 11
-32.0
 21
24.3812
  0
LINE
  8
0
  6
CONTINUOUS
 62
     7
 10
-32.0
 20
24.3812
 11
-32.0
 21
33.6188
  0
LINE
  8
0
  6
CONTINUOUS
 62
     7
 10
-32.0
 20
33.6188
 11
-40.0
 21
38.23761
  0
LINE
  8
0
  6
CONTINUOUS
 62
     7
 10
-40.0
 20
38.23761
 11
-48.0
 21
33.61881
  0
LINE
  8
0
  6
CONTINUOUS
 62
     7
 10
39.5
 20
36.0
 11
23.5
 21
36.0
  0
LINE
  8
0
  6
CONTINUOUS
 62
     7
 10
39.5
 20
22.0
 11
23.5
 21
22.0
  0
LINE
  8
0
  6
CONTINUOUS
 62
     7
 10
39.5
 20
36.0
 11
39.5
 21
22.0
  0
LINE
  8
0
  6
CONTINUOUS
 62
     7
 10
40.0
 20
35.5
 11
40.0
 21
22.5
  0
LINE
  8
0
  6
CONTINUOUS
 62
     7
 10
40.0
 20
35.5
 11
39.5
 21
36.0
  0
LINE
  8
0
  6
CONTINUOUS
 62
     7
 10
39.5
 20
22.0
 11
40.0
 21
22.5
  0
LINE
  8
0
  6
CONTINUOUS
 62
     7
 10
25.0
 20
22.6
 11
40.0
 21
22.6
  0
LINE
  8
0
  6
CONTINUOUS
 62
     7
 10
25.0
 20
35.4
 11
40.0
 21
35.4
  0
LINE
  8
0
  6
CONTINUOUS
 62
     7
 10
40.0
 20
22.85
 11
44.29726
 21
22.85
  0
LINE
  8
0
  6
CONTINUOUS
 62
     7
 10
40.0
 20
35.15
 11
41.00148
 21
35.15
  0
LINE
  8
0
  6
CONTINUOUS
 62
     7
 10
47.5
 20
35.15
 11
47.5
 21
22.85
  0
LINE
  8
0
  6
CONTINUOUS
 62
     7
 10
48.0
 20
34.65
 11
48.0
 21
23.35
  0
LINE
  8
0
  6
CONTINUOUS
 62
     7
 10
47.49999
 20
35.14998
 11
47.99999
 21
34.64998
  0
LINE
  8
0
  6
CONTINUOUS
 62
     7
 10
47.99999
 20
23.35001
 11
47.49999
 21
22.85001
  0
LINE
  8
0
  6
DASHED
 62
     7
 10
44.5
 20
31.5
 11
48.0
 21
31.5
  0
LINE
  8
0
  6
DASHED
 62
     7
 10
44.5
 20
31.0
 11
48.0
 21
31.0
  0
LINE
  8
0
  6
DASHED
 62
     7
 10
44.5
 20
27.0
 11
48.0
 21
27.0
  0
LINE
  8
0
  6
DASHED
 62
     7
 10
44.5
 20
26.5
 11
48.0
 21
26.5
  0
LINE
  8
0
  6
CONTINUOUS
 62
     7
 10
7.00001
 20
30.5
 11
7.00001
 21
29.0
  0
LINE
  8
0
  6
CONTINUOUS
 62
     7
 10
7.00001
 20
27.5
 11
7.00001
 21
29.0
  0
LINE
  8
0
  6
CONTINUOUS
 62
     7
 10
7.0
 20
27.5
 11
7.5
 21
27.0
  0
LINE
  8
0
  6
CONTINUOUS
 62
     7
 10
7.50001
 20
27.0
 11
7.50001
 21
31.0
  0
LINE
  8
0
  6
CONTINUOUS
 62
     7
 10
7.5
 20
30.99999
 11
7.0
 21
30.49999
  0
LINE
  8
0
  6
CONTINUOUS
 62
     7
 10
17.0
 20
31.0
 11
17.0
 21
27.0
  0
LINE
  8
0
  6
CONTINUOUS
 62
     7
 10
19.0
 20
34.75
 11
19.0
 21
23.25
  0
LINE
  8
0
  6
CONTINUOUS
 62
     7
 10
18.0
 20
31.0
 11
18.0
 21
27.0
  0
LINE
  8
0
  6
CONTINUOUS
 62
     7
 10
18.0
 20
31.0
 11
18.5
 21
31.5
  0
LINE
  8
0
  6
CONTINUOUS
 62
     7
 10
18.99999
 20
34.74999
 11
19.49999
 21
35.24999
  0
LINE
  8
0
  6
CONTINUOUS
 62
     7
 10
19.5
 20
22.75
 11
19.5
 21
36.0
  0
LINE
  8
0
  6
CONTINUOUS
 62
     7
 10
17.00001
 20
30.5
 11
17.5
 21
31.0
  0
LINE
  8
0
  6
CONTINUOUS
 62
     7
 10
17.00001
 20
27.49999
 11
17.50001
 21
27.0
  0
LINE
  8
0
  6
CONTINUOUS
 62
     7
 10
18.0
 20
27.0
 11
18.5
 21
26.5
  0
LINE
  8
0
  6
CONTINUOUS
 62
     7
 10
18.5
 20
26.5
 11
18.5
 21
31.5
  0
LINE
  8
0
  6
CONTINUOUS
 62
     7
 10
19.00001
 20
23.25001
 11
19.50001
 21
22.75001
  0
LINE
  8
0
  6
CONTINUOUS
 62
     7
 10
19.5
 20
22.75
 11
19.5
 21
22.0
  0
LINE
  8
0
  6
CONTINUOUS
 62
     7
 10
20.5
 20
22.0
 11
19.5
 21
22.0
  0
LINE
  8
0
  6
CONTINUOUS
 62
     7
 10
20.5
 20
36.99999
 11
20.83494
 21
38.24999
  0
LINE
  8
0
  6
CONTINUOUS
 62
     7
 10
20.83494
 20
38.25
 11
23.5
 21
38.25
  0
LINE
  8
0
  6
CONTINUOUS
 62
     7
 10
20.5
 20
33.75
 11
20.5
 21
37.0
  0
LINE
  8
0
  6
CONTINUOUS
 62
     7
 10
20.5
 20
36.0
 11
19.5
 21
36.0
  0
LINE
  8
0
  6
CONTINUOUS
 62
     7
 10
23.5
 20
38.25
 11
23.5
 21
36.0
  0
LINE
  8
0
  6
CONTINUOUS
 62
     7
 10
20.5
 20
36.0
 11
20.5
 21
21.0
  0
LINE
  8
0
  6
CONTINUOUS
 62
     7
 10
20.5
 20
21.0
 11
20.83494
 21
19.75
  0
LINE
  8
0
  6
CONTINUOUS
 62
     7
 10
20.83494
 20
19.75
 11
23.5
 21
19.75
  0
LINE
  8
0
  6
CONTINUOUS
 62
     7
 10
23.5
 20
19.75
 11
23.5
 21
36.0
  0
LINE
  8
0
  6
CONTINUOUS
 62
     7
 10
23.5
 20
36.0
 11
25.0
 21
35.4
  0
LINE
  8
0
  6
CONTINUOUS
 62
     7
 10
25.0
 20
36.0
 11
25.0
 21
22.0
  0
LINE
  8
0
  6
CONTINUOUS
 62
     7
 10
23.5
 20
21.99999
 11
25.00001
 21
22.59999
  0
LINE
  8
0
  6
CONTINUOUS
 62
     7
 10
20.91334
 20
33.75
 11
23.5
 21
33.75
  0
LINE
  8
0
  6
CONTINUOUS
 62
     7
 10
20.91333
 20
24.25
 11
23.5
 21
24.25
  0
LINE
  8
0
  6
CONTINUOUS
 62
     7
 10
7.50001
 20
31.0
 11
18.0
 21
31.0
  0
LINE
  8
0
  6
CONTINUOUS
 62
     7
 10
7.00001
 20
30.5
 11
17.0
 21
30.5
  0
LINE
  8
0
  6
CONTINUOUS
 62
     7
 10
7.00001
 20
27.5
 11
17.0
 21
27.5
  0
LINE
  8
0
  6
CONTINUOUS
 62
     7
 10
7.50001
 20
27.0
 11
18.0
 21
27.0
  0
LINE
  8
0
  6
CONTINUOUS
 62
     7
 10
18.5
 20
31.5
 11
19.0
 21
31.5
  0
LINE
  8
0
  6
CONTINUOUS
 62
     7
 10
18.5
 20
26.5
 11
19.0
 21
26.5
  0
LINE
  8
0
  6
CENTER
 62
     2
 10
4.88189
 20
29.0
 11
50.44168
 21
29.0
  0
LINE
  8
0
  6
PHANTOM
 62
     2
 10
41.38515
 20
35.64999
 11
44.94887
 21
22.34999
  0
LINE
  8
0
  6
PHANTOM
 62
     2
 10
40.86751
 20
35.65
 11
44.43123
 21
22.34999
  0
LINE
  8
0
  6
CONTINUOUS
 62
     7
 10
41.55457
 20
35.15
 11
47.5
 21
35.15
  0
LINE
  8
0
  6
CONTINUOUS
 62
     7
 10
44.8149
 20
22.85
 11
47.5
 21
22.85
  0
LINE
  8
0
  6
CENTER
 62
     2
 10
-71.12361
 20
-26.28122
 11
-71.12361
 21
-35.79154
  0
LINE
  8
0
  6
CENTER
 62
     2
 10
-75.31809
 20
-31.0
 11
-66.9356
 21
-31.0
  0
LINE
  8
0
  6
CONTINUOUS
 62
     7
 10
-74.62361
 20
-28.97927
 11
-74.62361
 21
-33.02073
  0
LINE
  8
0
  6
CONTINUOUS
 62
     7
 10
-74.62361
 20
-33.02073
 11
-71.12361
 21
-35.04145
  0
LINE
  8
0
  6
CONTINUOUS
 62
     7
 10
-71.12362
 20
-35.04145
 11
-67.62361
 21
-33.02073
  0
LINE
  8
0
  6
CONTINUOUS
 62
     7
 10
-67.62361
 20
-33.02073
 11
-67.62361
 21
-28.97927
  0
LINE
  8
0
  6
CONTINUOUS
 62
     7
 10
-67.62361
 20
-28.97927
 11
-71.12361
 21
-26.95855
  0
LINE
  8
0
  6
CONTINUOUS
 62
     7
 10
-71.12361
 20
-26.95855
 11
-74.62362
 21
-28.97927
  0
LINE
  8
0
  6
CONTINUOUS
 62
     7
 10
-38.66602
 20
-35.0
 11
-36.43398
 21
-35.0
  0
LINE
  8
0
  6
CONTINUOUS
 62
     7
 10
-38.66602
 20
-27.0
 11
-36.43398
 21
-27.0
  0
LINE
  8
0
  6
CONTINUOUS
 62
     7
 10
-36.3
 20
-34.50002
 11
-36.43397
 21
-35.00002
  0
LINE
  8
0
  6
CONTINUOUS
 62
     7
 10
-36.3
 20
-27.5
 11
-36.3
 21
-34.5
  0
LINE
  8
0
  6
CONTINUOUS
 62
     7
 10
-36.29999
 20
-27.5
 11
-36.43397
 21
-27.0
  0
LINE
  8
0
  6
CONTINUOUS
 62
     7
 10
-38.8
 20
-27.49999
 11
-38.66602
 21
-26.99999
  0
LINE
  8
0
  6
CONTINUOUS
 62
     7
 10
-38.79998
 20
-34.5
 11
-38.66601
 21
-35.0
  0
LINE
  8
0
  6
CONTINUOUS
 62
     7
 10
-38.8
 20
-27.5
 11
-38.8
 21
-34.5
  0
LINE
  8
0
  6
CONTINUOUS
 62
     7
 10
-38.56582
 20
-33.15145
 11
-36.53418
 21
-33.15145
  0
LINE
  8
0
  6
CONTINUOUS
 62
     7
 10
-38.5658
 20
-28.84856
 11
-36.53416
 21
-28.84856
  0
LINE
  8
0
  6
CENTER
 62
     2
 10
-39.52113
 20
-31.0
 11
-35.57068
 21
-31.0
  0
LINE
  8
0
  6
CENTER
 62
     2
 10
35.83333
 20
-19.9798
 11
35.83333
 21
-42.41382
  0
LINE
  8
0
  6
CENTER
 62
     2
 10
25.38433
 20
-31.0
 11
45.8796
 21
-31.0
  0
LINE
  8
0
  6
CONTINUOUS
 62
     7
 10
27.33333
 20
-26.09252
 11
27.33333
 21
-35.90747
  0
LINE
  8
0
  6
CONTINUOUS
 62
     7
 10
27.33333
 20
-35.90748
 11
35.83333
 21
-40.81496
  0
LINE
  8
0
  6
CONTINUOUS
 62
     7
 10
35.83333
 20
-40.81496
 11
44.33333
 21
-35.90748
  0
LINE
  8
0
  6
CONTINUOUS
 62
     7
 10
44.33333
 20
-35.90748
 11
44.33333
 21
-26.09252
  0
LINE
  8
0
  6
CONTINUOUS
 62
     7
 10
44.33333
 20
-26.09252
 11
35.83333
 21
-21.18505
  0
LINE
  8
0
  6
CONTINUOUS
 62
     7
 10
35.83333
 20
-21.18504
 11
27.33333
 21
-26.09252
  0
LINE
  8
0
  6
CONTINUOUS
 62
     7
 10
74.78868
 20
-21.24999
 11
75.12362
 21
-22.49999
  0
LINE
  8
0
  6
CONTINUOUS
 62
     7
 10
71.37361
 20
-21.25
 11
74.78868
 21
-21.25
  0
LINE
  8
0
  6
CONTINUOUS
 62
     7
 10
71.12361
 20
-22.5
 11
71.37361
 21
-22.5
  0
LINE
  8
0
  6
CONTINUOUS
 62
     7
 10
71.12361
 20
-22.5
 11
71.12361
 21
-24.0
  0
LINE
  8
0
  6
CONTINUOUS
 62
     7
 10
71.37361
 20
-21.25
 11
71.37361
 21
-22.5
  0
LINE
  8
0
  6
CONTINUOUS
 62
     7
 10
75.12361
 20
-22.5
 11
75.12361
 21
-39.5
  0
LINE
  8
0
  6
CONTINUOUS
 62
     7
 10
71.12361
 20
-39.5
 11
71.12361
 21
-24.0
  0
LINE
  8
0
  6
CONTINUOUS
 62
     7
 10
71.12361
 20
-39.5
 11
71.37361
 21
-39.5
  0
LINE
  8
0
  6
CONTINUOUS
 62
     7
 10
71.37361
 20
-40.75
 11
71.37361
 21
-22.5
  0
LINE
  8
0
  6
CONTINUOUS
 62
     7
 10
71.37361
 20
-40.75
 11
74.78868
 21
-40.75
  0
LINE
  8
0
  6
CONTINUOUS
 62
     7
 10
74.78868
 20
-40.75001
 11
75.12362
 21
-39.5
  0
LINE
  8
0
  6
CONTINUOUS
 62
     7
 10
71.37361
 20
-26.0
 11
74.70401
 21
-26.0
  0
LINE
  8
0
  6
CONTINUOUS
 62
     7
 10
71.37361
 20
-36.0
 11
74.70401
 21
-36.0
  0
LINE
  8
0
  6
CENTER
 62
     2
 10
70.19698
 20
-31.0
 11
76.45634
 21
-31.0
  0
ARC
  8
0
  6
CONTINUOUS
 62
     7
 10
96.53259
 20
-83.10118
 40
0.78202
 50
0.0
 51
89.99999
  0
ARC
  8
0
  6
CONTINUOUS
 62
     7
 10
102.9843
 20
-87.30457
 40
0.78202
 50
270.0
 51
0.0
  0
ARC
  8
0
  6
CONTINUOUS
 62
     7
 10
102.5933
 20
-83.49218
 40
1.17303
 50
0.0
 51
89.99999
  0
ARC
  8
0
  6
CONTINUOUS
 62
     7
 10
109.7292
 20
-83.10118
 40
0.78202
 50
0.0
 51
89.99999
  0
ARC
  8
0
  6
CONTINUOUS
 62
     7
 10
109.7292
 20
-83.72594
 40
0.78202
 50
295.0
 51
0.0
  0
ARC
  8
0
  6
CONTINUOUS
 62
     7
 10
115.7899
 20
-82.31916
 40
1.17304
 50
291.6882
 51
0.0
  0
ARC
  8
0
  6
CONTINUOUS
 62
     7
 10
115.3989
 20
-82.05386
 40
0.39101
 50
291.6885
 51
0.0
  0
CIRCLE
  8
0
  6
CONTINUOUS
 62
     7
 10
-40.0
 20
29.0
 40
7.0
  0
CIRCLE
  8
0
  6
CONTINUOUS
 62
     7
 10
-40.0
 20
29.0
 40
6.25
  0
CIRCLE
  8
0
  6
CONTINUOUS
 62
     7
 10
-40.0
 20
29.0
 40
5.75
  0
CIRCLE
  8
0
  6
CONTINUOUS
 62
     7
 10
-40.0
 20
29.0
 40
2.0
  0
CIRCLE
  8
0
  6
CONTINUOUS
 62
     7
 10
-40.0
 20
29.0
 40
1.5
  0
CIRCLE
  8
0
  6
CONTINUOUS
 62
     7
 10
-40.0
 20
29.0
 40
2.5
  0
CIRCLE
  8
0
  6
CONTINUOUS
 62
     7
 10
-40.0
 20
29.0
 40
8.0
  0
ARC
  8
0
  6
CONTINUOUS
 62
     7
 10
48.0
 20
29.0
 40
27.5
 50
170.0536
 51
189.9464
  0
ARC
  8
0
  6
CONTINUOUS
 62
     7
 10
34.49941
 20
37.12914
 40
14.0
 50
180.5285
 51
193.9672
  0
ARC
  8
0
  6
CONTINUOUS
 62
     7
 10
34.49941
 20
20.87086
 40
14.0
 50
166.0327
 51
179.4715
  0
CIRCLE
  8
0
  6
CONTINUOUS
 62
     7
 10
-71.12361
 20
-31.0
 40
2.0
  0
CIRCLE
  8
0
  6
CONTINUOUS
 62
     7
 10
-71.12361
 20
-31.0
 40
1.5
  0
CIRCLE
  8
0
  6
CONTINUOUS
 62
     7
 10
-71.12361
 20
-31.0
 40
3.5
  0
ARC
  8
0
  6
CONTINUOUS
 62
     7
 10
-34.8
 20
-27.5
 40
4.0
 50
180.0
 51
199.7025
  0
ARC
  8
0
  6
CONTINUOUS
 62
     7
 10
-34.8
 20
-34.5
 40
4.0
 50
160.2975
 51
179.9999
  0
ARC
  8
0
  6
CONTINUOUS
 62
     7
 10
-28.8
 20
-31.0
 40
10.0
 50
167.576
 51
192.424
  0
ARC
  8
0
  6
CONTINUOUS
 62
     7
 10
-40.3
 20
-27.5
 40
4.0
 50
340.2974
 51
0.0
  0
ARC
  8
0
  6
CONTINUOUS
 62
     7
 10
-46.3
 20
-31.0
 40
10.0
 50
347.576
 51
12.424
  0
ARC
  8
0
  6
CONTINUOUS
 62
     7
 10
-40.3
 20
-34.5
 40
4.0
 50
0.0
 51
19.70255
  0
CIRCLE
  8
0
  6
CONTINUOUS
 62
     7
 10
35.83333
 20
-31.0
 40
6.4
  0
CIRCLE
  8
0
  6
CONTINUOUS
 62
     7
 10
35.83333
 20
-31.0
 40
7.0
  0
CIRCLE
  8
0
  6
CONTINUOUS
 62
     7
 10
35.83333
 20
-31.0
 40
8.5
  0
ARC
  8
0
  6
CONTINUOUS
 62
     7
 10
45.12361
 20
-31.0
 40
30.0
 50
0.0
 51
9.59407
  0
ARC
  8
0
  6
CONTINUOUS
 62
     7
 10
45.12361
 20
-31.0
 40
30.0
 50
350.4059
 51
0.0
  0
ARC
  8
0
  6
CONTINUOUS
 62
     7
 10
59.62384
 20
-22.41695
 40
15.5
 50
359.693
 51
0.0
  0
ARC
  8
0
  6
CONTINUOUS
 62
     7
 10
59.62384
 20
-22.41695
 40
15.5
 50
346.6343
 51
0.0
  0
ARC
  8
0
  6
CONTINUOUS
 62
     7
 10
59.62384
 20
-39.58305
 40
15.5
 50
359.9999
 51
13.36561
  0
TEXT
  8
0
  6
CONTINUOUS
 62
     7
 10
-104.575
 20
62.02167
 40
3.5
  1
MODEL : NSA 10*ST(10)
 41
0.8
  7
STANDARD
  0
TEXT
  8
0
  6
CONTINUOUS
 62
     7
 10
80.98867
 20
83.53382
 40
3.0
  1
DATE : OCT,1989
 41
0.8
  7
STANDARD
  0
TEXT
  8
0
  6
CONTINUOUS
 62
     7
 10
-128.0723
 20
83.29883
 40
3.5
  1
KNOCK CYLINDER
 41
0.8
  7
STANDARD
  0
TEXT
  8
0
  6
CONTINUOUS
 62
     7
 10
-113.3951
 20
-79.29445
 40
2.5
  1
NOTE : A, C, F
 41
0.8
  7
STANDARD
  0
TEXT
  8
0
  6
CONTINUOUS
 62
     7
 10
-79.30961524
 20
-79.29445
 40
2.5
  1
CATALOG
 41
0.8
  7
STANDARD
  0
TEXT
  8
0
  6
CONTINUOUS
 62
     7
 10
30.91775
 20
48.95
 40
2.5
  1
F
 41
0.8
  7
STANDARD
  0
TEXT
  8
0
  6
CONTINUOUS
 62
     7
 10
34.91775
 20
58.95
 40
2.5
  1
C
 41
0.8
  7
STANDARD
  0
TEXT
  8
0
  6
CONTINUOUS
 62
     7
 10
26.66775
 20
68.95
 40
2.5
  1
A
 41
0.8
  7
STANDARD
  0
ENDSEC
  0
EOF
