  0
SECTION
  2
HEADER
  0
ENDSEC
  0
SECTION
  2
TABLES
  0
TABLE
  2
LTYPE
 70
     4
  0
LTYPE
  2
CONTINUOUS
 70
    64
  3
Solid line
 72
    65
 73
     0
 40
0.000000
  0
LTYPE
  2
DASHED
 70
    64
  3
__ __ __ __ __ __ __ __ __ __ __ __ __ __ __
 72
    65
 73
     2
 40
3.500000
 49
2.000000
 49
-1.500000
  0
LTYPE
  2
CENTER
 70
    64
  3
____ _ ____ _ ____ _ ____ _ ____ _ ____ _ ____
 72
    65
 73
     4
 40
17.500000
 49
13.000000
 49
-1.500000
 49
1.500000
 49
-1.500000
  0
LTYPE
  2
PHANTOM
 70
    64
  3
_____ _ _ _____ _ _ _____ _ _ _____ _ _ ____  
 72
    65
 73
     6
 40
15.500000
 49
8.000000
 49
-1.500000
 49
1.500000
 49
-1.500000
 49
1.500000
 49
-1.500000
  0
LTYPE
  2
DASHED1
 70
    64
  3
__ __ __ __ __ __ __ __ __ __ __ __ __ __ __
 72
    65
 73
     2
 40
1.500000
 49
1.000000
 49
-0.500000
  0
LTYPE
  2
DASHED2
 70
    64
  3
__ __ __ __ __ __ __ __ __ __ __ __ __ __ __
 72
    65
 73
     2
 40
3.500000
 49
2.500000
 49
-1.000000
  0
LTYPE
  2
DASHED3
 70
    64
  3
__ __ __ __ __ __ __ __ __ __ __ __ __ __ __
 72
    65
 73
     2
 40
6.000000
 49
4.000000
 49
-2.000000
  0
LTYPE
  2
DASHED4
 70
    64
  3
__ __ __ __ __ __ __ __ __ __ __ __ __ __ __
 72
    65
 73
     2
 40
12.000000
 49
10.000000
 49
-2.000000
  0
LTYPE
  2
DASHED5
 70
    64
  3
__ __ __ __ __ __ __ __ __ __ __ __ __ __ __
 72
    65
 73
     2
 40
17.000000
 49
15.000000
 49
-2.000000
  0
LTYPE
  2
DASHED6
 70
    64
  3
__ __ __ __ __ __ __ __ __ __ __ __ __ __ __
 72
    65
 73
     2
 40
29.000000
 49
27.000000
 49
-2.000000
  0
LTYPE
  2
PHANTOM1
 70
    64
  3
_____ _ _ _____ _ _ _____ _ _ _____ _ _ ____  
 72
    65
 73
     6
 40
31.000000
 49
25.000000
 49
-1.500000
 49
1.000000
 49
-1.000000
 49
1.000000
 49
-1.500000
  0
LTYPE
  2
PHANTOM2
 70
    64
  3
_____ _ _ _____ _ _ _____ _ _ _____ _ _ ____  
 72
    65
 73
     6
 40
36.000000
 49
27.000000
 49
-1.500000
 49
2.500000
 49
-1.000000
 49
2.500000
 49
-1.500000
  0
LTYPE
  2
PHANTOM3
 70
    64
  3
_____ _ _ _____ _ _ _____ _ _ _____ _ _ ____  
 72
    65
 73
     6
 40
78.000000
 49
64.000000
 49
-2.000000
 49
4.000000
 49
-2.000000
 49
4.000000
 49
-2.000000
  0
LTYPE
  2
CENTER1
 70
    64
  3
____ _ ____ _ ____ _ ____ _ ____ _ ____ _ ____
 72
    65
 73
     4
 40
19.000000
 49
14.000000
 49
-1.000000
 49
3.000000
 49
-1.000000
  0
LTYPE
  2
CENTER2
 70
    64
  3
____ _ ____ _ ____ _ ____ _ ____ _ ____ _ ____
 72
    65
 73
     4
 40
28.500000
 49
25.000000
 49
-1.000000
 49
1.500000
 49
-1.000000
  0
LTYPE
  2
CENTER3
 70
    64
  3
____ _ ____ _ ____ _ ____ _ ____ _ ____ _ ____
 72
    65
 73
     4
 40
31.500000
 49
27.000000
 49
-1.000000
 49
2.500000
 49
-1.000000
  0
LTYPE
  2
CENTER4
 70
    64
  3
____ _ ____ _ ____ _ ____ _ ____ _ ____ _ ____
 72
    65
 73
     4
 40
50.000000
 49
45.000000
 49
-1.000000
 49
3.000000
 49
-1.000000
  0
LTYPE
  2
CENTER5
 70
    64
  3
____ _ ____ _ ____ _ ____ _ ____ _ ____ _ ____
 72
    65
 73
     4
 40
100.000000
 49
92.000000
 49
-2.000000
 49
4.000000
 49
-2.000000
  0
LTYPE
  2
SBK1
 70
    64
  3
______ _ _ _ ______ _ _ _ ______ _ _ _ _____  
 72
    65
 73
     8
 40
60.500000
 49
45.000000
 49
-2.000000
 49
2.500000
 49
-2.000000
 49
2.500000
 49
-2.000000
 49
2.500000
 49
-2.000000
  0
LTYPE
  2
SBK2
 70
    64
  3
______ _ _ _ ______ _ _ _ ______ _ _ _ _____  
 72
    65
 73
     8
 40
84.000000
 49
64.000000
 49
-2.000000
 49
4.000000
 49
-2.000000
 49
4.000000
 49
-2.000000
 49
4.000000
 49
-2.000000
  0
LTYPE
  2
STCH
 70
    64
  3
__ __ __ __ __ __ __ __ __ __ __ __ __ __ __
 72
    65
 73
     2
 40
3.000000
 49
1.000000
 49
-2.000000
  0
LTYPE
  2
MTCH
 70
    64
  3
_____ _ _ _____ _ _ _____ _ _ _____ _ _ ____  
 72
    65
 73
     6
 40
80.000000
 49
66.000000
 49
-2.000000
 49
4.000000
 49
-2.000000
 49
4.000000
 49
-2.000000
  0
ENDTAB
  0
TABLE
  2
LAYER
 70
     1
  0
LAYER
  2
0
 70
     0
 62
     7
  6
CONTINUOUS
  0
ENDTAB
  0
TABLE
  2
STYLE
 70
     1
  0
STYLE
  2
STANDARD
 70
     0
 40
0.000000
 41
1.000000
 50
0.000000
 71
     0
 42
0.200000
  3
txt
  4
BIGFONT
  0
ENDTAB
  0
TABLE
  2
VIEW
 70
     0
  0
ENDTAB
  0
ENDSEC
  0
SECTION
  2
BLOCKS
  0
ENDSEC
  0
SECTION
  2
ENTITIES
  0
POINT
  8
0
 10
-130.000000
 20
34.999989
  0
POINT
  8
0
 10
-130.000061
 20
-50.000031
  0
POINT
  8
0
 10
119.999992
 20
-50.000015
  0
POINT
  8
0
 10
63.999939
 20
-50.000031
  0
POINT
  8
0
 10
64.000000
 20
34.999989
  0
POINT
  8
0
 10
129.500000
 20
-50.000015
  0
LINE
  8
0
 10
-185.436783
 20
-127.279236
 11
-185.436783
 21
127.279236
  0
LINE
  8
0
 10
185.436783
 20
127.279236
 11
185.436783
 21
-127.279236
  0
LINE
  8
0
 10
-185.436783
 20
-127.279236
 11
185.436783
 21
-127.279236
  0
LINE
  8
0
 10
-185.436783
 20
127.279236
 11
185.436783
 21
127.279236
  0
LINE
  8
0
 10
-185.436783
 20
112.978195
 11
-109.164589
 21
112.978195
  0
LINE
  8
0
 10
-109.164589
 20
112.978195
 11
-109.164589
 21
127.279236
  0
LINE
  8
0
 10
109.164581
 20
-112.978210
 11
185.436783
 21
-112.978210
  0
LINE
  8
0
 10
129.190811
 20
-116.416870
 11
136.517700
 21
-116.416870
  0
LINE
  8
0
 10
129.190811
 20
-122.914322
 11
135.411774
 21
-122.914322
  0
LINE
  8
0
 10
129.190811
 20
-124.573227
 11
137.623672
 21
-124.573227
  0
LINE
  8
0
 10
129.190811
 20
-118.075790
 11
135.411774
 21
-118.075790
  0
LINE
  8
0
 10
129.190811
 20
-116.416870
 11
129.190811
 21
-118.075790
  0
LINE
  8
0
 10
137.623672
 20
-117.522827
 11
137.623672
 21
-124.573227
  0
LINE
  8
0
 10
135.411774
 20
-118.075790
 11
135.411774
 21
-122.914322
  0
LINE
  8
0
 10
138.867828
 20
-116.416870
 11
138.867828
 21
-118.075790
  0
LINE
  8
0
 10
146.747696
 20
-118.075790
 11
146.747696
 21
-123.467316
  0
LINE
  8
0
 10
144.535812
 20
-118.075790
 11
144.535812
 21
-122.914322
  0
LINE
  8
0
 10
129.190811
 20
-122.914322
 11
129.190811
 21
-124.573227
  0
LINE
  8
0
 10
138.867828
 20
-116.416870
 11
141.053345
 21
-116.416870
  0
LINE
  8
0
 10
138.867828
 20
-124.573227
 11
140.585297
 21
-124.573227
  0
LINE
  8
0
 10
138.867737
 20
-124.573166
 11
140.608780
 21
-118.075729
  0
LINE
  8
0
 10
138.867828
 20
-118.075790
 11
140.608841
 21
-118.075790
  0
LINE
  8
0
 10
140.585449
 20
-124.573372
 11
142.326401
 21
-118.075935
  0
LINE
  8
0
 10
142.876877
 20
-122.914322
 11
144.535812
 21
-122.914322
  0
LINE
  8
0
 10
142.876907
 20
-122.914337
 11
143.321396
 21
-124.573227
  0
LINE
  8
0
 10
143.321426
 20
-124.573227
 11
145.641785
 21
-124.573227
  0
LINE
  8
0
 10
142.326279
 20
-118.075790
 11
144.535812
 21
-118.075790
  0
LINE
  8
0
 10
142.770782
 20
-116.416870
 11
145.088776
 21
-116.416870
  0
LINE
  8
0
 10
141.053436
 20
-116.416916
 11
141.383087
 21
-115.186584
  0
LINE
  8
0
 10
142.770691
 20
-116.416794
 11
143.100342
 21
-115.186401
  0
LINE
  8
0
 10
148.130142
 20
-116.416870
 11
150.756775
 21
-116.416870
  0
LINE
  8
0
 10
148.130142
 20
-118.075790
 11
154.581039
 21
-118.075790
  0
LINE
  8
0
 10
150.756775
 20
-124.573227
 11
152.968643
 21
-124.573227
  0
LINE
  8
0
 10
148.130142
 20
-116.416870
 11
148.130142
 21
-118.075790
  0
LINE
  8
0
 10
156.286499
 20
-121.083908
 11
156.286499
 21
-122.914322
  0
LINE
  8
0
 10
148.130020
 20
-122.914246
 11
150.756699
 21
-121.689384
  0
LINE
  8
0
 10
148.130325
 20
-121.084053
 11
154.581238
 21
-118.075928
  0
LINE
  8
0
 10
148.130142
 20
-121.083908
 11
148.130142
 21
-122.914322
  0
LINE
  8
0
 10
152.968597
 20
-121.367157
 11
156.286514
 21
-122.914284
  0
LINE
  8
0
 10
154.171204
 20
-120.097549
 11
156.286728
 21
-121.084045
  0
LINE
  8
0
 10
156.286499
 20
-117.522827
 11
156.286499
 21
-118.406387
  0
LINE
  8
0
 10
150.756775
 20
-115.186523
 11
150.756775
 21
-116.416870
  0
LINE
  8
0
 10
152.968643
 20
-115.186523
 11
152.968643
 21
-116.416870
  0
LINE
  8
0
 10
152.968643
 20
-116.416870
 11
155.180557
 21
-116.416870
  0
LINE
  8
0
 10
150.756775
 20
-121.689514
 11
150.756775
 21
-124.573227
  0
LINE
  8
0
 10
152.968643
 20
-121.367203
 11
152.968643
 21
-124.573227
  0
LINE
  8
0
 10
154.171204
 20
-120.097557
 11
155.648163
 21
-119.408852
  0
LINE
  8
0
 10
163.751663
 20
-115.684204
 11
165.410553
 21
-115.684204
  0
LINE
  8
0
 10
156.977722
 20
-119.110947
 11
156.977722
 21
-120.896240
  0
LINE
  8
0
 10
165.410553
 20
-115.684204
 11
165.410553
 21
-116.416870
  0
LINE
  8
0
 10
163.751663
 20
-115.684204
 11
163.751663
 21
-116.041687
  0
LINE
  8
0
 10
161.539749
 20
-119.081879
 11
161.539749
 21
-124.573227
  0
LINE
  8
0
 10
156.977844
 20
-119.111031
 11
163.403137
 21
-116.555603
  0
LINE
  8
0
 10
156.977783
 20
-120.896347
 11
161.539795
 21
-119.081940
  0
LINE
  8
0
 10
161.539749
 20
-124.573227
 11
163.751663
 21
-124.573227
  0
LINE
  8
0
 10
163.751663
 20
-118.202194
 11
163.751663
 21
-124.573227
  0
LINE
  8
0
 10
163.751831
 20
-118.202301
 11
164.364929
 21
-117.958435
  0
LINE
  8
0
 10
141.249664
 20
-115.186523
 11
143.100449
 21
-115.186523
  0
LINE
  8
0
 10
145.849136
 20
-115.186523
 11
146.554138
 21
-115.186523
  0
LINE
  8
0
 10
150.756775
 20
-115.186523
 11
152.968643
 21
-115.186523
  0
LINE
  8
0
 10
145.849136
 20
-116.292480
 11
146.554138
 21
-116.292480
  0
LINE
  8
0
 10
145.849136
 20
-115.186523
 11
145.849136
 21
-116.292480
  0
LINE
  8
0
 10
146.554138
 20
-115.186523
 11
146.554138
 21
-116.292480
  0
LINE
  8
0
 10
146.968918
 20
-115.186523
 11
146.968918
 21
-116.292480
  0
LINE
  8
0
 10
147.756912
 20
-115.186523
 11
147.756912
 21
-116.292480
  0
LINE
  8
0
 10
146.968918
 20
-115.186523
 11
147.756912
 21
-115.186523
  0
LINE
  8
0
 10
146.968918
 20
-116.292480
 11
147.756912
 21
-116.292480
  0
LINE
  8
0
 10
109.164581
 20
112.978195
 11
185.436783
 21
112.978195
  0
LINE
  8
0
 10
109.164581
 20
127.279236
 11
109.164581
 21
112.978195
  0
LINE
  8
0
 10
109.164581
 20
-112.978210
 11
109.164581
 21
-127.279236
  0
LINE
  8
0
  6
CENTER
 10
-135.397583
 20
-50.000031
 11
67.423706
 21
-50.000031
  0
LINE
  8
0
 10
63.999939
 20
-38.000031
 11
63.999939
 21
-59.500031
  0
LINE
  8
0
 10
-130.000061
 20
-38.000031
 11
-130.000061
 21
-59.500031
  0
LINE
  8
0
 10
-118.000061
 20
-38.000031
 11
-118.000061
 21
-59.500031
  0
LINE
  8
0
 10
51.999939
 20
-38.000031
 11
51.999939
 21
-59.500031
  0
LINE
  8
0
 10
-130.000061
 20
-38.000031
 11
-118.000061
 21
-38.000031
  0
LINE
  8
0
 10
-130.000061
 20
-59.500031
 11
-118.000061
 21
-59.500031
  0
LINE
  8
0
 10
51.999939
 20
-38.000031
 11
63.999939
 21
-38.000031
  0
LINE
  8
0
 10
51.999939
 20
-59.500031
 11
63.999939
 21
-59.500031
  0
LINE
  8
0
 10
-118.000061
 20
-41.500031
 11
51.999939
 21
-41.500031
  0
LINE
  8
0
 10
-118.000061
 20
-58.500031
 11
51.999939
 21
-58.500031
  0
LINE
  8
0
  6
CENTER
 10
57.999939
 20
-47.000031
 11
57.999939
 21
-57.000031
  0
LINE
  8
0
  6
CENTER
 10
-83.000061
 20
-27.860994
 11
-83.000061
 21
-62.485466
  0
LINE
  8
0
  6
CENTER
 10
16.999939
 20
-28.381327
 11
16.999939
 21
-62.024597
  0
LINE
  8
0
 10
-108.000061
 20
-31.000031
 11
-84.250061
 21
-31.000031
  0
LINE
  8
0
 10
-108.000061
 20
-31.000031
 11
-108.000061
 21
-41.500031
  0
LINE
  8
0
 10
-58.000061
 20
-31.000031
 11
-58.000061
 21
-41.500031
  0
LINE
  8
0
  6
CENTER
 10
-102.000061
 20
-29.530369
 11
-102.000061
 21
-40.189941
  0
LINE
  8
0
  6
DASHED
 10
-100.770554
 20
-31.000031
 11
-100.770554
 21
-37.500031
  0
LINE
  8
0
  6
DASHED
 10
-100.500061
 20
-31.000031
 11
-100.500061
 21
-36.500031
  0
LINE
  8
0
  6
DASHED
 10
-103.500061
 20
-36.500031
 11
-100.500061
 21
-36.500031
  0
LINE
  8
0
  6
DASHED
 10
-103.229568
 20
-37.500031
 11
-100.770554
 21
-37.500031
  0
LINE
  8
0
  6
DASHED
 10
-102.000099
 20
-38.209896
 11
-100.770576
 21
-37.500034
  0
LINE
  8
0
  6
DASHED
 10
-103.229568
 20
-31.000031
 11
-103.229568
 21
-37.500031
  0
LINE
  8
0
  6
DASHED
 10
-103.500061
 20
-31.000031
 11
-103.500061
 21
-36.500031
  0
LINE
  8
0
  6
DASHED
 10
-102.000038
 20
-38.209873
 11
-103.229561
 21
-37.500008
  0
LINE
  8
0
  6
CENTER
 10
-64.000061
 20
-29.530369
 11
-64.000061
 21
-40.189941
  0
LINE
  8
0
  6
DASHED
 10
-65.500061
 20
-31.000031
 11
-65.500061
 21
-36.500031
  0
LINE
  8
0
  6
DASHED
 10
-65.229568
 20
-31.000031
 11
-65.229568
 21
-37.500031
  0
LINE
  8
0
  6
DASHED
 10
-62.500061
 20
-36.500031
 11
-65.500061
 21
-36.500031
  0
LINE
  8
0
  6
DASHED
 10
-62.770554
 20
-37.500031
 11
-65.229568
 21
-37.500031
  0
LINE
  8
0
  6
DASHED
 10
-64.000069
 20
-38.209896
 11
-65.229584
 21
-37.500034
  0
LINE
  8
0
  6
DASHED
 10
-64.000053
 20
-38.209885
 11
-62.770527
 21
-37.500019
  0
LINE
  8
0
  6
DASHED
 10
-62.770554
 20
-31.000031
 11
-62.770554
 21
-37.500031
  0
LINE
  8
0
  6
DASHED
 10
-62.500061
 20
-31.000031
 11
-62.500061
 21
-36.500031
  0
LINE
  8
0
  6
CENTER
 10
-97.000061
 20
-34.000031
 11
-91.000061
 21
-34.000031
  0
LINE
  8
0
  6
CENTER
 10
-94.000061
 20
-31.000031
 11
-94.000061
 21
-37.000031
  0
LINE
  8
0
  6
CENTER
 10
-72.000061
 20
-31.000031
 11
-72.000061
 21
-37.000031
  0
LINE
  8
0
  6
CENTER
 10
-69.000061
 20
-34.000031
 11
-75.000061
 21
-34.000031
  0
LINE
  8
0
 10
60.999939
 20
-38.000031
 11
60.999939
 21
-47.500031
  0
LINE
  8
0
 10
60.999939
 20
-47.500031
 11
63.999939
 21
-47.500031
  0
LINE
  8
0
 10
60.999939
 20
-47.400032
 11
61.499939
 21
-47.400032
  0
LINE
  8
0
 10
60.999939
 20
-40.600029
 11
61.499939
 21
-40.600029
  0
LINE
  8
0
 10
61.499939
 20
-40.600029
 11
61.499939
 21
-47.400032
  0
LINE
  8
0
 10
61.499939
 20
-40.824608
 11
63.999939
 21
-40.824608
  0
LINE
  8
0
 10
61.499939
 20
-42.412315
 11
63.999939
 21
-42.412315
  0
LINE
  8
0
 10
61.499939
 20
-45.587742
 11
63.999939
 21
-45.587742
  0
LINE
  8
0
 10
61.499939
 20
-47.175457
 11
63.999939
 21
-47.175457
  0
LINE
  8
0
  6
CENTER
 10
54.005280
 20
-44.000031
 11
67.370422
 21
-44.000031
  0
LINE
  8
0
  6
CENTER
 10
52.999939
 20
-52.000031
 11
62.999939
 21
-52.000031
  0
LINE
  8
0
 10
-127.500061
 20
-45.587742
 11
-130.000061
 21
-45.587742
  0
LINE
  8
0
  6
CENTER
 10
-120.005402
 20
-44.000031
 11
-133.370544
 21
-44.000031
  0
LINE
  8
0
 10
-127.500061
 20
-42.412315
 11
-130.000061
 21
-42.412315
  0
LINE
  8
0
 10
-127.500061
 20
-47.175457
 11
-130.000061
 21
-47.175457
  0
LINE
  8
0
  6
CENTER
 10
-119.000061
 20
-52.000031
 11
-129.000061
 21
-52.000031
  0
LINE
  8
0
  6
CENTER
 10
-124.000061
 20
-47.000031
 11
-124.000061
 21
-57.000031
  0
LINE
  8
0
 10
-127.000061
 20
-38.000031
 11
-127.000061
 21
-47.500031
  0
LINE
  8
0
 10
-127.000061
 20
-47.500031
 11
-130.000061
 21
-47.500031
  0
LINE
  8
0
 10
-127.000061
 20
-47.400032
 11
-127.500061
 21
-47.400032
  0
LINE
  8
0
 10
-127.000061
 20
-40.600029
 11
-127.500061
 21
-40.600029
  0
LINE
  8
0
 10
-127.500061
 20
-40.600029
 11
-127.500061
 21
-47.400032
  0
LINE
  8
0
 10
-127.500061
 20
-40.824608
 11
-130.000061
 21
-40.824608
  0
LINE
  8
0
 10
-81.750061
 20
-31.000031
 11
-81.750061
 21
-32.870857
  0
LINE
  8
0
 10
-84.250061
 20
-31.000031
 11
-84.250061
 21
-32.870857
  0
LINE
  8
0
 10
-81.750061
 20
-31.000031
 11
-58.000061
 21
-31.000031
  0
LINE
  8
0
 10
-118.000061
 20
-53.300034
 11
51.999939
 21
-53.300034
  0
LINE
  8
0
 10
-118.000061
 20
-54.600033
 11
51.999939
 21
-54.600033
  0
LINE
  8
0
 10
-118.000061
 20
-46.700027
 11
51.999939
 21
-46.700027
  0
LINE
  8
0
 10
-118.000061
 20
-45.400028
 11
51.999939
 21
-45.400028
  0
LINE
  8
0
 10
-81.750000
 20
29.999989
 11
-80.750000
 21
29.999989
  0
LINE
  8
0
 10
-81.750000
 20
27.499989
 11
-81.750000
 21
29.999989
  0
LINE
  8
0
 10
64.000000
 20
44.499989
 11
64.000000
 21
25.499989
  0
LINE
  8
0
 10
52.000000
 20
44.499989
 11
52.000000
 21
25.499989
  0
LINE
  8
0
 10
52.000000
 20
25.499989
 11
64.000000
 21
25.499989
  0
LINE
  8
0
 10
-118.000000
 20
43.499989
 11
52.000000
 21
43.499989
  0
LINE
  8
0
 10
-118.000000
 20
26.499989
 11
52.000000
 21
26.499989
  0
LINE
  8
0
 10
-108.000000
 20
39.999989
 11
-108.000000
 21
29.999989
  0
LINE
  8
0
 10
-58.000000
 20
39.999989
 11
-58.000000
 21
29.999989
  0
LINE
  8
0
 10
61.000000
 20
25.499989
 11
61.000000
 21
32.499989
  0
LINE
  8
0
 10
61.000000
 20
32.499989
 11
64.000000
 21
32.499989
  0
LINE
  8
0
 10
61.000000
 20
32.399990
 11
61.500000
 21
32.399990
  0
LINE
  8
0
 10
61.000000
 20
25.599987
 11
61.500000
 21
25.599987
  0
LINE
  8
0
 10
61.500000
 20
25.599987
 11
61.500000
 21
32.399990
  0
LINE
  8
0
 10
61.500000
 20
25.824566
 11
64.000000
 21
25.824566
  0
LINE
  8
0
 10
61.500000
 20
27.412273
 11
64.000000
 21
27.412273
  0
LINE
  8
0
 10
61.500000
 20
30.587696
 11
64.000000
 21
30.587696
  0
LINE
  8
0
 10
61.500000
 20
32.175419
 11
64.000000
 21
32.175419
  0
LINE
  8
0
 10
52.000000
 20
44.499989
 11
64.000000
 21
44.499989
  0
LINE
  8
0
 10
-118.000000
 20
44.499989
 11
-130.000000
 21
44.499989
  0
LINE
  8
0
 10
-130.000000
 20
44.499989
 11
-130.000000
 21
25.499989
  0
LINE
  8
0
 10
-118.000000
 20
25.499989
 11
-130.000000
 21
25.499989
  0
LINE
  8
0
 10
-81.750000
 20
39.999989
 11
-80.750000
 21
39.999989
  0
LINE
  8
0
 10
-127.000000
 20
25.499989
 11
-127.000000
 21
32.499989
  0
LINE
  8
0
 10
-127.000000
 20
32.499989
 11
-130.000000
 21
32.499989
  0
LINE
  8
0
 10
-127.000000
 20
32.399990
 11
-127.500000
 21
32.399990
  0
LINE
  8
0
 10
-127.000000
 20
25.599987
 11
-127.500000
 21
25.599987
  0
LINE
  8
0
 10
-127.500000
 20
25.599987
 11
-127.500000
 21
32.399990
  0
LINE
  8
0
 10
-127.500000
 20
25.824566
 11
-130.000000
 21
25.824566
  0
LINE
  8
0
 10
-127.500000
 20
27.412273
 11
-130.000000
 21
27.412273
  0
LINE
  8
0
 10
-127.500000
 20
30.587696
 11
-130.000000
 21
30.587696
  0
LINE
  8
0
 10
-127.500000
 20
32.175419
 11
-130.000000
 21
32.175419
  0
LINE
  8
0
 10
-84.250000
 20
39.999989
 11
-85.250000
 21
39.999989
  0
LINE
  8
0
 10
-118.000000
 20
44.499989
 11
-118.000000
 21
25.499989
  0
LINE
  8
0
 10
-118.000000
 20
39.499989
 11
-108.000000
 21
39.499989
  0
LINE
  8
0
 10
-118.000000
 20
30.499989
 11
-108.000000
 21
30.499989
  0
LINE
  8
0
 10
-105.500000
 20
42.499989
 11
-60.500000
 21
42.499989
  0
LINE
  8
0
 10
-105.500000
 20
27.499989
 11
-60.500000
 21
27.499989
  0
LINE
  8
0
 10
-58.000000
 20
30.499989
 11
52.000000
 21
30.499989
  0
LINE
  8
0
 10
-58.000000
 20
39.499989
 11
52.000000
 21
39.499989
  0
LINE
  8
0
 10
-84.250000
 20
42.499989
 11
-84.250000
 21
39.999989
  0
LINE
  8
0
 10
-85.250000
 20
39.999989
 11
-85.250000
 21
29.999989
  0
LINE
  8
0
 10
-84.250000
 20
27.499989
 11
-84.250000
 21
29.999989
  0
LINE
  8
0
 10
-84.250000
 20
29.999989
 11
-85.250000
 21
29.999989
  0
LINE
  8
0
 10
-80.750000
 20
39.999989
 11
-80.750000
 21
29.999989
  0
LINE
  8
0
 10
-81.750000
 20
42.499989
 11
-81.750000
 21
39.999989
  0
LINE
  8
0
  6
CENTER
 10
-120.005341
 20
28.999989
 11
-133.370483
 21
28.999989
  0
LINE
  8
0
  6
CENTER
 10
-124.000000
 20
32.999989
 11
-124.000000
 21
22.840393
  0
LINE
  8
0
  6
CENTER
 10
-102.000000
 20
38.499989
 11
-102.000000
 21
31.499989
  0
LINE
  8
0
  6
CENTER
 10
-135.397522
 20
34.999989
 11
67.423767
 21
34.999989
  0
LINE
  8
0
  6
CENTER
 10
-94.000000
 20
44.999989
 11
-94.000000
 21
24.999989
  0
LINE
  8
0
  6
CENTER
 10
-83.000000
 20
47.727196
 11
-83.000000
 21
22.609961
  0
LINE
  8
0
  6
CENTER
 10
-72.000000
 20
44.999989
 11
-72.000000
 21
24.999989
  0
LINE
  8
0
  6
CENTER
 10
-64.000000
 20
38.499989
 11
-64.000000
 21
31.499989
  0
LINE
  8
0
  6
CENTER
 10
17.000000
 20
47.957630
 11
17.000000
 21
22.840393
  0
LINE
  8
0
  6
CENTER
 10
54.005341
 20
28.999989
 11
67.370483
 21
28.999989
  0
LINE
  8
0
  6
CENTER
 10
58.000000
 20
32.999989
 11
58.000000
 21
22.840393
  0
LINE
  8
0
  6
CENTER
 10
119.999992
 20
-24.003078
 11
119.999992
 21
-63.176750
  0
LINE
  8
0
  6
CENTER
 10
125.999992
 20
-61.000015
 11
125.999992
 21
-51.000015
  0
LINE
  8
0
 10
110.499992
 20
-41.000015
 11
110.499992
 21
-56.500015
  0
LINE
  8
0
 10
129.500000
 20
-41.000015
 11
129.500000
 21
-56.500015
  0
LINE
  8
0
 10
113.499992
 20
-38.000015
 11
126.499992
 21
-38.000015
  0
LINE
  8
0
 10
113.499992
 20
-59.500015
 11
126.499992
 21
-59.500015
  0
LINE
  8
0
 10
112.499992
 20
-31.000015
 11
127.499992
 21
-31.000015
  0
LINE
  8
0
 10
127.499992
 20
-31.000015
 11
127.499992
 21
-38.171589
  0
LINE
  8
0
 10
112.499992
 20
-31.000015
 11
112.499992
 21
-38.171589
  0
LINE
  8
0
  6
CENTER
 10
108.999992
 20
-44.000015
 11
118.999992
 21
-44.000015
  0
LINE
  8
0
 10
117.499992
 20
-38.000015
 11
117.499992
 21
-44.000015
  0
LINE
  8
0
 10
129.500000
 20
-52.500015
 11
125.999992
 21
-52.500015
  0
LINE
  8
0
 10
111.250023
 20
-45.587688
 11
114.000023
 21
-47.175407
  0
LINE
  8
0
 10
113.999992
 20
-47.175457
 11
116.749992
 21
-45.587742
  0
LINE
  8
0
 10
116.749992
 20
-45.587727
 11
116.749992
 21
-42.412300
  0
LINE
  8
0
 10
116.750000
 20
-42.412304
 11
114.000015
 21
-40.824593
  0
LINE
  8
0
 10
113.999969
 20
-40.824612
 11
111.249977
 21
-42.412315
  0
LINE
  8
0
 10
111.249992
 20
-42.412304
 11
111.249992
 21
-45.587730
  0
LINE
  8
0
 10
123.250015
 20
-57.587723
 11
126.000031
 21
-59.175449
  0
LINE
  8
0
 10
123.249992
 20
-54.412304
 11
123.249992
 21
-57.587730
  0
LINE
  8
0
 10
126.000015
 20
-52.824596
 11
123.250031
 21
-54.412300
  0
LINE
  8
0
 10
128.750031
 20
-54.412277
 11
126.000038
 21
-52.824558
  0
LINE
  8
0
 10
128.750000
 20
-57.587727
 11
128.750000
 21
-54.412300
  0
LINE
  8
0
 10
125.999992
 20
-59.175400
 11
128.750000
 21
-57.587685
  0
LINE
  8
0
  6
DASHED
 10
112.499992
 20
-32.300014
 11
127.499992
 21
-32.300014
  0
LINE
  8
0
  6
CENTER
 10
110.849541
 20
-34.000015
 11
129.256622
 21
-34.000015
  0
LINE
  8
0
  6
DASHED
 10
112.499992
 20
-35.700016
 11
127.499992
 21
-35.700016
  0
LINE
  8
0
 10
110.499992
 20
-47.500015
 11
113.999992
 21
-47.500015
  0
LINE
  8
0
  6
CENTER
 10
113.999992
 20
-39.000015
 11
113.999992
 21
-49.000015
  0
LINE
  8
0
  6
CENTER
 10
107.230034
 20
-50.000015
 11
132.922302
 21
-50.000015
  0
LINE
  8
0
  6
CENTER
 10
108.670448
 20
-52.000015
 11
116.505180
 21
-52.000015
  0
LINE
  8
0
 10
122.499992
 20
-59.500015
 11
122.499992
 21
-56.000015
  0
LINE
  8
0
  6
CENTER
 10
131.000000
 20
-56.000015
 11
120.999992
 21
-56.000015
  0
LINE
  8
0
 10
-101.250000
 20
36.299049
 11
-84.679489
 21
65.000015
  0
LINE
  8
0
 10
-101.250000
 20
36.299049
 11
-100.473541
 21
39.196827
  0
LINE
  8
0
 10
-101.250000
 20
36.299049
 11
-99.128685
 21
38.420372
  0
LINE
  8
0
 10
-84.679489
 20
65.000015
 11
-54.666096
 21
65.000015
  0
LINE
  8
0
 10
56.750000
 20
-49.834938
 11
39.429497
 21
-19.834934
  0
LINE
  8
0
 10
56.750000
 20
-49.834938
 11
55.973545
 21
-46.937160
  0
LINE
  8
0
 10
56.749996
 20
-49.834934
 11
54.628677
 21
-47.713615
  0
LINE
  8
0
 10
9.643993
 20
-19.834934
 11
39.429497
 21
-19.834934
  0
LINE
  8
0
 10
-83.000015
 20
-90.120361
 11
16.999985
 21
-90.120361
  0
LINE
  8
0
 10
-83.000061
 20
-62.485466
 11
-83.000061
 21
-92.120361
  0
LINE
  8
0
 10
16.999939
 20
-62.024597
 11
16.999939
 21
-92.120361
  0
LINE
  8
0
 10
-83.000008
 20
-90.120361
 11
-80.102234
 21
-89.343903
  0
LINE
  8
0
 10
14.102206
 20
-90.896812
 11
16.999983
 21
-90.120354
  0
LINE
  8
0
 10
14.102205
 20
-89.343903
 11
16.999983
 21
-90.120361
  0
LINE
  8
0
 10
-83.000008
 20
-90.120354
 11
-80.102234
 21
-90.896812
  0
ARC
  8
0
 10
136.517700
 20
-117.522827
 40
1.105942
 50
0.000000
 51
90.000000
  0
ARC
  8
0
 10
145.641785
 20
-123.467316
 40
1.105949
 50
270.000000
 51
0.000000
  0
ARC
  8
0
 10
145.088776
 20
-118.075790
 40
1.658920
 50
0.000000
 51
90.000000
  0
ARC
  8
0
 10
155.180557
 20
-117.522827
 40
1.105942
 50
0.000000
 51
90.000000
  0
ARC
  8
0
 10
155.180557
 20
-118.406387
 40
1.105945
 50
294.999969
 51
0.000000
  0
ARC
  8
0
 10
163.751663
 20
-116.416870
 40
1.658920
 50
291.688385
 51
0.000000
  0
ARC
  8
0
 10
163.198654
 20
-116.041687
 40
0.552973
 50
291.688965
 51
0.000000
  0
CIRCLE
  8
0
 10
-124.000061
 20
-52.000031
 40
2.500000
  0
ARC
  8
0
 10
-83.000061
 20
-31.000031
 40
2.249998
 50
236.250977
 51
303.748962
  0
CIRCLE
  8
0
 10
-124.000061
 20
-52.000031
 40
2.067000
  0
CIRCLE
  8
0
 10
57.999939
 20
-52.000031
 40
2.067000
  0
CIRCLE
  8
0
 10
57.999939
 20
-52.000031
 40
2.500000
  0
CIRCLE
  8
0
 10
-94.000061
 20
-34.000031
 40
1.700000
  0
CIRCLE
  8
0
 10
-72.000061
 20
-34.000031
 40
1.700000
  0
CIRCLE
  8
0
 10
-102.000000
 20
34.999989
 40
1.500000
  0
CIRCLE
  8
0
 10
-102.000000
 20
34.999989
 40
1.229500
  0
CIRCLE
  8
0
 10
-64.000000
 20
34.999989
 40
1.229500
  0
CIRCLE
  8
0
 10
-64.000000
 20
34.999989
 40
1.500000
  0
ARC
  8
0
 10
-60.500000
 20
39.999989
 40
2.500000
 50
0.000000
 51
90.000000
  0
ARC
  8
0
 10
-60.500000
 20
29.999989
 40
2.500000
 50
270.000000
 51
0.000000
  0
ARC
  8
0
 10
-105.500000
 20
39.999989
 40
2.500000
 50
90.000000
 51
180.000000
  0
ARC
  8
0
 10
-105.500000
 20
29.999989
 40
2.500000
 50
180.000000
 51
270.000000
  0
CIRCLE
  8
0
 10
113.999992
 20
-44.000015
 40
1.229500
  0
CIRCLE
  8
0
 10
125.999992
 20
-56.000015
 40
3.400000
  0
ARC
  8
0
 10
125.999992
 20
-56.000015
 40
3.500000
 50
90.000000
 51
179.999939
  0
CIRCLE
  8
0
 10
125.999992
 20
-56.000015
 40
1.229500
  0
CIRCLE
  8
0
 10
125.999992
 20
-56.000015
 40
1.500000
  0
CIRCLE
  8
0
 10
113.999992
 20
-44.000015
 40
3.400000
  0
ARC
  8
0
 10
113.499992
 20
-56.500015
 40
3.000000
 50
180.000000
 51
270.000000
  0
ARC
  8
0
 10
126.499992
 20
-56.500015
 40
3.000000
 50
270.000000
 51
0.000000
  0
ARC
  8
0
 10
126.499992
 20
-41.000015
 40
3.000008
 50
0.000000
 51
90.000000
  0
ARC
  8
0
 10
113.499992
 20
-41.000015
 40
3.000000
 50
90.000000
 51
180.000000
  0
ARC
  8
0
 10
113.999992
 20
-44.000015
 40
3.500000
 50
270.000000
 51
0.000000
  0
CIRCLE
  8
0
 10
113.999992
 20
-44.000015
 40
1.500000
  0
TEXT
  8
0
 10
113.360985
 20
117.310349
 40
4.242641
  1
DATE : NOV ,1991
 50
0.000000
 41
1.052631
 51
0.000000
  7
STANDARD
  0
TEXT
  8
0
 10
-183.323395
 20
116.628723
 40
5.000000
  1
RODLESS CYLINDER
 50
0.000000
 41
0.937799
 51
0.000000
  7
STANDARD
  0
TEXT
  8
0
 10
-173.401062
 20
94.478195
 40
5.000000
  1
MODEL : ORC 10xSt(100)
 50
0.000000
 41
1.052632
 51
0.000000
  7
STANDARD
  0
TEXT
  8
0
 10
-83.679489
 20
65.350014
 40
3.500000
  1
2-M3x0.5
 50
0.000000
 41
1.052632
 51
0.000000
  7
STANDARD
  0
TEXT
  8
0
 10
9.929489
 20
-19.484936
 40
3.500000
  1
2-M5x0.8
 50
0.000000
 41
1.052632
 51
0.000000
  7
STANDARD
  0
TEXT
  8
0
 10
-43.750015
 20
-88.770363
 40
3.500000
  1
STROKE
 50
0.000000
 41
1.052632
 51
0.000000
  7
STANDARD
  0
ENDSEC
  0
EOF
