  0
SECTION
  2
HEADER
  0
ENDSEC
  0
SECTION
  2
TABLES
  0
TABLE
  2
LTYPE
 70
     4
  0
LTYPE
  2
CONTINUOUS
 70
    64
  3
Solid line
 72
    65
 73
     0
 40
0.000000
  0
LTYPE
  2
DASHED
 70
    64
  3
__ __ __ __ __ __ __ __ __ __ __ __ __ __ __
 72
    65
 73
     2
 40
3.500000
 49
2.000000
 49
-1.500000
  0
LTYPE
  2
CENTER
 70
    64
  3
____ _ ____ _ ____ _ ____ _ ____ _ ____ _ ____
 72
    65
 73
     4
 40
17.500000
 49
13.000000
 49
-1.500000
 49
1.500000
 49
-1.500000
  0
LTYPE
  2
PHANTOM
 70
    64
  3
_____ _ _ _____ _ _ _____ _ _ _____ _ _ ____  
 72
    65
 73
     6
 40
15.500000
 49
8.000000
 49
-1.500000
 49
1.500000
 49
-1.500000
 49
1.500000
 49
-1.500000
  0
LTYPE
  2
DASHED1
 70
    64
  3
__ __ __ __ __ __ __ __ __ __ __ __ __ __ __
 72
    65
 73
     2
 40
1.500000
 49
1.000000
 49
-0.500000
  0
LTYPE
  2
DASHED2
 70
    64
  3
__ __ __ __ __ __ __ __ __ __ __ __ __ __ __
 72
    65
 73
     2
 40
3.500000
 49
2.500000
 49
-1.000000
  0
LTYPE
  2
DASHED3
 70
    64
  3
__ __ __ __ __ __ __ __ __ __ __ __ __ __ __
 72
    65
 73
     2
 40
6.000000
 49
4.000000
 49
-2.000000
  0
LTYPE
  2
DASHED4
 70
    64
  3
__ __ __ __ __ __ __ __ __ __ __ __ __ __ __
 72
    65
 73
     2
 40
12.000000
 49
10.000000
 49
-2.000000
  0
LTYPE
  2
DASHED5
 70
    64
  3
__ __ __ __ __ __ __ __ __ __ __ __ __ __ __
 72
    65
 73
     2
 40
17.000000
 49
15.000000
 49
-2.000000
  0
LTYPE
  2
DASHED6
 70
    64
  3
__ __ __ __ __ __ __ __ __ __ __ __ __ __ __
 72
    65
 73
     2
 40
29.000000
 49
27.000000
 49
-2.000000
  0
LTYPE
  2
PHANTOM1
 70
    64
  3
_____ _ _ _____ _ _ _____ _ _ _____ _ _ ____  
 72
    65
 73
     6
 40
31.000000
 49
25.000000
 49
-1.500000
 49
1.000000
 49
-1.000000
 49
1.000000
 49
-1.500000
  0
LTYPE
  2
PHANTOM2
 70
    64
  3
_____ _ _ _____ _ _ _____ _ _ _____ _ _ ____  
 72
    65
 73
     6
 40
36.000000
 49
27.000000
 49
-1.500000
 49
2.500000
 49
-1.000000
 49
2.500000
 49
-1.500000
  0
LTYPE
  2
PHANTOM3
 70
    64
  3
_____ _ _ _____ _ _ _____ _ _ _____ _ _ ____  
 72
    65
 73
     6
 40
78.000000
 49
64.000000
 49
-2.000000
 49
4.000000
 49
-2.000000
 49
4.000000
 49
-2.000000
  0
LTYPE
  2
CENTER1
 70
    64
  3
____ _ ____ _ ____ _ ____ _ ____ _ ____ _ ____
 72
    65
 73
     4
 40
19.000000
 49
14.000000
 49
-1.000000
 49
3.000000
 49
-1.000000
  0
LTYPE
  2
CENTER2
 70
    64
  3
____ _ ____ _ ____ _ ____ _ ____ _ ____ _ ____
 72
    65
 73
     4
 40
28.500000
 49
25.000000
 49
-1.000000
 49
1.500000
 49
-1.000000
  0
LTYPE
  2
CENTER3
 70
    64
  3
____ _ ____ _ ____ _ ____ _ ____ _ ____ _ ____
 72
    65
 73
     4
 40
31.500000
 49
27.000000
 49
-1.000000
 49
2.500000
 49
-1.000000
  0
LTYPE
  2
CENTER4
 70
    64
  3
____ _ ____ _ ____ _ ____ _ ____ _ ____ _ ____
 72
    65
 73
     4
 40
50.000000
 49
45.000000
 49
-1.000000
 49
3.000000
 49
-1.000000
  0
LTYPE
  2
CENTER5
 70
    64
  3
____ _ ____ _ ____ _ ____ _ ____ _ ____ _ ____
 72
    65
 73
     4
 40
100.000000
 49
92.000000
 49
-2.000000
 49
4.000000
 49
-2.000000
  0
LTYPE
  2
SBK1
 70
    64
  3
______ _ _ _ ______ _ _ _ ______ _ _ _ _____  
 72
    65
 73
     8
 40
60.500000
 49
45.000000
 49
-2.000000
 49
2.500000
 49
-2.000000
 49
2.500000
 49
-2.000000
 49
2.500000
 49
-2.000000
  0
LTYPE
  2
SBK2
 70
    64
  3
______ _ _ _ ______ _ _ _ ______ _ _ _ _____  
 72
    65
 73
     8
 40
84.000000
 49
64.000000
 49
-2.000000
 49
4.000000
 49
-2.000000
 49
4.000000
 49
-2.000000
 49
4.000000
 49
-2.000000
  0
LTYPE
  2
STCH
 70
    64
  3
__ __ __ __ __ __ __ __ __ __ __ __ __ __ __
 72
    65
 73
     2
 40
3.000000
 49
1.000000
 49
-2.000000
  0
LTYPE
  2
MTCH
 70
    64
  3
_____ _ _ _____ _ _ _____ _ _ _____ _ _ ____  
 72
    65
 73
     6
 40
80.000000
 49
66.000000
 49
-2.000000
 49
4.000000
 49
-2.000000
 49
4.000000
 49
-2.000000
  0
ENDTAB
  0
TABLE
  2
LAYER
 70
     1
  0
LAYER
  2
0
 70
     0
 62
     7
  6
CONTINUOUS
  0
ENDTAB
  0
TABLE
  2
STYLE
 70
     1
  0
STYLE
  2
STANDARD
 70
     0
 40
0.000000
 41
1.000000
 50
0.000000
 71
     0
 42
0.200000
  3
txt
  4
BIGFONT
  0
ENDTAB
  0
TABLE
  2
VIEW
 70
     0
  0
ENDTAB
  0
ENDSEC
  0
SECTION
  2
BLOCKS
  0
ENDSEC
  0
SECTION
  2
ENTITIES
  0
POINT
  8
0
 10
-695.915710
 20
312.912140
  0
POINT
  8
0
 10
-695.915833
 20
-68.284462
  0
POINT
  8
0
 10
-695.915710
 20
-419.983521
  0
POINT
  8
0
 10
-224.879791
 20
-68.284363
  0
POINT
  8
0
 10
-443.915833
 20
-68.284462
  0
POINT
  8
0
 10
-443.915710
 20
312.912140
  0
POINT
  8
0
 10
-180.879791
 20
-68.284363
  0
POINT
  8
0
 10
-443.915710
 20
-419.983521
  0
POINT
  8
0
 10
344.078094
 20
377.765228
  0
POINT
  8
0
 10
344.078461
 20
-56.568695
  0
POINT
  8
0
 10
344.078217
 20
-444.333954
  0
POINT
  8
0
 10
866.741943
 20
-56.568676
  0
POINT
  8
0
 10
639.078369
 20
-56.568695
  0
POINT
  8
0
 10
639.078125
 20
377.765228
  0
POINT
  8
0
 10
922.741943
 20
-56.568676
  0
POINT
  8
0
 10
639.078186
 20
-444.333954
  0
LINE
  8
0
 10
617.528198
 20
-639.101501
 11
1048.989014
 21
-639.101501
  0
LINE
  8
0
 10
-617.528198
 20
639.101257
 11
-617.528198
 21
720.000244
  0
LINE
  8
0
 10
-1048.989014
 20
639.101257
 11
-617.528198
 21
639.101257
  0
LINE
  8
0
 10
-1048.989014
 20
720.000244
 11
1048.989014
 21
720.000244
  0
LINE
  8
0
 10
-1048.989014
 20
-720.000244
 11
1048.989014
 21
-720.000244
  0
LINE
  8
0
 10
1048.989014
 20
720.000244
 11
1048.989014
 21
-720.000244
  0
LINE
  8
0
 10
-1048.989014
 20
-720.000244
 11
-1048.989014
 21
720.000244
  0
LINE
  8
0
 10
617.528198
 20
-639.101501
 11
617.528198
 21
-720.000244
  0
LINE
  8
0
 10
617.528198
 20
720.000244
 11
617.528198
 21
639.101257
  0
LINE
  8
0
 10
617.528198
 20
639.101257
 11
1048.989014
 21
639.101257
  0
LINE
  8
0
 10
730.813721
 20
-667.937683
 11
766.004822
 21
-667.937683
  0
LINE
  8
0
 10
730.813721
 20
-704.692749
 11
778.517212
 21
-704.692749
  0
LINE
  8
0
 10
730.813721
 20
-695.308594
 11
766.004822
 21
-695.308594
  0
LINE
  8
0
 10
730.813721
 20
-658.553345
 11
772.260864
 21
-658.553345
  0
LINE
  8
0
 10
766.004822
 20
-667.937683
 11
766.004822
 21
-695.308594
  0
LINE
  8
0
 10
778.517212
 20
-664.809692
 11
778.517212
 21
-704.692749
  0
LINE
  8
0
 10
730.813721
 20
-695.308594
 11
730.813721
 21
-704.692749
  0
LINE
  8
0
 10
830.130493
 20
-667.937683
 11
830.130493
 21
-698.436768
  0
LINE
  8
0
 10
785.555176
 20
-658.553345
 11
785.555176
 21
-667.937683
  0
LINE
  8
0
 10
831.381897
 20
-657.849731
 11
835.839478
 21
-657.849731
  0
LINE
  8
0
 10
831.381897
 20
-651.593445
 11
835.839478
 21
-651.593445
  0
LINE
  8
0
 10
835.839478
 20
-651.593445
 11
835.839478
 21
-657.849731
  0
LINE
  8
0
 10
831.381897
 20
-651.593445
 11
831.381897
 21
-657.849731
  0
LINE
  8
0
 10
829.035522
 20
-651.593445
 11
829.035522
 21
-657.849731
  0
LINE
  8
0
 10
799.783325
 20
-651.593445
 11
809.498535
 21
-651.593445
  0
LINE
  8
0
 10
807.632568
 20
-658.552490
 11
809.497375
 21
-651.592529
  0
LINE
  8
0
 10
797.918335
 20
-658.553284
 11
799.783264
 21
-651.593323
  0
LINE
  8
0
 10
807.633667
 20
-658.553345
 11
820.746216
 21
-658.553345
  0
LINE
  8
0
 10
805.119141
 20
-667.937683
 11
817.618225
 21
-667.937683
  0
LINE
  8
0
 10
810.748535
 20
-704.692749
 11
823.874512
 21
-704.692749
  0
LINE
  8
0
 10
808.233643
 20
-695.308472
 11
810.748169
 21
-704.692383
  0
LINE
  8
0
 10
808.233826
 20
-695.308594
 11
817.618225
 21
-695.308594
  0
LINE
  8
0
 10
795.271057
 20
-704.693298
 11
805.119446
 21
-667.938110
  0
LINE
  8
0
 10
785.555176
 20
-667.937683
 11
795.403870
 21
-667.937683
  0
LINE
  8
0
 10
785.554993
 20
-704.692444
 11
795.403748
 21
-667.937256
  0
LINE
  8
0
 10
785.555176
 20
-704.692749
 11
795.270691
 21
-704.692749
  0
LINE
  8
0
 10
785.555176
 20
-658.553345
 11
797.918335
 21
-658.553345
  0
LINE
  8
0
 10
817.618225
 20
-667.937683
 11
817.618225
 21
-695.308594
  0
LINE
  8
0
 10
824.577942
 20
-651.593445
 11
829.035522
 21
-651.593445
  0
LINE
  8
0
 10
824.577942
 20
-657.849731
 11
829.035522
 21
-657.849731
  0
LINE
  8
0
 10
824.577942
 20
-651.593445
 11
824.577942
 21
-657.849731
  0
LINE
  8
0
 10
852.809265
 20
-651.593445
 11
865.321472
 21
-651.593445
  0
LINE
  8
0
 10
872.123901
 20
-679.374146
 11
880.478821
 21
-675.478271
  0
LINE
  8
0
 10
865.321472
 20
-686.556763
 11
865.321472
 21
-704.692749
  0
LINE
  8
0
 10
852.809265
 20
-688.380005
 11
852.809265
 21
-704.692749
  0
LINE
  8
0
 10
865.321472
 20
-658.553345
 11
877.833923
 21
-658.553345
  0
LINE
  8
0
 10
865.321472
 20
-651.593445
 11
865.321472
 21
-658.553345
  0
LINE
  8
0
 10
852.809265
 20
-651.593445
 11
852.809265
 21
-658.553345
  0
LINE
  8
0
 10
884.090149
 20
-664.809692
 11
884.090149
 21
-669.807861
  0
LINE
  8
0
 10
872.123962
 20
-679.374084
 11
884.090942
 21
-684.954529
  0
LINE
  8
0
 10
865.321472
 20
-686.556641
 11
884.090332
 21
-695.308594
  0
LINE
  8
0
 10
837.950745
 20
-684.954163
 11
837.950745
 21
-695.308594
  0
LINE
  8
0
 10
837.952087
 20
-684.955200
 11
874.443970
 21
-667.938721
  0
LINE
  8
0
 10
837.950806
 20
-695.308533
 11
852.809570
 21
-688.379761
  0
LINE
  8
0
 10
884.090149
 20
-684.954163
 11
884.090149
 21
-695.308594
  0
LINE
  8
0
 10
837.950745
 20
-658.553345
 11
837.950745
 21
-667.937683
  0
LINE
  8
0
 10
852.809265
 20
-704.692749
 11
865.321472
 21
-704.692749
  0
LINE
  8
0
 10
837.950745
 20
-667.937683
 11
874.442566
 21
-667.937683
  0
LINE
  8
0
 10
837.950745
 20
-658.553345
 11
852.809265
 21
-658.553345
  0
LINE
  8
0
 10
926.321106
 20
-668.653503
 11
929.788940
 21
-667.274109
  0
LINE
  8
0
 10
926.319641
 20
-668.652771
 11
926.319641
 21
-704.692749
  0
LINE
  8
0
 10
913.807068
 20
-704.692749
 11
926.319641
 21
-704.692749
  0
LINE
  8
0
 10
887.999634
 20
-683.892578
 11
913.806458
 21
-673.628845
  0
LINE
  8
0
 10
888.000305
 20
-673.793335
 11
924.347229
 21
-659.337646
  0
LINE
  8
0
 10
913.807068
 20
-673.629028
 11
913.807068
 21
-704.692749
  0
LINE
  8
0
 10
926.319641
 20
-654.408875
 11
926.319641
 21
-656.431030
  0
LINE
  8
0
 10
935.703552
 20
-654.408875
 11
935.703552
 21
-658.553467
  0
LINE
  8
0
 10
888.000305
 20
-673.793457
 11
888.000305
 21
-683.892639
  0
LINE
  8
0
 10
926.319641
 20
-654.408875
 11
935.703552
 21
-654.408875
  0
LINE
  8
0
 10
730.813721
 20
-658.553345
 11
730.813721
 21
-667.937683
  0
LINE
  8
0
 10
-50.000000
 20
-720.000244
 11
-50.000000
 21
720.000244
  0
LINE
  8
0
  6
PHANTOM
 10
-947.915894
 20
-24.284424
 11
-929.915894
 21
-24.284424
  0
LINE
  8
0
  6
PHANTOM
 10
-443.915894
 20
-24.284424
 11
-461.915894
 21
-24.284424
  0
LINE
  8
0
  6
PHANTOM
 10
-443.915894
 20
-112.284424
 11
-453.915894
 21
-112.284424
  0
LINE
  8
0
  6
PHANTOM
 10
-947.915894
 20
-112.284424
 11
-937.915894
 21
-112.284424
  0
LINE
  8
0
  6
PHANTOM
 10
-947.915894
 20
356.912262
 11
-443.915894
 21
356.912262
  0
LINE
  8
0
  6
PHANTOM
 10
-461.915894
 20
268.912262
 11
-443.915894
 21
268.912262
  0
LINE
  8
0
  6
PHANTOM
 10
-929.915894
 20
268.912262
 11
-947.915894
 21
268.912262
  0
LINE
  8
0
  6
PHANTOM
 10
-947.915771
 20
-463.983582
 11
-443.915833
 21
-463.983582
  0
LINE
  8
0
  6
PHANTOM
 10
-461.915833
 20
-375.983582
 11
-443.915771
 21
-375.983582
  0
LINE
  8
0
  6
PHANTOM
 10
-929.915771
 20
-375.983582
 11
-947.915771
 21
-375.983582
  0
LINE
  8
0
  6
PHANTOM
 10
-943.697266
 20
-433.098450
 11
-937.915771
 21
-433.098450
  0
LINE
  8
0
  6
PHANTOM
 10
-952.134277
 20
-406.868713
 11
-937.915771
 21
-406.868713
  0
LINE
  8
0
  6
PHANTOM
 10
-453.915833
 20
-406.868713
 11
-448.134338
 21
-406.868713
  0
LINE
  8
0
  6
PHANTOM
 10
-453.915833
 20
-433.098450
 11
-439.697296
 21
-433.098450
  0
LINE
  8
0
  6
PHANTOM
 10
49.078094
 20
-0.568535
 11
70.078094
 21
-0.568535
  0
LINE
  8
0
  6
PHANTOM
 10
49.077972
 20
-112.568535
 11
62.078094
 21
-112.568535
  0
LINE
  8
0
  6
PHANTOM
 10
618.078125
 20
-0.568535
 11
639.078125
 21
-0.568535
  0
LINE
  8
0
  6
PHANTOM
 10
626.078125
 20
-112.568535
 11
639.078125
 21
-112.568535
  0
LINE
  8
0
  6
PHANTOM
 10
49.078064
 20
321.765289
 11
70.078064
 21
321.765289
  0
LINE
  8
0
  6
PHANTOM
 10
49.078186
 20
433.765289
 11
639.078125
 21
433.765289
  0
LINE
  8
0
  6
PHANTOM
 10
618.078186
 20
321.765289
 11
639.078186
 21
321.765289
  0
LINE
  8
0
  6
PHANTOM
 10
49.078125
 20
-388.333801
 11
70.078125
 21
-388.333801
  0
LINE
  8
0
  6
PHANTOM
 10
49.078125
 20
-500.333801
 11
639.078064
 21
-500.333801
  0
LINE
  8
0
  6
PHANTOM
 10
618.078125
 20
-388.333801
 11
639.078125
 21
-388.333801
  0
LINE
  8
0
  6
PHANTOM
 10
626.078125
 20
-459.166199
 11
647.071167
 21
-459.166199
  0
LINE
  8
0
  6
PHANTOM
 10
626.078125
 20
-429.501404
 11
631.085083
 21
-429.501404
  0
LINE
  8
0
  6
PHANTOM
 10
62.078125
 20
-429.501404
 11
41.085083
 21
-429.501404
  0
LINE
  8
0
  6
PHANTOM
 10
62.078125
 20
-459.166199
 11
57.071167
 21
-459.166199
  0
LINE
  8
0
  6
CENTER
 10
-695.915894
 20
58.715576
 11
-695.915894
 21
-161.284424
  0
LINE
  8
0
  6
CENTER
 10
-433.915894
 20
-68.284424
 11
-957.916016
 21
-68.284424
  0
LINE
  8
0
  6
CENTER
 10
-695.915894
 20
366.912262
 11
-695.915894
 21
225.912262
  0
LINE
  8
0
  6
CENTER
 10
-957.916016
 20
312.912262
 11
-433.915894
 21
312.912262
  0
LINE
  8
0
  6
CENTER
 10
-170.879639
 20
-68.284332
 11
-311.879639
 21
-68.284332
  0
LINE
  8
0
  6
CENTER
 10
-224.879639
 20
58.715576
 11
-224.879639
 21
-161.284424
  0
LINE
  8
0
  6
CENTER
 10
-695.915771
 20
-473.983582
 11
-695.915771
 21
-332.983459
  0
LINE
  8
0
  6
CENTER
 10
-957.916016
 20
-419.983459
 11
-433.915894
 21
-419.983459
  0
LINE
  8
0
  6
CENTER
 10
39.078049
 20
-56.568680
 11
649.078003
 21
-56.568680
  0
LINE
  8
0
  6
CENTER
 10
344.078461
 20
96.431320
 11
344.078461
 21
-166.085373
  0
LINE
  8
0
  6
CENTER
 10
39.078049
 20
377.765259
 11
649.078003
 21
377.765259
  0
LINE
  8
0
  6
CENTER
 10
344.078125
 20
443.639954
 11
344.078125
 21
271.098572
  0
LINE
  8
0
  6
CENTER
 10
866.742126
 20
96.431320
 11
866.742126
 21
-168.218674
  0
LINE
  8
0
  6
CENTER
 10
760.742126
 20
-56.568707
 11
932.741882
 21
-56.568707
  0
LINE
  8
0
  6
CENTER
 10
39.078049
 20
-444.333771
 11
649.078003
 21
-444.333771
  0
LINE
  8
0
  6
CENTER
 10
344.078033
 20
-510.208466
 11
344.078033
 21
-337.667084
  0
LINE
  8
0
 10
-461.915833
 20
48.715538
 11
-461.915833
 21
-151.284454
  0
LINE
  8
0
 10
-929.915833
 20
48.715538
 11
-929.915833
 21
-151.284454
  0
LINE
  8
0
 10
-461.915894
 20
13.715538
 11
-929.915833
 21
13.715538
  0
LINE
  8
0
 10
-461.915894
 20
5.699730
 11
-929.915833
 21
5.699730
  0
LINE
  8
0
 10
-455.915833
 20
-146.284454
 11
-935.915833
 21
-146.284454
  0
LINE
  8
0
 10
-461.915833
 20
-131.204620
 11
-490.743042
 21
-131.204620
  0
LINE
  8
0
 10
-461.915833
 20
-117.271278
 11
-929.915833
 21
-117.271278
  0
LINE
  8
0
 10
-461.915833
 20
43.715538
 11
-929.915833
 21
43.715538
  0
LINE
  8
0
 10
-501.088684
 20
-131.204620
 11
-590.743042
 21
-131.204620
  0
LINE
  8
0
 10
-601.088684
 20
-131.204620
 11
-790.742981
 21
-131.204620
  0
LINE
  8
0
 10
-929.915833
 20
48.715538
 11
-461.915894
 21
48.715538
  0
LINE
  8
0
 10
-492.915741
 20
-138.016510
 11
-495.915741
 21
-139.748581
  0
LINE
  8
0
 10
-495.915741
 20
-139.748489
 11
-498.915771
 21
-138.016449
  0
LINE
  8
0
 10
-498.916138
 20
-138.016449
 11
-498.916138
 21
-134.552338
  0
LINE
  8
0
 10
-498.915833
 20
-134.552338
 11
-495.915833
 21
-132.820267
  0
LINE
  8
0
 10
-495.915833
 20
-132.820328
 11
-492.915833
 21
-134.552368
  0
LINE
  8
0
 10
-492.916138
 20
-134.552460
 11
-492.916138
 21
-138.016571
  0
LINE
  8
0
 10
-495.915710
 20
30.251427
 11
-498.915741
 21
31.983473
  0
LINE
  8
0
 10
-498.915405
 20
31.983543
 11
-498.915405
 21
35.447655
  0
LINE
  8
0
 10
-498.915802
 20
35.447647
 11
-495.915802
 21
37.179718
  0
LINE
  8
0
 10
-492.915863
 20
31.983490
 11
-495.915863
 21
30.251421
  0
LINE
  8
0
 10
-492.915405
 20
35.447594
 11
-492.915405
 21
31.983482
  0
LINE
  8
0
 10
-495.915741
 20
37.179592
 11
-492.915741
 21
35.447548
  0
LINE
  8
0
 10
-595.915710
 20
-139.748535
 11
-598.915710
 21
-138.016495
  0
LINE
  8
0
 10
-598.916138
 20
-138.016449
 11
-598.916138
 21
-134.552338
  0
LINE
  8
0
 10
-598.915771
 20
-134.552399
 11
-595.915771
 21
-132.820328
  0
LINE
  8
0
 10
-592.915771
 20
-138.016449
 11
-595.915771
 21
-139.748520
  0
LINE
  8
0
 10
-592.916199
 20
-134.552460
 11
-592.916199
 21
-138.016571
  0
LINE
  8
0
 10
-595.915833
 20
-132.820328
 11
-592.915833
 21
-134.552383
  0
LINE
  8
0
 10
-892.916199
 20
-134.552841
 11
-895.916199
 21
-132.820770
  0
LINE
  8
0
 10
-892.915466
 20
-138.016449
 11
-892.915466
 21
-134.552338
  0
LINE
  8
0
 10
-895.915649
 20
-139.748581
 11
-892.915649
 21
-138.016541
  0
LINE
  8
0
 10
-935.915833
 20
-110.284462
 11
-929.915833
 21
-110.284462
  0
LINE
  8
0
 10
-461.915833
 20
-151.284454
 11
-929.915833
 21
-151.284454
  0
LINE
  8
0
 10
-455.915833
 20
-146.284454
 11
-455.915833
 21
-114.284462
  0
LINE
  8
0
 10
-455.915833
 20
-114.284462
 11
-461.915833
 21
-114.284462
  0
LINE
  8
0
 10
-455.915833
 20
-110.284462
 11
-461.915833
 21
-110.284462
  0
LINE
  8
0
 10
-935.915833
 20
-114.284462
 11
-929.915833
 21
-114.284462
  0
LINE
  8
0
 10
-935.915833
 20
-146.284454
 11
-935.915833
 21
-114.284462
  0
LINE
  8
0
 10
-895.915588
 20
-132.820419
 11
-898.915649
 21
-134.552475
  0
LINE
  8
0
 10
-929.915771
 20
-131.204620
 11
-901.088562
 21
-131.204620
  0
LINE
  8
0
 10
-795.915649
 20
-132.820419
 11
-798.915649
 21
-134.552460
  0
LINE
  8
0
 10
-798.915466
 20
-134.552460
 11
-798.915466
 21
-138.016571
  0
LINE
  8
0
 10
-798.915710
 20
-138.016296
 11
-795.915710
 21
-139.748352
  0
LINE
  8
0
 10
-792.915955
 20
-134.552567
 11
-795.915955
 21
-132.820496
  0
LINE
  8
0
 10
-792.915466
 20
-138.016449
 11
-792.915466
 21
-134.552338
  0
LINE
  8
0
 10
-795.915771
 20
-139.748627
 11
-792.915710
 21
-138.016571
  0
LINE
  8
0
 10
-898.915527
 20
-138.016220
 11
-895.915527
 21
-139.748291
  0
LINE
  8
0
 10
-890.742920
 20
-131.204620
 11
-801.088562
 21
-131.204620
  0
LINE
  8
0
 10
-895.915527
 20
37.179394
 11
-898.915527
 21
35.447353
  0
LINE
  8
0
 10
-898.916199
 20
35.447594
 11
-898.916199
 21
31.983482
  0
LINE
  8
0
 10
-898.915955
 20
31.983248
 11
-895.915955
 21
30.251177
  0
LINE
  8
0
 10
-892.915955
 20
35.447483
 11
-895.915955
 21
37.179554
  0
LINE
  8
0
 10
-892.916199
 20
31.983543
 11
-892.916199
 21
35.447655
  0
LINE
  8
0
 10
-895.915649
 20
30.251293
 11
-892.915649
 21
31.983339
  0
LINE
  8
0
 10
-898.915466
 20
-134.552460
 11
-898.915466
 21
-138.016571
  0
LINE
  8
0
  6
CENTER
 10
-895.915771
 20
-126.284462
 11
-895.915771
 21
-146.284454
  0
LINE
  8
0
  6
CENTER
 10
-905.915771
 20
-136.284454
 11
-885.915771
 21
-136.284454
  0
LINE
  8
0
  6
CENTER
 10
-795.915771
 20
-126.284462
 11
-795.915771
 21
-146.284454
  0
LINE
  8
0
  6
CENTER
 10
-805.915771
 20
-136.284454
 11
-785.915771
 21
-136.284454
  0
LINE
  8
0
  6
CENTER
 10
-595.915833
 20
-126.284462
 11
-595.915833
 21
-146.284454
  0
LINE
  8
0
  6
CENTER
 10
-585.915833
 20
-136.284454
 11
-605.915833
 21
-136.284454
  0
LINE
  8
0
  6
CENTER
 10
-495.915833
 20
-126.284462
 11
-495.915833
 21
-146.284454
  0
LINE
  8
0
  6
CENTER
 10
-485.915833
 20
-136.284454
 11
-505.915833
 21
-136.284454
  0
LINE
  8
0
  6
CENTER
 10
-495.915833
 20
43.715538
 11
-495.915833
 21
23.715538
  0
LINE
  8
0
  6
CENTER
 10
-485.915833
 20
33.715538
 11
-505.915833
 21
33.715538
  0
LINE
  8
0
  6
CENTER
 10
-595.915833
 20
42.715538
 11
-595.915833
 21
24.715538
  0
LINE
  8
0
  6
CENTER
 10
-586.915833
 20
33.715538
 11
-604.915833
 21
33.715538
  0
LINE
  8
0
  6
CENTER
 10
-795.915771
 20
42.715538
 11
-795.915771
 21
24.715538
  0
LINE
  8
0
  6
CENTER
 10
-804.915771
 20
33.715538
 11
-786.915771
 21
33.715538
  0
LINE
  8
0
  6
CENTER
 10
-895.915771
 20
43.715538
 11
-895.915771
 21
23.715538
  0
LINE
  8
0
  6
CENTER
 10
-905.915771
 20
33.715538
 11
-885.915771
 21
33.715538
  0
LINE
  8
0
 10
-461.915710
 20
327.912140
 11
-461.915710
 21
235.912140
  0
LINE
  8
0
 10
-929.915710
 20
327.912140
 11
-929.915710
 21
235.912140
  0
LINE
  8
0
 10
-929.915710
 20
327.912140
 11
-461.915710
 21
327.912140
  0
LINE
  8
0
 10
-929.915710
 20
297.912140
 11
-461.915710
 21
297.912140
  0
LINE
  8
0
 10
-929.915710
 20
303.412140
 11
-461.915710
 21
303.412140
  0
LINE
  8
0
 10
-461.915710
 20
322.412140
 11
-929.915710
 21
322.412140
  0
LINE
  8
0
 10
-495.915710
 20
328.492706
 11
-495.915710
 21
332.331573
  0
LINE
  8
0
 10
-502.415710
 20
289.912140
 11
-489.415710
 21
289.912140
  0
LINE
  8
0
 10
-502.415710
 20
289.912140
 11
-502.415710
 21
297.912140
  0
LINE
  8
0
 10
-489.415710
 20
289.912140
 11
-489.415710
 21
297.912140
  0
LINE
  8
0
 10
-499.915710
 20
334.912140
 11
-491.915710
 21
334.912140
  0
LINE
  8
0
 10
-499.915710
 20
332.912140
 11
-499.915710
 21
334.912140
  0
LINE
  8
0
 10
-491.915710
 20
332.912140
 11
-491.915710
 21
334.912140
  0
LINE
  8
0
 10
-499.239197
 20
332.912140
 11
-499.239197
 21
334.912140
  0
LINE
  8
0
 10
-492.592224
 20
332.912140
 11
-492.592224
 21
334.912140
  0
LINE
  8
0
 10
-502.415710
 20
327.912140
 11
-502.415710
 21
332.912140
  0
LINE
  8
0
 10
-489.415710
 20
327.912140
 11
-489.415710
 21
332.912140
  0
LINE
  8
0
 10
-502.415710
 20
332.912140
 11
-489.415710
 21
332.912140
  0
LINE
  8
0
 10
-929.915710
 20
235.912140
 11
-461.915710
 21
235.912140
  0
LINE
  8
0
 10
-895.915588
 20
328.492706
 11
-895.915588
 21
332.331573
  0
LINE
  8
0
 10
-889.415588
 20
289.912140
 11
-902.415588
 21
289.912140
  0
LINE
  8
0
 10
-889.415588
 20
332.912140
 11
-902.415588
 21
332.912140
  0
LINE
  8
0
 10
-902.415588
 20
327.912140
 11
-902.415588
 21
332.912140
  0
LINE
  8
0
 10
-889.415588
 20
327.912140
 11
-889.415588
 21
332.912140
  0
LINE
  8
0
 10
-899.239075
 20
332.912140
 11
-899.239075
 21
334.912140
  0
LINE
  8
0
 10
-892.592102
 20
332.912140
 11
-892.592102
 21
334.912140
  0
LINE
  8
0
 10
-899.915588
 20
332.912140
 11
-899.915588
 21
334.912140
  0
LINE
  8
0
 10
-891.915588
 20
332.912140
 11
-891.915588
 21
334.912140
  0
LINE
  8
0
 10
-891.915588
 20
334.912140
 11
-899.915588
 21
334.912140
  0
LINE
  8
0
 10
-902.415588
 20
289.912140
 11
-902.415588
 21
297.912140
  0
LINE
  8
0
 10
-889.415588
 20
289.912140
 11
-889.415588
 21
297.912140
  0
LINE
  8
0
  6
CENTER
 10
-895.915588
 20
287.912140
 11
-895.915588
 21
337.912140
  0
LINE
  8
0
  6
DASHED
 10
-929.915710
 20
250.912140
 11
-461.915710
 21
250.912140
  0
LINE
  8
0
  6
CENTER
 10
-795.915588
 20
337.797943
 11
-795.915588
 21
287.303864
  0
LINE
  8
0
  6
CENTER
 10
-595.915710
 20
337.797943
 11
-595.915710
 21
287.303864
  0
LINE
  8
0
  6
CENTER
 10
-495.915710
 20
287.912140
 11
-495.915710
 21
337.912140
  0
LINE
  8
0
 10
-286.879761
 20
-65.284363
 11
-286.879761
 21
-94.482788
  0
LINE
  8
0
 10
-239.879791
 20
-146.284363
 11
-249.879791
 21
-146.284363
  0
LINE
  8
0
 10
-239.879791
 20
43.715637
 11
-239.879791
 21
13.715637
  0
LINE
  8
0
 10
-209.879791
 20
13.715637
 11
-217.379791
 21
13.715637
  0
LINE
  8
0
 10
-234.379791
 20
48.715637
 11
-234.379791
 21
23.715637
  0
LINE
  8
0
 10
-215.379791
 20
23.715637
 11
-234.379791
 21
23.715637
  0
LINE
  8
0
 10
-215.379791
 20
48.715637
 11
-215.379791
 21
23.715637
  0
LINE
  8
0
 10
-239.879791
 20
43.715637
 11
-234.379791
 21
43.715637
  0
LINE
  8
0
 10
-209.879791
 20
43.715637
 11
-209.879791
 21
13.715637
  0
LINE
  8
0
 10
-229.379791
 20
10.715637
 11
-229.379791
 21
8.700439
  0
LINE
  8
0
 10
-220.379791
 20
10.715637
 11
-220.379791
 21
-0.301636
  0
LINE
  8
0
 10
-232.379791
 20
13.715637
 11
-239.879791
 21
13.715637
  0
LINE
  8
0
 10
-301.879761
 20
-65.284363
 11
-301.879761
 21
-94.251404
  0
LINE
  8
0
 10
-239.879791
 20
-114.284363
 11
-239.879791
 21
-146.284363
  0
LINE
  8
0
 10
-239.879883
 20
-116.284500
 11
-277.985748
 21
-106.074074
  0
LINE
  8
0
 10
-252.103363
 20
-130.608536
 11
-279.644379
 21
-123.228951
  0
LINE
  8
0
 10
-249.879791
 20
-133.506531
 11
-249.879791
 21
-146.284363
  0
LINE
  8
0
 10
-234.379791
 20
48.715637
 11
-215.379791
 21
48.715637
  0
LINE
  8
0
 10
-209.879791
 20
-114.284363
 11
-239.879791
 21
-114.284363
  0
LINE
  8
0
 10
-209.879791
 20
-110.284363
 11
-239.879791
 21
-110.284363
  0
LINE
  8
0
 10
-247.879791
 20
40.215637
 11
-247.879791
 21
27.215637
  0
LINE
  8
0
 10
-247.879791
 20
40.215637
 11
-239.879791
 21
40.215637
  0
LINE
  8
0
 10
-247.879791
 20
27.215637
 11
-239.879791
 21
27.215637
  0
LINE
  8
0
 10
-204.879791
 20
40.215698
 11
-204.879791
 21
27.215576
  0
LINE
  8
0
 10
-202.879791
 20
37.715637
 11
-202.879791
 21
29.715637
  0
LINE
  8
0
 10
-204.879791
 20
37.715637
 11
-202.879791
 21
37.715637
  0
LINE
  8
0
 10
-204.879791
 20
29.715637
 11
-202.879791
 21
29.715637
  0
LINE
  8
0
 10
-209.299225
 20
29.962891
 11
-205.460358
 21
29.962891
  0
LINE
  8
0
 10
-209.299286
 20
26.210083
 11
-205.460297
 21
26.210083
  0
LINE
  8
0
 10
-209.299225
 20
41.221252
 11
-205.460358
 21
41.221252
  0
LINE
  8
0
 10
-209.299225
 20
37.468445
 11
-205.460358
 21
37.468445
  0
LINE
  8
0
 10
-204.879532
 20
40.215805
 11
-205.460083
 21
41.221382
  0
LINE
  8
0
 10
-204.879913
 20
27.215715
 11
-205.460480
 21
26.210112
  0
LINE
  8
0
 10
-209.879730
 20
40.215633
 11
-209.299164
 21
41.221237
  0
LINE
  8
0
 10
-209.880341
 20
27.215303
 11
-209.299789
 21
26.209724
  0
LINE
  8
0
 10
-204.879791
 20
37.039124
 11
-202.879791
 21
37.039124
  0
LINE
  8
0
 10
-204.879791
 20
30.392151
 11
-202.879791
 21
30.392151
  0
LINE
  8
0
 10
-204.879791
 20
-139.607849
 11
-202.879791
 21
-139.607849
  0
LINE
  8
0
 10
-204.879868
 20
-129.784332
 11
-205.460449
 21
-128.778702
  0
LINE
  8
0
 10
-209.299225
 20
-132.531616
 11
-205.460358
 21
-132.531616
  0
LINE
  8
0
 10
-234.379791
 20
-151.284363
 11
-234.379791
 21
-114.284363
  0
LINE
  8
0
 10
-215.379791
 20
-151.284363
 11
-234.379791
 21
-151.284363
  0
LINE
  8
0
 10
-209.879791
 20
-146.284363
 11
-239.879791
 21
-146.284363
  0
LINE
  8
0
 10
-209.299225
 20
-143.789917
 11
-205.460358
 21
-143.789917
  0
LINE
  8
0
 10
-204.880234
 20
-142.784027
 11
-205.460785
 21
-143.789597
  0
LINE
  8
0
 10
-209.880737
 20
-129.783783
 11
-209.300171
 21
-128.778183
  0
LINE
  8
0
 10
-209.879791
 20
-146.284363
 11
-209.879791
 21
-114.284363
  0
LINE
  8
0
 10
-257.879791
 20
-142.784363
 11
-257.879791
 21
-129.784363
  0
LINE
  8
0
 10
-257.879791
 20
-142.784363
 11
-249.879791
 21
-142.784363
  0
LINE
  8
0
 10
-257.879791
 20
-129.784363
 11
-255.180054
 21
-129.784363
  0
LINE
  8
0
 10
-209.879715
 20
-142.784286
 11
-209.299133
 21
-143.789917
  0
LINE
  8
0
 10
-204.879791
 20
-132.960876
 11
-202.879791
 21
-132.960876
  0
LINE
  8
0
 10
-215.379791
 20
-151.284363
 11
-215.379791
 21
-114.284363
  0
LINE
  8
0
 10
-209.299286
 20
-128.778809
 11
-205.460297
 21
-128.778809
  0
LINE
  8
0
 10
-209.299225
 20
-140.037170
 11
-205.460358
 21
-140.037170
  0
LINE
  8
0
 10
-204.879791
 20
-142.784363
 11
-204.879791
 21
-129.784241
  0
LINE
  8
0
 10
-202.879791
 20
-140.284363
 11
-202.879791
 21
-132.284363
  0
LINE
  8
0
 10
-204.879791
 20
-140.284363
 11
-202.879791
 21
-140.284363
  0
LINE
  8
0
 10
-204.879791
 20
-132.284363
 11
-202.879791
 21
-132.284363
  0
LINE
  8
0
 10
-215.379791
 20
43.715637
 11
-209.879791
 21
43.715637
  0
LINE
  8
0
 10
-226.647476
 20
-138.052231
 11
-223.111938
 21
-134.516693
  0
LINE
  8
0
 10
-226.647598
 20
-134.516663
 11
-223.112061
 21
-138.052185
  0
LINE
  8
0
  6
CENTER
 10
-199.544891
 20
33.715637
 11
-251.653900
 21
33.715637
  0
LINE
  8
0
  6
CENTER
 10
-264.499237
 20
-136.284363
 11
-199.879791
 21
-136.284363
  0
LINE
  8
0
 10
-461.915710
 20
-429.483521
 11
-461.915710
 21
-410.483521
  0
LINE
  8
0
 10
-929.915649
 20
-429.483521
 11
-929.915649
 21
-410.483521
  0
LINE
  8
0
 10
-602.415710
 20
-386.983521
 11
-589.415710
 21
-386.983521
  0
LINE
  8
0
 10
-602.415710
 20
-386.983521
 11
-602.415710
 21
-394.983521
  0
LINE
  8
0
 10
-589.415710
 20
-386.983521
 11
-589.415710
 21
-394.983521
  0
LINE
  8
0
 10
-599.915710
 20
-441.983521
 11
-591.915710
 21
-441.983521
  0
LINE
  8
0
 10
-599.915710
 20
-439.983521
 11
-599.915710
 21
-441.983521
  0
LINE
  8
0
 10
-591.915710
 20
-439.983521
 11
-591.915710
 21
-441.983521
  0
LINE
  8
0
 10
-599.239197
 20
-439.983521
 11
-599.239197
 21
-441.983521
  0
LINE
  8
0
 10
-592.592224
 20
-439.983521
 11
-592.592224
 21
-441.983521
  0
LINE
  8
0
 10
-935.915649
 20
-434.983521
 11
-455.915710
 21
-434.983521
  0
LINE
  8
0
 10
-935.915649
 20
-404.983521
 11
-455.915710
 21
-404.983521
  0
LINE
  8
0
 10
-935.915649
 20
-429.483521
 11
-455.915710
 21
-429.483521
  0
LINE
  8
0
 10
-935.915649
 20
-410.483521
 11
-455.915710
 21
-410.483521
  0
LINE
  8
0
 10
-602.415710
 20
-434.983521
 11
-602.415710
 21
-439.983521
  0
LINE
  8
0
 10
-589.415710
 20
-434.983521
 11
-589.415710
 21
-439.983521
  0
LINE
  8
0
 10
-602.415710
 20
-439.983521
 11
-589.415710
 21
-439.983521
  0
LINE
  8
0
 10
-595.915710
 20
-435.564087
 11
-595.915710
 21
-439.402954
  0
LINE
  8
0
 10
-495.915710
 20
-435.564087
 11
-495.915710
 21
-439.402954
  0
LINE
  8
0
 10
-502.415710
 20
-386.983521
 11
-489.415710
 21
-386.983521
  0
LINE
  8
0
 10
-502.415710
 20
-386.983521
 11
-502.415710
 21
-394.983521
  0
LINE
  8
0
 10
-489.415710
 20
-386.983521
 11
-489.415710
 21
-394.983521
  0
LINE
  8
0
 10
-499.915710
 20
-441.983521
 11
-491.915710
 21
-441.983521
  0
LINE
  8
0
 10
-499.915710
 20
-439.983521
 11
-499.915710
 21
-441.983521
  0
LINE
  8
0
 10
-491.915710
 20
-439.983521
 11
-491.915710
 21
-441.983521
  0
LINE
  8
0
 10
-499.239197
 20
-439.983521
 11
-499.239197
 21
-441.983521
  0
LINE
  8
0
 10
-492.592224
 20
-439.983521
 11
-492.592224
 21
-441.983521
  0
LINE
  8
0
 10
-502.415710
 20
-434.983521
 11
-502.415710
 21
-439.983521
  0
LINE
  8
0
 10
-489.415710
 20
-434.983521
 11
-489.415710
 21
-439.983521
  0
LINE
  8
0
 10
-502.415710
 20
-439.983521
 11
-489.415710
 21
-439.983521
  0
LINE
  8
0
 10
-929.915649
 20
-342.983521
 11
-461.915710
 21
-342.983521
  0
LINE
  8
0
 10
-453.915710
 20
-404.983521
 11
-453.915710
 21
-434.983521
  0
LINE
  8
0
 10
-937.915649
 20
-404.983521
 11
-937.915649
 21
-434.983521
  0
LINE
  8
0
 10
-935.915649
 20
-436.983521
 11
-902.415710
 21
-436.983521
  0
LINE
  8
0
 10
-935.915649
 20
-402.983521
 11
-929.915649
 21
-402.983521
  0
LINE
  8
0
 10
-461.915710
 20
-402.983521
 11
-455.915710
 21
-402.983521
  0
LINE
  8
0
 10
-489.415710
 20
-436.983521
 11
-455.915710
 21
-436.983521
  0
LINE
  8
0
 10
-935.915649
 20
-404.983521
 11
-935.915649
 21
-434.983521
  0
LINE
  8
0
 10
-455.915710
 20
-404.983521
 11
-455.915710
 21
-434.983521
  0
LINE
  8
0
 10
-929.915649
 20
-404.983521
 11
-929.915649
 21
-342.983521
  0
LINE
  8
0
 10
-461.915710
 20
-404.983521
 11
-461.915710
 21
-342.983521
  0
LINE
  8
0
 10
-929.915649
 20
-394.983521
 11
-461.915710
 21
-394.983521
  0
LINE
  8
0
 10
-789.415710
 20
-436.983521
 11
-602.415710
 21
-436.983521
  0
LINE
  8
0
 10
-589.415710
 20
-436.983521
 11
-502.415710
 21
-436.983521
  0
LINE
  8
0
 10
-889.415710
 20
-386.983521
 11
-889.415710
 21
-394.983521
  0
LINE
  8
0
 10
-789.415710
 20
-386.983521
 11
-802.415710
 21
-386.983521
  0
LINE
  8
0
 10
-789.415710
 20
-386.983521
 11
-789.415710
 21
-394.983521
  0
LINE
  8
0
 10
-802.415710
 20
-386.983521
 11
-802.415710
 21
-394.983521
  0
LINE
  8
0
 10
-791.915710
 20
-441.983521
 11
-799.915710
 21
-441.983521
  0
LINE
  8
0
 10
-791.915710
 20
-439.983521
 11
-791.915710
 21
-441.983521
  0
LINE
  8
0
 10
-799.915710
 20
-439.983521
 11
-799.915710
 21
-441.983521
  0
LINE
  8
0
 10
-792.592224
 20
-439.983521
 11
-792.592224
 21
-441.983521
  0
LINE
  8
0
 10
-799.239197
 20
-439.983521
 11
-799.239197
 21
-441.983521
  0
LINE
  8
0
 10
-902.415710
 20
-386.983521
 11
-902.415710
 21
-394.983521
  0
LINE
  8
0
 10
-899.915710
 20
-439.983521
 11
-899.915710
 21
-441.983521
  0
LINE
  8
0
 10
-892.592224
 20
-439.983521
 11
-892.592224
 21
-441.983521
  0
LINE
  8
0
 10
-802.415710
 20
-436.983521
 11
-889.415710
 21
-436.983521
  0
LINE
  8
0
 10
-891.915710
 20
-439.983521
 11
-891.915710
 21
-441.983521
  0
LINE
  8
0
 10
-891.915710
 20
-441.983521
 11
-899.915710
 21
-441.983521
  0
LINE
  8
0
 10
-895.915710
 20
-435.564087
 11
-895.915710
 21
-439.402954
  0
LINE
  8
0
 10
-889.415710
 20
-386.983521
 11
-902.415710
 21
-386.983521
  0
LINE
  8
0
 10
-795.915710
 20
-435.564087
 11
-795.915710
 21
-439.402954
  0
LINE
  8
0
 10
-889.415710
 20
-439.983521
 11
-902.415710
 21
-439.983521
  0
LINE
  8
0
 10
-902.415710
 20
-434.983521
 11
-902.415710
 21
-439.983521
  0
LINE
  8
0
 10
-899.239197
 20
-439.983521
 11
-899.239197
 21
-441.983521
  0
LINE
  8
0
 10
-889.415710
 20
-434.983521
 11
-889.415710
 21
-439.983521
  0
LINE
  8
0
 10
-789.415710
 20
-434.983521
 11
-789.415710
 21
-439.983521
  0
LINE
  8
0
 10
-802.415710
 20
-434.983521
 11
-802.415710
 21
-439.983521
  0
LINE
  8
0
 10
-789.415710
 20
-439.983521
 11
-802.415710
 21
-439.983521
  0
LINE
  8
0
  6
DASHED
 10
-929.915649
 20
-357.983521
 11
-461.915710
 21
-357.983521
  0
LINE
  8
0
  6
CENTER
 10
-895.915710
 20
-383.424011
 11
-895.915710
 21
-444.983521
  0
LINE
  8
0
  6
CENTER
 10
-795.915710
 20
-384.421082
 11
-795.915710
 21
-444.983521
  0
LINE
  8
0
  6
CENTER
 10
-595.915710
 20
-384.421082
 11
-595.915710
 21
-444.983521
  0
LINE
  8
0
  6
CENTER
 10
-495.915710
 20
-383.424011
 11
-495.915710
 21
-444.983521
  0
LINE
  8
0
 10
618.078491
 20
86.431305
 11
618.078491
 21
-151.568726
  0
LINE
  8
0
 10
70.078461
 20
86.431305
 11
70.078461
 21
-157.568726
  0
LINE
  8
0
 10
618.078491
 20
45.431305
 11
70.078461
 21
45.431305
  0
LINE
  8
0
 10
618.078491
 20
35.380157
 11
70.078461
 21
35.380157
  0
LINE
  8
0
 10
618.078491
 20
-131.988281
 11
588.448792
 21
-131.988281
  0
LINE
  8
0
 10
618.078491
 20
80.431305
 11
70.078461
 21
80.431305
  0
LINE
  8
0
 10
579.708130
 20
-131.988281
 11
468.448792
 21
-131.988281
  0
LINE
  8
0
 10
459.708099
 20
-131.988281
 11
228.448792
 21
-131.988281
  0
LINE
  8
0
 10
108.448700
 20
-131.988281
 11
219.708130
 21
-131.988281
  0
LINE
  8
0
 10
70.078461
 20
-131.988281
 11
99.708099
 21
-131.988281
  0
LINE
  8
0
 10
624.078491
 20
-151.568726
 11
624.078491
 21
-114.568695
  0
LINE
  8
0
 10
618.078491
 20
-157.568726
 11
70.078461
 21
-157.568726
  0
LINE
  8
0
 10
624.078491
 20
-151.568726
 11
64.078461
 21
-151.568726
  0
LINE
  8
0
 10
618.078491
 20
-157.568726
 11
618.078491
 21
-151.568726
  0
LINE
  8
0
 10
108.078178
 20
-141.877869
 11
104.078201
 21
-144.187256
  0
LINE
  8
0
 10
460.078064
 20
-137.258865
 11
464.078094
 21
-134.949448
  0
LINE
  8
0
 10
464.078278
 20
-144.187485
 11
460.078308
 21
-141.878098
  0
LINE
  8
0
 10
460.078461
 20
-141.878082
 11
460.078461
 21
-137.259277
  0
LINE
  8
0
 10
468.078339
 20
-137.259308
 11
468.078339
 21
-141.878113
  0
LINE
  8
0
 10
468.078186
 20
-141.877655
 11
464.078217
 21
-144.187057
  0
LINE
  8
0
 10
464.078400
 20
-134.949890
 11
468.078461
 21
-137.259293
  0
LINE
  8
0
 10
624.078491
 20
-114.568695
 11
618.078491
 21
-114.568695
  0
LINE
  8
0
 10
624.078491
 20
-110.568695
 11
618.078491
 21
-110.568695
  0
LINE
  8
0
 10
104.078415
 20
73.050072
 11
108.078461
 21
70.740669
  0
LINE
  8
0
 10
100.078377
 20
70.740662
 11
104.078461
 21
73.050110
  0
LINE
  8
0
 10
584.078369
 20
-134.949936
 11
588.078369
 21
-137.259323
  0
LINE
  8
0
 10
580.078125
 20
-137.259048
 11
584.078125
 21
-134.949661
  0
LINE
  8
0
 10
580.078491
 20
-141.878082
 11
580.078491
 21
-137.259277
  0
LINE
  8
0
 10
584.078308
 20
-144.187561
 11
580.078308
 21
-141.878174
  0
LINE
  8
0
 10
588.078186
 20
-141.877869
 11
584.078247
 21
-144.187256
  0
LINE
  8
0
 10
588.078369
 20
-137.259308
 11
588.078369
 21
-141.878113
  0
LINE
  8
0
 10
108.078339
 20
-137.259308
 11
108.078339
 21
-141.878113
  0
LINE
  8
0
 10
104.078323
 20
63.812420
 11
100.078293
 21
66.121834
  0
LINE
  8
0
 10
584.078430
 20
73.050148
 11
588.078430
 21
70.740753
  0
LINE
  8
0
 10
580.078247
 20
70.740883
 11
584.078247
 21
73.050270
  0
LINE
  8
0
 10
580.078491
 20
66.121918
 11
580.078491
 21
70.740723
  0
LINE
  8
0
 10
584.078247
 20
63.812382
 11
580.078247
 21
66.121773
  0
LINE
  8
0
 10
588.078247
 20
66.122253
 11
584.078308
 21
63.812862
  0
LINE
  8
0
 10
588.078369
 20
70.740692
 11
588.078369
 21
66.121887
  0
LINE
  8
0
 10
108.078369
 20
66.121994
 11
104.078392
 21
63.812607
  0
LINE
  8
0
 10
100.078461
 20
66.121918
 11
100.078461
 21
70.740723
  0
LINE
  8
0
 10
224.078369
 20
-134.949936
 11
228.078400
 21
-137.259338
  0
LINE
  8
0
 10
220.078171
 20
-137.259216
 11
224.078201
 21
-134.949799
  0
LINE
  8
0
 10
220.078461
 20
-141.878082
 11
220.078461
 21
-137.259277
  0
LINE
  8
0
 10
224.078384
 20
-144.187378
 11
220.078415
 21
-141.877991
  0
LINE
  8
0
 10
228.078247
 20
-141.877838
 11
224.078278
 21
-144.187225
  0
LINE
  8
0
 10
228.078339
 20
-137.259308
 11
228.078339
 21
-141.878113
  0
LINE
  8
0
 10
64.078461
 20
-110.568695
 11
70.078461
 21
-110.568695
  0
LINE
  8
0
 10
64.078461
 20
-151.568726
 11
64.078461
 21
-114.568695
  0
LINE
  8
0
 10
64.078461
 20
-114.568695
 11
70.078461
 21
-114.568695
  0
LINE
  8
0
 10
70.078461
 20
86.431305
 11
618.078491
 21
86.431305
  0
LINE
  8
0
 10
104.078384
 20
-134.949951
 11
108.078369
 21
-137.259323
  0
LINE
  8
0
 10
100.078201
 20
-137.259186
 11
104.078232
 21
-134.949768
  0
LINE
  8
0
 10
100.078461
 20
-141.878082
 11
100.078461
 21
-137.259277
  0
LINE
  8
0
 10
104.078369
 20
-144.187347
 11
100.078346
 21
-141.877930
  0
LINE
  8
0
 10
108.078339
 20
70.740692
 11
108.078339
 21
66.121887
  0
LINE
  8
0
  6
CENTER
 10
104.078461
 20
55.931305
 11
104.078461
 21
80.931305
  0
LINE
  8
0
  6
CENTER
 10
91.578461
 20
68.431305
 11
116.578461
 21
68.431305
  0
LINE
  8
0
  6
CENTER
 10
224.078461
 20
78.431305
 11
224.078461
 21
58.431305
  0
LINE
  8
0
  6
CENTER
 10
234.078461
 20
68.431305
 11
214.078461
 21
68.431305
  0
LINE
  8
0
  6
CENTER
 10
464.078461
 20
78.431305
 11
464.078461
 21
58.431305
  0
LINE
  8
0
  6
CENTER
 10
474.078461
 20
68.431305
 11
454.078461
 21
68.431305
  0
LINE
  8
0
  6
CENTER
 10
584.078491
 20
55.931305
 11
584.078491
 21
80.931305
  0
LINE
  8
0
  6
CENTER
 10
571.578491
 20
68.431305
 11
596.578491
 21
68.431305
  0
LINE
  8
0
  6
CENTER
 10
104.078461
 20
-152.068726
 11
104.078461
 21
-127.068695
  0
LINE
  8
0
  6
CENTER
 10
91.578461
 20
-139.568695
 11
116.578461
 21
-139.568695
  0
LINE
  8
0
  6
CENTER
 10
224.078461
 20
-152.068726
 11
224.078461
 21
-127.068695
  0
LINE
  8
0
  6
CENTER
 10
211.578461
 20
-139.568695
 11
236.578461
 21
-139.568695
  0
LINE
  8
0
  6
CENTER
 10
464.078461
 20
-152.068726
 11
464.078461
 21
-127.068695
  0
LINE
  8
0
  6
CENTER
 10
451.578461
 20
-139.568695
 11
476.578461
 21
-139.568695
  0
LINE
  8
0
  6
CENTER
 10
584.078491
 20
-152.068726
 11
584.078491
 21
-127.068695
  0
LINE
  8
0
  6
CENTER
 10
571.578491
 20
-139.568695
 11
596.578491
 21
-139.568695
  0
LINE
  8
0
 10
576.078247
 20
351.765228
 11
592.078247
 21
351.765228
  0
LINE
  8
0
 10
576.078247
 20
351.765228
 11
576.078247
 21
361.765228
  0
LINE
  8
0
 10
592.078247
 20
351.765228
 11
592.078247
 21
361.765228
  0
LINE
  8
0
 10
579.078247
 20
401.765228
 11
589.078247
 21
401.765228
  0
LINE
  8
0
 10
579.078247
 20
399.765228
 11
579.078247
 21
401.765228
  0
LINE
  8
0
 10
579.890259
 20
399.765228
 11
579.890259
 21
401.765228
  0
LINE
  8
0
 10
588.266235
 20
399.765228
 11
588.266235
 21
401.765228
  0
LINE
  8
0
 10
589.078247
 20
399.765228
 11
589.078247
 21
401.765228
  0
LINE
  8
0
 10
70.078094
 20
393.765228
 11
70.078094
 21
281.765228
  0
LINE
  8
0
 10
618.078247
 20
393.765228
 11
618.078247
 21
281.765228
  0
LINE
  8
0
 10
70.078094
 20
393.765228
 11
618.078247
 21
393.765228
  0
LINE
  8
0
 10
70.078094
 20
361.765228
 11
618.078247
 21
361.765228
  0
LINE
  8
0
 10
70.078094
 20
387.765228
 11
618.078247
 21
387.765228
  0
LINE
  8
0
 10
70.078094
 20
367.765228
 11
618.078247
 21
367.765228
  0
LINE
  8
0
 10
70.078094
 20
281.765228
 11
618.078247
 21
281.765228
  0
LINE
  8
0
 10
96.078094
 20
351.765228
 11
112.078094
 21
351.765228
  0
LINE
  8
0
 10
96.078094
 20
351.765228
 11
96.078094
 21
361.765228
  0
LINE
  8
0
 10
112.078094
 20
351.765228
 11
112.078094
 21
361.765228
  0
LINE
  8
0
 10
95.578094
 20
399.765228
 11
112.578094
 21
399.765228
  0
LINE
  8
0
 10
99.078094
 20
401.765228
 11
109.078094
 21
401.765228
  0
LINE
  8
0
 10
99.078094
 20
399.765228
 11
99.078094
 21
401.765228
  0
LINE
  8
0
 10
99.890106
 20
399.765228
 11
99.890106
 21
401.765228
  0
LINE
  8
0
 10
108.266083
 20
399.765228
 11
108.266083
 21
401.765228
  0
LINE
  8
0
 10
109.078094
 20
399.765228
 11
109.078094
 21
401.765228
  0
LINE
  8
0
 10
112.578094
 20
399.765228
 11
112.578094
 21
393.765228
  0
LINE
  8
0
 10
95.578094
 20
399.765228
 11
95.578094
 21
393.765228
  0
LINE
  8
0
 10
104.078094
 20
399.006012
 11
104.078094
 21
394.524445
  0
LINE
  8
0
 10
592.578247
 20
399.765228
 11
592.578247
 21
393.765228
  0
LINE
  8
0
 10
592.578247
 20
399.765228
 11
575.578247
 21
399.765228
  0
LINE
  8
0
 10
575.578247
 20
399.765228
 11
575.578247
 21
393.765228
  0
LINE
  8
0
 10
584.078247
 20
399.006012
 11
584.078247
 21
394.524445
  0
LINE
  8
0
  6
DASHED
 10
70.078094
 20
299.765228
 11
618.078247
 21
299.765228
  0
LINE
  8
0
  6
CENTER
 10
104.078094
 20
345.021515
 11
104.078094
 21
407.879791
  0
LINE
  8
0
  6
CENTER
 10
224.078094
 20
354.723236
 11
224.078094
 21
401.541229
  0
LINE
  8
0
  6
CENTER
 10
464.078217
 20
353.871979
 11
464.078217
 21
401.966888
  0
LINE
  8
0
  6
CENTER
 10
584.078247
 20
345.021515
 11
584.078247
 21
407.879791
  0
LINE
  8
0
 10
770.741943
 20
-52.568676
 11
770.741943
 21
-86.143936
  0
LINE
  8
0
 10
788.741943
 20
-52.568676
 11
788.741943
 21
-86.143936
  0
LINE
  8
0
 10
850.741943
 20
-151.568680
 11
838.741943
 21
-151.568680
  0
LINE
  8
0
 10
850.742004
 20
-116.568672
 11
802.083252
 21
-103.530602
  0
LINE
  8
0
 10
835.777100
 20
-131.193832
 11
797.424316
 21
-120.917221
  0
LINE
  8
0
 10
861.741943
 20
41.431324
 11
861.741943
 21
39.425892
  0
LINE
  8
0
 10
871.741943
 20
41.431324
 11
871.741943
 21
29.425220
  0
LINE
  8
0
 10
856.741943
 20
80.431320
 11
850.741943
 21
80.431320
  0
LINE
  8
0
 10
850.741943
 20
80.431320
 11
850.741943
 21
45.431324
  0
LINE
  8
0
 10
856.741943
 20
86.431320
 11
856.741943
 21
56.431324
  0
LINE
  8
0
 10
876.741943
 20
56.431324
 11
856.741943
 21
56.431324
  0
LINE
  8
0
 10
857.741943
 20
45.431324
 11
850.741943
 21
45.431324
  0
LINE
  8
0
 10
876.741943
 20
86.431320
 11
876.741943
 21
56.431324
  0
LINE
  8
0
 10
876.741943
 20
80.431320
 11
882.741943
 21
80.431320
  0
LINE
  8
0
 10
882.741943
 20
80.431320
 11
882.741943
 21
45.431324
  0
LINE
  8
0
 10
875.741943
 20
45.431324
 11
882.741943
 21
45.431324
  0
LINE
  8
0
 10
838.741943
 20
-135.057571
 11
838.741943
 21
-151.568680
  0
LINE
  8
0
 10
856.741943
 20
86.431320
 11
876.741943
 21
86.431320
  0
LINE
  8
0
 10
850.741943
 20
-151.568680
 11
882.741943
 21
-151.568680
  0
LINE
  8
0
 10
876.741943
 20
-157.568680
 11
876.741943
 21
-114.568680
  0
LINE
  8
0
 10
856.741943
 20
-157.568680
 11
856.741943
 21
-114.568680
  0
LINE
  8
0
 10
850.741943
 20
-151.568680
 11
850.741943
 21
-114.568680
  0
LINE
  8
0
 10
840.741943
 20
76.431320
 11
840.741943
 21
60.431324
  0
LINE
  8
0
 10
840.741943
 20
76.431320
 11
850.741943
 21
76.431320
  0
LINE
  8
0
 10
840.741943
 20
60.431324
 11
850.741943
 21
60.431324
  0
LINE
  8
0
 10
888.741943
 20
76.931320
 11
888.741943
 21
59.931293
  0
LINE
  8
0
 10
883.501099
 20
63.523762
 11
887.982788
 21
63.523762
  0
LINE
  8
0
 10
883.501221
 20
73.338821
 11
887.982788
 21
73.338821
  0
LINE
  8
0
 10
883.501221
 20
78.246323
 11
887.982788
 21
78.246323
  0
LINE
  8
0
 10
887.981140
 20
78.245399
 11
888.740356
 21
76.930397
  0
LINE
  8
0
 10
887.981262
 20
58.617168
 11
888.740479
 21
59.932171
  0
LINE
  8
0
 10
883.501221
 20
58.616322
 11
887.982788
 21
58.616322
  0
LINE
  8
0
 10
883.499512
 20
78.246925
 11
882.740295
 21
76.931923
  0
LINE
  8
0
 10
883.499695
 20
58.615364
 11
882.740479
 21
59.930367
  0
LINE
  8
0
 10
890.741943
 20
73.431320
 11
890.741943
 21
63.431324
  0
LINE
  8
0
 10
888.741943
 20
73.431320
 11
890.741943
 21
73.431320
  0
LINE
  8
0
 10
888.741943
 20
72.619339
 11
890.741943
 21
72.619339
  0
LINE
  8
0
 10
888.741943
 20
64.243332
 11
890.741943
 21
64.243332
  0
LINE
  8
0
 10
888.741943
 20
63.431324
 11
890.741943
 21
63.431324
  0
LINE
  8
0
 10
882.741943
 20
-151.568680
 11
882.741943
 21
-114.568680
  0
LINE
  8
0
 10
864.973450
 20
-137.801529
 11
868.508972
 21
-141.337067
  0
LINE
  8
0
 10
864.974792
 20
-141.337189
 11
868.510437
 21
-137.801620
  0
LINE
  8
0
 10
850.741943
 20
-114.568680
 11
882.741943
 21
-114.568680
  0
LINE
  8
0
 10
850.741943
 20
-110.568680
 11
882.741943
 21
-110.568680
  0
LINE
  8
0
 10
856.741943
 20
-157.568680
 11
876.741943
 21
-157.568680
  0
LINE
  8
0
 10
828.741943
 20
-147.568680
 11
828.741943
 21
-131.568680
  0
LINE
  8
0
 10
828.741943
 20
-147.568680
 11
838.741943
 21
-147.568680
  0
LINE
  8
0
 10
828.741943
 20
-131.568680
 11
836.698364
 21
-131.568680
  0
LINE
  8
0
 10
888.741943
 20
-148.068680
 11
888.741943
 21
-131.068619
  0
LINE
  8
0
 10
883.501099
 20
-134.661087
 11
887.982788
 21
-134.661087
  0
LINE
  8
0
 10
883.501221
 20
-144.476151
 11
887.982788
 21
-144.476151
  0
LINE
  8
0
 10
883.501221
 20
-149.383682
 11
887.982788
 21
-149.383682
  0
LINE
  8
0
 10
887.980896
 20
-149.382568
 11
888.740112
 21
-148.067566
  0
LINE
  8
0
 10
887.981140
 20
-129.754578
 11
888.740356
 21
-131.069580
  0
LINE
  8
0
 10
883.501221
 20
-129.753677
 11
887.982788
 21
-129.753677
  0
LINE
  8
0
 10
883.499390
 20
-149.384247
 11
882.740173
 21
-148.069244
  0
LINE
  8
0
 10
883.499390
 20
-129.752792
 11
882.740173
 21
-131.067795
  0
LINE
  8
0
 10
890.741943
 20
-144.568680
 11
890.741943
 21
-134.568680
  0
LINE
  8
0
 10
888.741943
 20
-144.568680
 11
890.741943
 21
-144.568680
  0
LINE
  8
0
 10
888.741943
 20
-143.756668
 11
890.741943
 21
-143.756668
  0
LINE
  8
0
 10
888.741943
 20
-135.380692
 11
890.741943
 21
-135.380692
  0
LINE
  8
0
 10
888.741943
 20
-134.568680
 11
890.741943
 21
-134.568680
  0
LINE
  8
0
  6
CENTER
 10
833.998291
 20
68.431320
 11
896.856567
 21
68.431320
  0
LINE
  8
0
  6
CENTER
 10
825.364868
 20
-139.568680
 11
896.856567
 21
-139.568680
  0
LINE
  8
0
 10
576.078186
 20
-406.333954
 11
592.078186
 21
-406.333954
  0
LINE
  8
0
 10
576.078186
 20
-406.333954
 11
576.078186
 21
-416.333954
  0
LINE
  8
0
 10
592.078186
 20
-406.333954
 11
592.078186
 21
-416.333954
  0
LINE
  8
0
 10
579.078186
 20
-468.333954
 11
589.078186
 21
-468.333954
  0
LINE
  8
0
 10
579.078186
 20
-466.333954
 11
579.078186
 21
-468.333954
  0
LINE
  8
0
 10
579.890198
 20
-466.333954
 11
579.890198
 21
-468.333954
  0
LINE
  8
0
 10
588.266174
 20
-466.333954
 11
588.266174
 21
-468.333954
  0
LINE
  8
0
 10
589.078186
 20
-466.333954
 11
589.078186
 21
-468.333954
  0
LINE
  8
0
 10
70.078217
 20
-454.333954
 11
70.078217
 21
-434.333954
  0
LINE
  8
0
 10
618.078186
 20
-454.333954
 11
618.078186
 21
-434.333954
  0
LINE
  8
0
 10
64.078217
 20
-460.333954
 11
624.078186
 21
-460.333954
  0
LINE
  8
0
 10
64.078217
 20
-428.333954
 11
624.078186
 21
-428.333954
  0
LINE
  8
0
 10
64.078217
 20
-454.333954
 11
624.078186
 21
-454.333954
  0
LINE
  8
0
 10
64.078217
 20
-434.333954
 11
624.078186
 21
-434.333954
  0
LINE
  8
0
 10
456.078217
 20
-406.333954
 11
472.078217
 21
-406.333954
  0
LINE
  8
0
 10
456.078217
 20
-406.333954
 11
456.078217
 21
-416.333954
  0
LINE
  8
0
 10
472.078217
 20
-406.333954
 11
472.078217
 21
-416.333954
  0
LINE
  8
0
 10
455.578217
 20
-466.333954
 11
472.578217
 21
-466.333954
  0
LINE
  8
0
 10
459.078217
 20
-468.333954
 11
469.078217
 21
-468.333954
  0
LINE
  8
0
 10
459.078217
 20
-466.333954
 11
459.078217
 21
-468.333954
  0
LINE
  8
0
 10
459.890228
 20
-466.333954
 11
459.890228
 21
-468.333954
  0
LINE
  8
0
 10
468.266205
 20
-466.333954
 11
468.266205
 21
-468.333954
  0
LINE
  8
0
 10
469.078217
 20
-466.333954
 11
469.078217
 21
-468.333954
  0
LINE
  8
0
 10
472.578217
 20
-466.333954
 11
472.578217
 21
-460.333954
  0
LINE
  8
0
 10
455.578217
 20
-466.333954
 11
455.578217
 21
-460.333954
  0
LINE
  8
0
 10
464.078217
 20
-465.574738
 11
464.078217
 21
-461.093170
  0
LINE
  8
0
 10
592.578186
 20
-466.333954
 11
592.578186
 21
-460.333954
  0
LINE
  8
0
 10
592.578186
 20
-466.333954
 11
575.578186
 21
-466.333954
  0
LINE
  8
0
 10
575.578186
 20
-466.333954
 11
575.578186
 21
-460.333954
  0
LINE
  8
0
 10
584.078186
 20
-465.574738
 11
584.078186
 21
-461.093170
  0
LINE
  8
0
 10
70.078217
 20
-348.333954
 11
618.078186
 21
-348.333954
  0
LINE
  8
0
 10
64.078217
 20
-428.333954
 11
64.078217
 21
-460.333954
  0
LINE
  8
0
 10
64.078217
 20
-462.333954
 11
95.578217
 21
-462.333954
  0
LINE
  8
0
 10
64.078217
 20
-426.333954
 11
70.078217
 21
-426.333954
  0
LINE
  8
0
 10
62.078217
 20
-428.333954
 11
62.078217
 21
-460.333954
  0
LINE
  8
0
 10
70.078217
 20
-428.333954
 11
70.078217
 21
-348.333954
  0
LINE
  8
0
 10
624.078186
 20
-462.333954
 11
592.578186
 21
-462.333954
  0
LINE
  8
0
 10
626.078186
 20
-428.333954
 11
626.078186
 21
-460.333954
  0
LINE
  8
0
 10
624.078186
 20
-428.333954
 11
624.078186
 21
-460.333954
  0
LINE
  8
0
 10
624.078186
 20
-426.333954
 11
618.078186
 21
-426.333954
  0
LINE
  8
0
 10
618.078186
 20
-428.333954
 11
618.078186
 21
-348.333954
  0
LINE
  8
0
 10
70.078217
 20
-416.333954
 11
618.078186
 21
-416.333954
  0
LINE
  8
0
 10
112.578217
 20
-462.333954
 11
215.578217
 21
-462.333954
  0
LINE
  8
0
 10
96.078217
 20
-406.333954
 11
112.078217
 21
-406.333954
  0
LINE
  8
0
 10
96.078217
 20
-406.333954
 11
96.078217
 21
-416.333954
  0
LINE
  8
0
 10
112.078217
 20
-406.333954
 11
112.078217
 21
-416.333954
  0
LINE
  8
0
 10
95.578217
 20
-466.333954
 11
112.578217
 21
-466.333954
  0
LINE
  8
0
 10
99.078217
 20
-468.333954
 11
109.078217
 21
-468.333954
  0
LINE
  8
0
 10
99.078217
 20
-466.333954
 11
99.078217
 21
-468.333954
  0
LINE
  8
0
 10
99.890228
 20
-466.333954
 11
99.890228
 21
-468.333954
  0
LINE
  8
0
 10
108.266205
 20
-466.333954
 11
108.266205
 21
-468.333954
  0
LINE
  8
0
 10
109.078217
 20
-466.333954
 11
109.078217
 21
-468.333954
  0
LINE
  8
0
 10
112.578217
 20
-466.333954
 11
112.578217
 21
-460.333954
  0
LINE
  8
0
 10
95.578217
 20
-466.333954
 11
95.578217
 21
-460.333954
  0
LINE
  8
0
 10
104.078217
 20
-465.574738
 11
104.078217
 21
-461.093170
  0
LINE
  8
0
 10
216.078217
 20
-406.333954
 11
232.078217
 21
-406.333954
  0
LINE
  8
0
 10
216.078217
 20
-406.333954
 11
216.078217
 21
-416.333954
  0
LINE
  8
0
 10
232.078217
 20
-406.333954
 11
232.078217
 21
-416.333954
  0
LINE
  8
0
 10
215.578217
 20
-466.333954
 11
232.578217
 21
-466.333954
  0
LINE
  8
0
 10
219.078217
 20
-468.333954
 11
229.078217
 21
-468.333954
  0
LINE
  8
0
 10
219.078217
 20
-466.333954
 11
219.078217
 21
-468.333954
  0
LINE
  8
0
 10
219.890228
 20
-466.333954
 11
219.890228
 21
-468.333954
  0
LINE
  8
0
 10
228.266205
 20
-466.333954
 11
228.266205
 21
-468.333954
  0
LINE
  8
0
 10
229.078217
 20
-466.333954
 11
229.078217
 21
-468.333954
  0
LINE
  8
0
 10
232.578217
 20
-466.333954
 11
232.578217
 21
-460.333954
  0
LINE
  8
0
 10
215.578217
 20
-466.333954
 11
215.578217
 21
-460.333954
  0
LINE
  8
0
 10
224.078217
 20
-465.574738
 11
224.078217
 21
-461.093170
  0
LINE
  8
0
 10
232.578217
 20
-462.333954
 11
455.578217
 21
-462.333954
  0
LINE
  8
0
 10
472.578217
 20
-462.333954
 11
575.578186
 21
-462.333954
  0
LINE
  8
0
  6
CENTER
 10
104.078217
 20
-401.266571
 11
104.078217
 21
-474.448517
  0
LINE
  8
0
  6
DASHED
 10
70.078217
 20
-366.333954
 11
618.078186
 21
-366.333954
  0
LINE
  8
0
  6
CENTER
 10
224.078217
 20
-401.266571
 11
224.078217
 21
-474.448517
  0
LINE
  8
0
  6
CENTER
 10
464.078217
 20
-401.266571
 11
464.078217
 21
-474.448517
  0
LINE
  8
0
  6
CENTER
 10
584.078186
 20
-401.266571
 11
584.078186
 21
-474.448517
  0
ARC
  8
0
 10
923.191162
 20
-656.431030
 40
3.128118
 50
291.688049
 51
0.000000
  0
ARC
  8
0
 10
772.260864
 20
-664.809692
 40
6.256165
 50
0.000000
 51
90.000000
  0
ARC
  8
0
 10
823.874512
 20
-698.436768
 40
6.256165
 50
270.000000
 51
0.000000
  0
ARC
  8
0
 10
820.746216
 20
-667.937683
 40
9.384277
 50
0.000000
 51
90.000000
  0
ARC
  8
0
 10
877.833923
 20
-669.807861
 40
6.256200
 50
294.999969
 51
0.000000
  0
ARC
  8
0
 10
877.833923
 20
-664.809692
 40
6.256165
 50
0.000000
 51
90.000000
  0
ARC
  8
0
 10
926.319641
 20
-658.553467
 40
9.384297
 50
291.688202
 51
0.000000
  0
ARC
  8
0
  6
PHANTOM
 10
-993.815918
 20
-90.284424
 40
50.900021
 50
334.391479
 51
25.608475
  0
ARC
  8
0
  6
PHANTOM
 10
-902.015930
 20
-46.284424
 40
50.899982
 50
154.391418
 51
205.608490
  0
ARC
  8
0
  6
PHANTOM
 10
-398.015900
 20
-46.284424
 40
50.900009
 50
154.391342
 51
205.608398
  0
ARC
  8
0
  6
PHANTOM
 10
-489.815918
 20
-90.284424
 40
50.899994
 50
334.391479
 51
25.608475
  0
ARC
  8
0
  6
PHANTOM
 10
-993.815918
 20
290.912262
 40
50.899994
 50
334.391388
 51
25.608458
  0
ARC
  8
0
  6
PHANTOM
 10
-902.015869
 20
334.912262
 40
50.899979
 50
154.391418
 51
205.608490
  0
ARC
  8
0
  6
PHANTOM
 10
-489.815918
 20
290.912262
 40
50.900021
 50
334.391388
 51
25.608458
  0
ARC
  8
0
  6
PHANTOM
 10
-398.015900
 20
334.912262
 40
50.900005
 50
154.391357
 51
205.608414
  0
ARC
  8
0
  6
PHANTOM
 10
-224.879639
 20
-68.284332
 40
43.999996
 50
287.341431
 51
252.658508
  0
ARC
  8
0
  6
PHANTOM
 10
-993.815796
 20
-441.983582
 40
50.900005
 50
334.391357
 51
25.608427
  0
ARC
  8
0
  6
PHANTOM
 10
-902.015869
 20
-397.983582
 40
50.900005
 50
154.391357
 51
205.608429
  0
ARC
  8
0
  6
PHANTOM
 10
-489.815796
 20
-441.983582
 40
50.900005
 50
334.391357
 51
25.608412
  0
ARC
  8
0
  6
PHANTOM
 10
-398.015839
 20
-397.983582
 40
50.900005
 50
154.391281
 51
205.608353
  0
ARC
  8
0
  6
PHANTOM
 10
83.278046
 20
-28.568535
 40
44.200001
 50
140.692368
 51
219.307617
  0
ARC
  8
0
  6
PHANTOM
 10
14.878021
 20
-84.568535
 40
44.199997
 50
320.692413
 51
39.307686
  0
ARC
  8
0
  6
PHANTOM
 10
604.878052
 20
-84.568535
 40
44.199982
 50
320.692413
 51
39.307659
  0
ARC
  8
0
  6
PHANTOM
 10
673.278076
 20
-28.568535
 40
44.199997
 50
140.692383
 51
219.307632
  0
ARC
  8
0
  6
PHANTOM
 10
83.278137
 20
405.765289
 40
44.200005
 50
140.692352
 51
219.307602
  0
ARC
  8
0
  6
PHANTOM
 10
14.878082
 20
349.765289
 40
44.200008
 50
320.692413
 51
39.307693
  0
ARC
  8
0
  6
PHANTOM
 10
604.878113
 20
349.765289
 40
44.199989
 50
320.692383
 51
39.307671
  0
ARC
  8
0
  6
PHANTOM
 10
673.278137
 20
405.765289
 40
44.199989
 50
140.692398
 51
219.307632
  0
ARC
  8
0
  6
PHANTOM
 10
866.741882
 20
-56.568642
 40
56.000000
 50
285.358948
 51
254.641113
  0
ARC
  8
0
  6
PHANTOM
 10
83.278076
 20
-416.333801
 40
44.200005
 50
140.692352
 51
219.307602
  0
ARC
  8
0
  6
PHANTOM
 10
14.878052
 20
-472.333801
 40
44.200008
 50
320.692413
 51
39.307693
  0
ARC
  8
0
  6
PHANTOM
 10
604.878052
 20
-472.333801
 40
44.199989
 50
320.692383
 51
39.307671
  0
ARC
  8
0
  6
PHANTOM
 10
673.278076
 20
-416.333801
 40
44.199989
 50
140.692398
 51
219.307632
  0
CIRCLE
  8
0
 10
-795.915771
 20
-136.284454
 40
6.500000
  0
CIRCLE
  8
0
 10
-895.915771
 20
33.715538
 40
6.500000
  0
CIRCLE
  8
0
 10
-895.915771
 20
-136.284454
 40
6.500000
  0
ARC
  8
0
 10
-795.915771
 20
-136.284454
 40
7.250021
 50
44.480026
 51
135.520065
  0
ARC
  8
0
 10
-895.915771
 20
-136.284454
 40
7.250021
 50
44.480026
 51
135.520065
  0
CIRCLE
  8
0
 10
-795.915771
 20
33.715538
 40
4.500000
  0
ARC
  8
0
 10
-935.915833
 20
-112.284462
 40
2.000000
 50
90.000000
 51
270.000000
  0
ARC
  8
0
 10
-455.915833
 20
-112.284462
 40
2.000000
 50
270.000000
 51
90.000000
  0
CIRCLE
  8
0
 10
-595.915833
 20
-136.284454
 40
6.500000
  0
CIRCLE
  8
0
 10
-495.915833
 20
33.715538
 40
6.500000
  0
CIRCLE
  8
0
 10
-495.915833
 20
-136.284454
 40
6.500000
  0
ARC
  8
0
 10
-595.915833
 20
-136.284454
 40
7.250010
 50
44.479939
 51
135.520065
  0
ARC
  8
0
 10
-495.915833
 20
-136.284454
 40
7.250010
 50
44.479939
 51
135.519897
  0
CIRCLE
  8
0
 10
-595.915833
 20
33.715538
 40
4.500000
  0
ARC
  8
0
 10
-892.665588
 20
337.299164
 40
9.387023
 50
249.743546
 51
290.256500
  0
ARC
  8
0
 10
-899.165588
 20
323.525116
 40
9.386994
 50
69.743484
 51
110.256516
  0
ARC
  8
0
 10
-892.665588
 20
323.525116
 40
9.386994
 50
69.743484
 51
110.256516
  0
ARC
  8
0
 10
-899.165588
 20
337.299164
 40
9.387023
 50
249.743546
 51
290.256500
  0
ARC
  8
0
 10
-499.165710
 20
337.299164
 40
9.386994
 50
249.743484
 51
290.256500
  0
ARC
  8
0
 10
-492.665710
 20
323.525116
 40
9.386994
 50
69.743484
 51
110.256516
  0
ARC
  8
0
 10
-499.165710
 20
323.525116
 40
9.386994
 50
69.743484
 51
110.256516
  0
ARC
  8
0
 10
-492.665710
 20
337.299164
 40
9.386994
 50
249.743484
 51
290.256500
  0
CIRCLE
  8
0
 10
-224.879791
 20
-136.284363
 40
5.000000
  0
ARC
  8
0
 10
-206.557281
 20
-130.655151
 40
3.322533
 50
145.615005
 51
214.384781
  0
ARC
  8
0
 10
-197.460541
 20
-136.284363
 40
12.419250
 50
162.411758
 51
197.588242
  0
ARC
  8
0
 10
-206.557281
 20
-141.913574
 40
3.322525
 50
145.615219
 51
214.384781
  0
ARC
  8
0
 10
-208.202301
 20
-130.655151
 40
3.322525
 50
325.615234
 51
34.384998
  0
ARC
  8
0
 10
-217.299042
 20
-136.284363
 40
12.419250
 50
342.411774
 51
17.588238
  0
ARC
  8
0
 10
-208.202301
 20
-141.913574
 40
3.322525
 50
325.615234
 51
34.384781
  0
ARC
  8
0
 10
-197.460541
 20
33.715698
 40
12.419252
 50
162.411728
 51
197.588181
  0
ARC
  8
0
 10
-206.557281
 20
39.344849
 40
3.322529
 50
145.615112
 51
214.384827
  0
ARC
  8
0
 10
-208.202301
 20
28.086426
 40
3.322530
 50
325.615082
 51
34.384834
  0
ARC
  8
0
 10
-206.557281
 20
28.086426
 40
3.322528
 50
145.615143
 51
214.384888
  0
ARC
  8
0
 10
-224.879791
 20
-65.284363
 40
62.000000
 50
88.677612
 51
179.999969
  0
ARC
  8
0
 10
-223.379791
 20
-0.301636
 40
3.000000
 50
268.677704
 51
360.000000
  0
ARC
  8
0
 10
-232.379791
 20
10.715637
 40
3.000000
 50
0.000000
 51
90.000000
  0
ARC
  8
0
 10
-217.379791
 20
10.715637
 40
3.000000
 50
90.000000
 51
179.999969
  0
ARC
  8
0
 10
-230.879791
 20
-65.284363
 40
71.000000
 50
91.161446
 51
179.999969
  0
ARC
  8
0
 10
-232.379791
 20
8.700439
 40
3.000000
 50
271.161407
 51
0.000000
  0
ARC
  8
0
 10
-274.879761
 20
-94.482788
 40
12.000000
 50
179.999969
 51
254.999969
  0
ARC
  8
0
 10
-271.879761
 20
-94.251404
 40
30.000000
 50
179.999969
 51
254.999969
  0
ARC
  8
0
 10
-252.879791
 20
-133.506531
 40
3.000000
 50
0.000000
 51
74.999992
  0
ARC
  8
0
 10
-239.879791
 20
-112.284363
 40
2.000000
 50
90.000000
 51
270.000000
  0
ARC
  8
0
 10
-209.879791
 20
-112.284363
 40
2.000000
 50
270.000000
 51
90.000000
  0
ARC
  8
0
 10
-208.202301
 20
39.344849
 40
3.322529
 50
325.615112
 51
34.384888
  0
ARC
  8
0
 10
-217.299042
 20
33.715698
 40
12.419250
 50
342.411774
 51
17.588238
  0
ARC
  8
0
 10
-799.165710
 20
-430.596497
 40
9.386994
 50
249.743484
 51
290.256500
  0
ARC
  8
0
 10
-792.665710
 20
-430.596497
 40
9.386994
 50
249.743484
 51
290.256500
  0
ARC
  8
0
 10
-792.665710
 20
-444.370544
 40
9.386994
 50
69.743484
 51
110.256516
  0
ARC
  8
0
 10
-799.165710
 20
-444.370544
 40
9.386994
 50
69.743484
 51
110.256516
  0
ARC
  8
0
 10
-892.665710
 20
-444.370544
 40
9.386994
 50
69.743484
 51
110.256516
  0
ARC
  8
0
 10
-899.165710
 20
-430.596497
 40
9.386994
 50
249.743484
 51
290.256500
  0
ARC
  8
0
 10
-892.665710
 20
-430.596497
 40
9.386994
 50
249.743484
 51
290.256500
  0
ARC
  8
0
 10
-899.165710
 20
-444.370544
 40
9.386994
 50
69.743484
 51
110.256516
  0
ARC
  8
0
 10
-455.915710
 20
-434.983521
 40
2.000000
 50
270.000000
 51
0.000000
  0
ARC
  8
0
 10
-455.915710
 20
-404.983521
 40
2.000000
 50
0.000000
 51
90.000000
  0
ARC
  8
0
 10
-935.915649
 20
-434.983521
 40
2.000000
 50
180.000000
 51
270.000000
  0
ARC
  8
0
 10
-935.915649
 20
-404.983521
 40
2.000000
 50
90.000000
 51
180.000000
  0
ARC
  8
0
 10
-499.165710
 20
-444.370544
 40
9.386994
 50
69.743484
 51
110.256516
  0
ARC
  8
0
 10
-492.665710
 20
-430.596497
 40
9.386994
 50
249.743484
 51
290.256500
  0
ARC
  8
0
 10
-499.165710
 20
-430.596497
 40
9.386994
 50
249.743484
 51
290.256500
  0
ARC
  8
0
 10
-492.665710
 20
-444.370544
 40
9.386994
 50
69.743484
 51
110.256516
  0
ARC
  8
0
 10
-599.165710
 20
-430.596497
 40
9.386994
 50
249.743484
 51
290.256500
  0
ARC
  8
0
 10
-592.665710
 20
-430.596497
 40
9.386994
 50
249.743484
 51
290.256500
  0
ARC
  8
0
 10
-592.665710
 20
-444.370544
 40
9.386994
 50
69.743484
 51
110.256516
  0
ARC
  8
0
 10
-599.165710
 20
-444.370544
 40
9.386994
 50
69.743484
 51
110.256516
  0
CIRCLE
  8
0
 10
104.078461
 20
68.431305
 40
8.000000
  0
CIRCLE
  8
0
 10
104.078461
 20
-139.568695
 40
8.000000
  0
ARC
  8
0
 10
64.078461
 20
-112.568695
 40
2.000000
 50
90.000000
 51
270.000000
  0
CIRCLE
  8
0
 10
224.078461
 20
-139.568695
 40
8.000000
  0
CIRCLE
  8
0
 10
584.078491
 20
68.431305
 40
8.000000
  0
CIRCLE
  8
0
 10
584.078491
 20
-139.568695
 40
8.000000
  0
ARC
  8
0
 10
624.078491
 20
-112.568695
 40
2.000000
 50
270.000000
 51
90.000000
  0
CIRCLE
  8
0
 10
464.078461
 20
-139.568695
 40
8.000000
  0
ARC
  8
0
 10
224.078461
 20
-139.568695
 40
8.750006
 50
60.035202
 51
119.964706
  0
ARC
  8
0
 10
464.078461
 20
-139.568695
 40
8.749998
 50
60.035290
 51
119.964706
  0
ARC
  8
0
 10
584.078491
 20
-139.568695
 40
8.750013
 50
60.035118
 51
119.964539
  0
ARC
  8
0
 10
104.078461
 20
-139.568695
 40
8.750002
 50
60.035248
 51
119.964706
  0
CIRCLE
  8
0
 10
224.078461
 20
68.431305
 40
5.500000
  0
CIRCLE
  8
0
 10
464.078461
 20
68.431305
 40
5.500000
  0
ARC
  8
0
 10
579.828247
 20
406.040314
 40
12.275086
 50
249.743118
 51
290.256897
  0
ARC
  8
0
 10
579.828247
 20
387.490143
 40
12.275086
 50
69.743118
 51
110.256882
  0
ARC
  8
0
 10
588.328247
 20
387.490143
 40
12.275086
 50
69.743118
 51
110.256882
  0
ARC
  8
0
 10
588.328247
 20
406.040314
 40
12.275086
 50
249.743118
 51
290.256897
  0
ARC
  8
0
 10
108.328094
 20
406.040314
 40
12.275091
 50
249.743057
 51
290.256836
  0
ARC
  8
0
 10
99.828094
 20
406.040314
 40
12.275091
 50
249.743057
 51
290.256836
  0
ARC
  8
0
 10
108.328094
 20
387.490143
 40
12.275089
 50
69.743088
 51
110.256912
  0
ARC
  8
0
 10
99.828094
 20
387.490143
 40
12.275089
 50
69.743088
 51
110.256912
  0
ARC
  8
0
 10
887.086792
 20
-146.929886
 40
4.344831
 50
146.227173
 51
214.384949
  0
ARC
  8
0
 10
887.086792
 20
-132.207474
 40
4.344842
 50
145.615051
 51
213.772827
  0
ARC
  8
0
 10
884.397095
 20
-132.207474
 40
4.344831
 50
326.227173
 51
34.385117
  0
ARC
  8
0
 10
898.982544
 20
-139.568619
 40
16.240591
 50
162.411713
 51
197.588440
  0
ARC
  8
0
 10
872.501343
 20
-139.568619
 40
16.240597
 50
342.411652
 51
17.588390
  0
ARC
  8
0
 10
884.397095
 20
-146.929886
 40
4.344842
 50
325.615051
 51
33.772831
  0
ARC
  8
0
 10
882.741943
 20
-112.568680
 40
2.000000
 50
270.000000
 51
90.000000
  0
CIRCLE
  8
0
 10
866.741943
 20
-139.568680
 40
5.000000
  0
ARC
  8
0
 10
887.086792
 20
61.070087
 40
4.344831
 50
146.227173
 51
214.384995
  0
ARC
  8
0
 10
887.086792
 20
75.792557
 40
4.344842
 50
145.615051
 51
213.772827
  0
ARC
  8
0
 10
850.741943
 20
-112.568680
 40
2.000000
 50
90.000000
 51
270.000000
  0
ARC
  8
0
 10
866.741943
 20
-52.568676
 40
78.000000
 50
89.301201
 51
179.999969
  0
ARC
  8
0
 10
858.741943
 20
-52.568676
 40
88.000000
 50
90.622765
 51
179.999969
  0
ARC
  8
0
 10
806.741943
 20
-86.143936
 40
18.000000
 50
179.999969
 51
254.999969
  0
ARC
  8
0
 10
806.741943
 20
-86.143936
 40
36.000000
 50
179.999969
 51
254.999969
  0
ARC
  8
0
 10
834.741943
 20
-135.057571
 40
4.000000
 50
0.000000
 51
74.999992
  0
ARC
  8
0
 10
867.741943
 20
29.425220
 40
4.000000
 50
269.301453
 51
0.000000
  0
ARC
  8
0
 10
857.741943
 20
39.425892
 40
4.000000
 50
270.622498
 51
0.000000
  0
ARC
  8
0
 10
857.741943
 20
41.431324
 40
4.000000
 50
0.000000
 51
90.000000
  0
ARC
  8
0
 10
875.741943
 20
41.431324
 40
4.000000
 50
90.000000
 51
179.999939
  0
ARC
  8
0
 10
884.397095
 20
75.792557
 40
4.344831
 50
326.227173
 51
34.384953
  0
ARC
  8
0
 10
872.501343
 20
68.431290
 40
16.240599
 50
342.411652
 51
17.588364
  0
ARC
  8
0
 10
884.397095
 20
61.070087
 40
4.344844
 50
325.615021
 51
33.772789
  0
ARC
  8
0
 10
898.982544
 20
68.431290
 40
16.240604
 50
162.411591
 51
197.588318
  0
ARC
  8
0
 10
228.328217
 20
-472.609039
 40
12.275086
 50
69.743118
 51
110.256950
  0
ARC
  8
0
 10
228.328217
 20
-454.058868
 40
12.275091
 50
249.743057
 51
290.256897
  0
ARC
  8
0
 10
219.828217
 20
-472.609039
 40
12.275086
 50
69.743118
 51
110.256950
  0
ARC
  8
0
 10
219.828217
 20
-454.058868
 40
12.275091
 50
249.743057
 51
290.256897
  0
ARC
  8
0
 10
108.328217
 20
-472.609039
 40
12.275089
 50
69.743088
 51
110.256912
  0
ARC
  8
0
 10
108.328217
 20
-454.058868
 40
12.275091
 50
249.743057
 51
290.256836
  0
ARC
  8
0
 10
99.828217
 20
-472.609039
 40
12.275089
 50
69.743088
 51
110.256912
  0
ARC
  8
0
 10
99.828217
 20
-454.058868
 40
12.275091
 50
249.743057
 51
290.256836
  0
ARC
  8
0
 10
624.078186
 20
-428.333954
 40
2.000000
 50
0.000000
 51
90.000000
  0
ARC
  8
0
 10
624.078186
 20
-460.333954
 40
2.000000
 50
270.000000
 51
0.000000
  0
ARC
  8
0
 10
64.078217
 20
-428.333954
 40
2.000000
 50
90.000000
 51
180.000000
  0
ARC
  8
0
 10
64.078217
 20
-460.333954
 40
2.000000
 50
180.000000
 51
270.000000
  0
ARC
  8
0
 10
579.828186
 20
-472.609039
 40
12.275086
 50
69.743118
 51
110.256836
  0
ARC
  8
0
 10
579.828186
 20
-454.058868
 40
12.275086
 50
249.743118
 51
290.256897
  0
ARC
  8
0
 10
588.328186
 20
-454.058868
 40
12.275086
 50
249.743118
 51
290.256897
  0
ARC
  8
0
 10
588.328186
 20
-472.609039
 40
12.275086
 50
69.743118
 51
110.256836
  0
ARC
  8
0
 10
468.328217
 20
-472.609039
 40
12.275086
 50
69.743118
 51
110.256882
  0
ARC
  8
0
 10
459.828217
 20
-472.609039
 40
12.275086
 50
69.743118
 51
110.256882
  0
ARC
  8
0
 10
459.828217
 20
-454.058868
 40
12.275097
 50
249.742981
 51
290.256897
  0
ARC
  8
0
 10
468.328217
 20
-454.058868
 40
12.275097
 50
249.742981
 51
290.256897
  0
TEXT
  8
0
 10
640.102356
 20
658.950867
 40
24.000000
  1
DATE : NOV ,1991
 50
0.000000
 41
1.052631
 51
0.000000
  7
STANDARD
  0
TEXT
  8
0
 10
-27.749996
 20
574.901245
 40
28.000000
  1
BORE : 80
 50
0.000000
 41
1.052632
 51
0.000000
  7
STANDARD
  0
TEXT
  8
0
 10
-1026.739014
 20
574.901245
 40
28.000000
  1
BORE : 63
 50
0.000000
 41
1.052632
 51
0.000000
  7
STANDARD
  0
TEXT
  8
0
 10
-1005.008606
 20
655.350830
 40
28.000000
  1
ORC CL MOUNT
 50
0.000000
 41
1.052632
 51
0.000000
  7
STANDARD
  0
CIRCLE
  8
0
 10
-443.915894
 20
312.912262
 40
0.700000
  0
ENDSEC
  0
EOF
