  0
SECTION
  2
HEADER
  0
ENDSEC
  0
SECTION
  2
TABLES
  0
TABLE
  2
LTYPE
 70
     4
  0
LTYPE
  2
CONTINUOUS
 70
    64
  3
Solid line
 72
    65
 73
     0
 40
0.000000
  0
LTYPE
  2
DASHED
 70
    64
  3
__ __ __ __ __ __ __ __ __ __ __ __ __ __ __
 72
    65
 73
     2
 40
3.500000
 49
2.000000
 49
-1.500000
  0
LTYPE
  2
CENTER
 70
    64
  3
____ _ ____ _ ____ _ ____ _ ____ _ ____ _ ____
 72
    65
 73
     4
 40
17.500000
 49
13.000000
 49
-1.500000
 49
1.500000
 49
-1.500000
  0
LTYPE
  2
PHANTOM
 70
    64
  3
_____ _ _ _____ _ _ _____ _ _ _____ _ _ ____  
 72
    65
 73
     6
 40
15.500000
 49
8.000000
 49
-1.500000
 49
1.500000
 49
-1.500000
 49
1.500000
 49
-1.500000
  0
LTYPE
  2
DASHED1
 70
    64
  3
__ __ __ __ __ __ __ __ __ __ __ __ __ __ __
 72
    65
 73
     2
 40
1.500000
 49
1.000000
 49
-0.500000
  0
LTYPE
  2
DASHED2
 70
    64
  3
__ __ __ __ __ __ __ __ __ __ __ __ __ __ __
 72
    65
 73
     2
 40
3.500000
 49
2.500000
 49
-1.000000
  0
LTYPE
  2
DASHED3
 70
    64
  3
__ __ __ __ __ __ __ __ __ __ __ __ __ __ __
 72
    65
 73
     2
 40
6.000000
 49
4.000000
 49
-2.000000
  0
LTYPE
  2
DASHED4
 70
    64
  3
__ __ __ __ __ __ __ __ __ __ __ __ __ __ __
 72
    65
 73
     2
 40
12.000000
 49
10.000000
 49
-2.000000
  0
LTYPE
  2
DASHED5
 70
    64
  3
__ __ __ __ __ __ __ __ __ __ __ __ __ __ __
 72
    65
 73
     2
 40
17.000000
 49
15.000000
 49
-2.000000
  0
LTYPE
  2
DASHED6
 70
    64
  3
__ __ __ __ __ __ __ __ __ __ __ __ __ __ __
 72
    65
 73
     2
 40
29.000000
 49
27.000000
 49
-2.000000
  0
LTYPE
  2
PHANTOM1
 70
    64
  3
_____ _ _ _____ _ _ _____ _ _ _____ _ _ ____  
 72
    65
 73
     6
 40
31.000000
 49
25.000000
 49
-1.500000
 49
1.000000
 49
-1.000000
 49
1.000000
 49
-1.500000
  0
LTYPE
  2
PHANTOM2
 70
    64
  3
_____ _ _ _____ _ _ _____ _ _ _____ _ _ ____  
 72
    65
 73
     6
 40
36.000000
 49
27.000000
 49
-1.500000
 49
2.500000
 49
-1.000000
 49
2.500000
 49
-1.500000
  0
LTYPE
  2
PHANTOM3
 70
    64
  3
_____ _ _ _____ _ _ _____ _ _ _____ _ _ ____  
 72
    65
 73
     6
 40
78.000000
 49
64.000000
 49
-2.000000
 49
4.000000
 49
-2.000000
 49
4.000000
 49
-2.000000
  0
LTYPE
  2
CENTER1
 70
    64
  3
____ _ ____ _ ____ _ ____ _ ____ _ ____ _ ____
 72
    65
 73
     4
 40
19.000000
 49
14.000000
 49
-1.000000
 49
3.000000
 49
-1.000000
  0
LTYPE
  2
CENTER2
 70
    64
  3
____ _ ____ _ ____ _ ____ _ ____ _ ____ _ ____
 72
    65
 73
     4
 40
28.500000
 49
25.000000
 49
-1.000000
 49
1.500000
 49
-1.000000
  0
LTYPE
  2
CENTER3
 70
    64
  3
____ _ ____ _ ____ _ ____ _ ____ _ ____ _ ____
 72
    65
 73
     4
 40
31.500000
 49
27.000000
 49
-1.000000
 49
2.500000
 49
-1.000000
  0
LTYPE
  2
CENTER4
 70
    64
  3
____ _ ____ _ ____ _ ____ _ ____ _ ____ _ ____
 72
    65
 73
     4
 40
50.000000
 49
45.000000
 49
-1.000000
 49
3.000000
 49
-1.000000
  0
LTYPE
  2
CENTER5
 70
    64
  3
____ _ ____ _ ____ _ ____ _ ____ _ ____ _ ____
 72
    65
 73
     4
 40
100.000000
 49
92.000000
 49
-2.000000
 49
4.000000
 49
-2.000000
  0
LTYPE
  2
SBK1
 70
    64
  3
______ _ _ _ ______ _ _ _ ______ _ _ _ _____  
 72
    65
 73
     8
 40
60.500000
 49
45.000000
 49
-2.000000
 49
2.500000
 49
-2.000000
 49
2.500000
 49
-2.000000
 49
2.500000
 49
-2.000000
  0
LTYPE
  2
SBK2
 70
    64
  3
______ _ _ _ ______ _ _ _ ______ _ _ _ _____  
 72
    65
 73
     8
 40
84.000000
 49
64.000000
 49
-2.000000
 49
4.000000
 49
-2.000000
 49
4.000000
 49
-2.000000
 49
4.000000
 49
-2.000000
  0
LTYPE
  2
STCH
 70
    64
  3
__ __ __ __ __ __ __ __ __ __ __ __ __ __ __
 72
    65
 73
     2
 40
3.000000
 49
1.000000
 49
-2.000000
  0
LTYPE
  2
MTCH
 70
    64
  3
_____ _ _ _____ _ _ _____ _ _ _____ _ _ ____  
 72
    65
 73
     6
 40
80.000000
 49
66.000000
 49
-2.000000
 49
4.000000
 49
-2.000000
 49
4.000000
 49
-2.000000
  0
ENDTAB
  0
TABLE
  2
LAYER
 70
     1
  0
LAYER
  2
0
 70
     0
 62
     7
  6
CONTINUOUS
  0
ENDTAB
  0
TABLE
  2
STYLE
 70
     1
  0
STYLE
  2
STANDARD
 70
     0
 40
0.000000
 41
1.000000
 50
0.000000
 71
     0
 42
0.200000
  3
txt
  4
BIGFONT
  0
ENDTAB
  0
TABLE
  2
VIEW
 70
     0
  0
ENDTAB
  0
ENDSEC
  0
SECTION
  2
BLOCKS
  0
ENDSEC
  0
SECTION
  2
ENTITIES
  0
POINT
  8
0
 10
-49.999992
 20
28.639631
  0
POINT
  8
0
 10
-49.999989
 20
-39.999989
  0
POINT
  8
0
 10
42.718399
 20
-39.999996
  0
POINT
  8
0
 10
-35.999989
 20
-39.999989
  0
POINT
  8
0
 10
-35.999985
 20
28.639631
  0
POINT
  8
0
 10
51.218399
 20
-39.999996
  0
LINE
  8
0
 62
     3
 10
-131.123611
 20
-90.000008
 11
-131.123611
 21
90.000008
  0
LINE
  8
0
 62
     3
 10
131.123611
 20
90.000008
 11
131.123611
 21
-90.000008
  0
LINE
  8
0
 62
     3
 10
-131.123611
 20
-90.000008
 11
131.123611
 21
-90.000008
  0
LINE
  8
0
 62
     3
 10
-131.123611
 20
90.000008
 11
131.123611
 21
90.000008
  0
LINE
  8
0
 62
     3
 10
-131.123611
 20
79.887642
 11
-77.191025
 21
79.887642
  0
LINE
  8
0
 62
     3
 10
-77.191025
 20
79.887642
 11
-77.191025
 21
90.000008
  0
LINE
  8
0
 62
     3
 10
77.191010
 20
-79.887642
 11
131.123611
 21
-79.887642
  0
LINE
  8
0
 62
     5
 10
91.351692
 20
-82.319160
 11
96.532585
 21
-82.319160
  0
LINE
  8
0
 62
     5
 10
91.351692
 20
-86.913544
 11
95.750565
 21
-86.913544
  0
LINE
  8
0
 62
     5
 10
91.351692
 20
-88.086571
 11
97.314606
 21
-88.086571
  0
LINE
  8
0
 62
     5
 10
91.351692
 20
-83.492180
 11
95.750565
 21
-83.492180
  0
LINE
  8
0
 62
     5
 10
91.351692
 20
-82.319160
 11
91.351692
 21
-83.492180
  0
LINE
  8
0
 62
     5
 10
97.314606
 20
-83.101181
 11
97.314606
 21
-88.086571
  0
LINE
  8
0
 62
     5
 10
95.750565
 20
-83.492180
 11
95.750565
 21
-86.913544
  0
LINE
  8
0
 62
     5
 10
98.194382
 20
-82.319160
 11
98.194382
 21
-83.492180
  0
LINE
  8
0
 62
     5
 10
103.766281
 20
-83.492180
 11
103.766281
 21
-87.304565
  0
LINE
  8
0
 62
     5
 10
102.202255
 20
-83.492180
 11
102.202255
 21
-86.913544
  0
LINE
  8
0
 62
     5
 10
91.351692
 20
-86.913544
 11
91.351692
 21
-88.086571
  0
LINE
  8
0
 62
     5
 10
98.194382
 20
-82.319160
 11
99.739777
 21
-82.319160
  0
LINE
  8
0
 62
     5
 10
98.194382
 20
-88.086571
 11
99.408798
 21
-88.086571
  0
LINE
  8
0
 62
     5
 10
98.194626
 20
-88.086761
 11
99.425705
 21
-83.492393
  0
LINE
  8
0
 62
     5
 10
98.194382
 20
-83.492180
 11
99.425446
 21
-83.492180
  0
LINE
  8
0
 62
     5
 10
99.409012
 20
-88.086739
 11
100.640053
 21
-83.492348
  0
LINE
  8
0
 62
     5
 10
101.029198
 20
-86.913544
 11
102.202255
 21
-86.913544
  0
LINE
  8
0
 62
     5
 10
101.029106
 20
-86.913483
 11
101.343437
 21
-88.086472
  0
LINE
  8
0
 62
     5
 10
101.343529
 20
-88.086571
 11
102.984276
 21
-88.086571
  0
LINE
  8
0
 62
     5
 10
100.639870
 20
-83.492180
 11
102.202255
 21
-83.492180
  0
LINE
  8
0
 62
     5
 10
100.954170
 20
-82.319160
 11
102.593254
 21
-82.319160
  0
LINE
  8
0
 62
     5
 10
99.739807
 20
-82.319191
 11
99.972908
 21
-81.449203
  0
LINE
  8
0
 62
     5
 10
100.954170
 20
-82.319160
 11
101.187286
 21
-81.449188
  0
LINE
  8
0
 62
     5
 10
104.743820
 20
-82.319160
 11
106.601120
 21
-82.319160
  0
LINE
  8
0
 62
     5
 10
104.743820
 20
-83.492180
 11
109.305298
 21
-83.492180
  0
LINE
  8
0
 62
     5
 10
106.601120
 20
-88.086571
 11
108.165161
 21
-88.086571
  0
LINE
  8
0
 62
     5
 10
104.743820
 20
-82.319160
 11
104.743820
 21
-83.492180
  0
LINE
  8
0
 62
     5
 10
110.511230
 20
-85.619255
 11
110.511230
 21
-86.913544
  0
LINE
  8
0
 62
     5
 10
104.743713
 20
-86.913445
 11
106.600998
 21
-86.047371
  0
LINE
  8
0
 62
     5
 10
104.743843
 20
-85.619270
 11
109.305313
 21
-83.492203
  0
LINE
  8
0
 62
     5
 10
104.743820
 20
-85.619255
 11
104.743820
 21
-86.913544
  0
LINE
  8
0
 62
     5
 10
108.165161
 20
-85.819550
 11
110.511246
 21
-86.913551
  0
LINE
  8
0
 62
     5
 10
109.015442
 20
-84.921768
 11
110.511322
 21
-85.619316
  0
LINE
  8
0
 62
     5
 10
110.511230
 20
-83.101181
 11
110.511230
 21
-83.725945
  0
LINE
  8
0
 62
     5
 10
106.601120
 20
-81.449158
 11
106.601120
 21
-82.319160
  0
LINE
  8
0
 62
     5
 10
108.165161
 20
-81.449158
 11
108.165161
 21
-82.319160
  0
LINE
  8
0
 62
     5
 10
108.165161
 20
-82.319160
 11
109.729218
 21
-82.319160
  0
LINE
  8
0
 62
     5
 10
106.601120
 20
-86.047470
 11
106.601120
 21
-88.086571
  0
LINE
  8
0
 62
     5
 10
108.165161
 20
-85.819557
 11
108.165161
 21
-88.086571
  0
LINE
  8
0
 62
     5
 10
109.015335
 20
-84.921661
 11
110.059692
 21
-84.434677
  0
LINE
  8
0
 62
     5
 10
115.789886
 20
-81.801071
 11
116.962921
 21
-81.801071
  0
LINE
  8
0
 62
     5
 10
111.000000
 20
-84.224159
 11
111.000000
 21
-85.486557
  0
LINE
  8
0
 62
     5
 10
116.962921
 20
-81.801071
 11
116.962921
 21
-82.319160
  0
LINE
  8
0
 62
     5
 10
115.789886
 20
-81.801071
 11
115.789886
 21
-82.053864
  0
LINE
  8
0
 62
     5
 10
114.225830
 20
-84.203606
 11
114.225830
 21
-88.086571
  0
LINE
  8
0
 62
     5
 10
111.000130
 20
-84.224258
 11
115.543495
 21
-82.417297
  0
LINE
  8
0
 62
     5
 10
111.000031
 20
-85.486618
 11
114.225914
 21
-84.203659
  0
LINE
  8
0
 62
     5
 10
114.225830
 20
-88.086571
 11
115.789886
 21
-88.086571
  0
LINE
  8
0
 62
     5
 10
115.789886
 20
-83.581558
 11
115.789886
 21
-88.086571
  0
LINE
  8
0
 62
     5
 10
115.790016
 20
-83.581619
 11
116.223518
 21
-83.409203
  0
LINE
  8
0
 62
     5
 10
99.972916
 20
-81.449158
 11
101.187286
 21
-81.449158
  0
LINE
  8
0
 62
     5
 10
103.130898
 20
-81.449158
 11
103.629425
 21
-81.449158
  0
LINE
  8
0
 62
     5
 10
106.601120
 20
-81.449158
 11
108.165161
 21
-81.449158
  0
LINE
  8
0
 62
     5
 10
103.130898
 20
-82.231186
 11
103.629425
 21
-82.231186
  0
LINE
  8
0
 62
     5
 10
103.130898
 20
-81.449158
 11
103.130898
 21
-82.231186
  0
LINE
  8
0
 62
     5
 10
103.629425
 20
-81.449158
 11
103.629425
 21
-82.231186
  0
LINE
  8
0
 62
     5
 10
103.922707
 20
-81.449158
 11
103.922707
 21
-82.231186
  0
LINE
  8
0
 62
     5
 10
104.479889
 20
-81.449158
 11
104.479889
 21
-82.231186
  0
LINE
  8
0
 62
     5
 10
103.922707
 20
-81.449158
 11
104.479889
 21
-81.449158
  0
LINE
  8
0
 62
     5
 10
103.922707
 20
-82.231186
 11
104.479889
 21
-82.231186
  0
LINE
  8
0
 62
     3
 10
77.191010
 20
79.887642
 11
131.123611
 21
79.887642
  0
LINE
  8
0
 62
     3
 10
77.191010
 20
90.000008
 11
77.191010
 21
79.887642
  0
LINE
  8
0
 62
     3
 10
77.191010
 20
-79.887642
 11
77.191010
 21
-90.000008
  0
LINE
  8
0
  6
PHANTOM
 10
-61.722427
 20
-31.499992
 11
-33.722412
 21
-31.499992
  0
LINE
  8
0
  6
PHANTOM
 10
-66.277557
 20
-48.499992
 11
-55.999985
 21
-48.499992
  0
LINE
  8
0
  6
PHANTOM
 10
-61.411785
 20
-30.340738
 11
-66.588173
 21
-49.659256
  0
LINE
  8
0
  6
PHANTOM
 10
-38.588165
 20
-49.659260
 11
-33.411785
 21
-30.340742
  0
LINE
  8
0
  6
PHANTOM
 10
-43.999985
 20
-48.499992
 11
-38.277550
 21
-48.499992
  0
LINE
  8
0
  6
PHANTOM
 10
-61.722412
 20
37.139626
 11
-33.722412
 21
37.139626
  0
LINE
  8
0
  6
PHANTOM
 10
-66.277557
 20
20.139626
 11
-38.277542
 21
20.139626
  0
LINE
  8
0
  6
PHANTOM
 10
-61.411762
 20
38.298866
 11
-66.588150
 21
18.980349
  0
LINE
  8
0
  6
PHANTOM
 10
-38.588161
 20
18.980373
 11
-33.411777
 21
38.298889
  0
LINE
  8
0
  6
PHANTOM
 10
36.718414
 20
-31.499992
 11
48.718414
 21
-31.499992
  0
LINE
  8
0
  6
PHANTOM
 10
36.718414
 20
-48.499992
 11
48.718414
 21
-48.499992
  0
LINE
  8
0
  6
PHANTOM
 10
51.218414
 20
-33.999992
 11
51.218414
 21
-45.999992
  0
LINE
  8
0
  6
PHANTOM
 10
34.218414
 20
-33.999992
 11
34.218414
 21
-45.999992
  0
LINE
  8
0
  6
CENTER
 10
-68.560226
 20
-40.000000
 11
-31.397491
 21
-40.000000
  0
LINE
  8
0
  6
CENTER
 10
-50.000000
 20
-28.359390
 11
-50.000000
 21
-52.485435
  0
LINE
  8
0
  6
CENTER
 10
-68.427979
 20
28.639633
 11
-31.265236
 21
28.639633
  0
LINE
  8
0
  6
CENTER
 10
-50.000000
 20
46.961197
 11
-50.000000
 21
10.591972
  0
LINE
  8
0
  6
CENTER
 10
42.718399
 20
-28.491638
 11
42.718399
 21
-52.499992
  0
LINE
  8
0
  6
CENTER
 10
30.218399
 20
-39.999992
 11
55.218399
 21
-39.999992
  0
LINE
  8
0
 10
-55.999989
 20
-47.199989
 11
-43.999989
 21
-47.199989
  0
LINE
  8
0
 10
-55.999989
 20
-50.999989
 11
-43.999989
 21
-50.999989
  0
LINE
  8
0
 10
-55.999989
 20
-47.499989
 11
-43.999989
 21
-47.499989
  0
LINE
  8
0
 10
-43.999989
 20
-47.199989
 11
-43.999989
 21
-50.999989
  0
LINE
  8
0
 10
-55.999989
 20
-47.199989
 11
-55.999989
 21
-50.999989
  0
LINE
  8
0
  6
DASHED
 10
-51.799992
 20
-47.499989
 11
-51.799992
 21
-50.999989
  0
LINE
  8
0
  6
DASHED
 10
-48.199986
 20
-47.499989
 11
-48.199986
 21
-50.999989
  0
LINE
  8
0
 10
-55.999992
 20
45.139633
 11
-43.999992
 21
45.139633
  0
LINE
  8
0
 10
-55.999992
 20
31.639631
 11
-55.999992
 21
45.139633
  0
LINE
  8
0
 10
-55.999992
 20
37.075699
 11
-43.999992
 21
37.075699
  0
LINE
  8
0
 10
-55.999992
 20
33.239632
 11
-43.999992
 21
33.239632
  0
LINE
  8
0
 10
-55.999992
 20
25.639631
 11
-43.999992
 21
25.639631
  0
LINE
  8
0
 10
-55.999992
 20
31.639631
 11
-43.999992
 21
31.639631
  0
LINE
  8
0
 10
-55.999992
 20
12.139631
 11
-43.999992
 21
12.139631
  0
LINE
  8
0
 10
-43.999992
 20
25.639631
 11
-43.999992
 21
12.139631
  0
LINE
  8
0
 10
-55.999992
 20
25.639631
 11
-55.999992
 21
12.139631
  0
LINE
  8
0
 10
-55.999992
 20
20.203566
 11
-43.999992
 21
20.203566
  0
LINE
  8
0
 10
-43.999992
 20
31.639631
 11
-43.999992
 21
45.139633
  0
LINE
  8
0
 10
-55.999992
 20
24.039633
 11
-43.999992
 21
24.039633
  0
LINE
  8
0
  6
CENTER
 10
-52.999992
 20
41.139633
 11
-46.999992
 21
41.139633
  0
LINE
  8
0
  6
DASHED
 10
-55.999992
 20
31.939627
 11
-43.999992
 21
31.939627
  0
LINE
  8
0
  6
DASHED
 10
-55.999992
 20
25.339636
 11
-43.999992
 21
25.339636
  0
LINE
  8
0
  6
CENTER
 10
-52.999992
 20
16.139631
 11
-46.999992
 21
16.139631
  0
LINE
  8
0
 10
26.218399
 20
-50.999996
 11
39.718399
 21
-50.999996
  0
LINE
  8
0
 10
59.218399
 20
-47.499996
 11
59.218399
 21
-50.999996
  0
LINE
  8
0
 10
26.218399
 20
-47.499996
 11
26.218399
 21
-50.999996
  0
LINE
  8
0
 10
45.718399
 20
-48.799995
 11
45.718399
 21
-50.999996
  0
LINE
  8
0
 10
45.718399
 20
-50.999996
 11
59.218399
 21
-50.999996
  0
LINE
  8
0
 10
51.154465
 20
-47.499996
 11
59.218399
 21
-47.499996
  0
LINE
  8
0
 10
34.282333
 20
-47.499996
 11
26.218399
 21
-47.499996
  0
LINE
  8
0
 10
47.318405
 20
-48.499996
 11
48.918404
 21
-48.499996
  0
LINE
  8
0
 10
39.718399
 20
-48.799995
 11
39.718399
 21
-50.999996
  0
LINE
  8
0
 10
38.118408
 20
-48.499996
 11
36.518402
 21
-48.499996
  0
LINE
  8
0
  6
DASHED
 10
28.418404
 20
-47.499996
 11
28.418404
 21
-50.999996
  0
LINE
  8
0
  6
CENTER
 10
30.218399
 20
-45.682396
 11
30.218399
 21
-52.352993
  0
LINE
  8
0
  6
DASHED
 10
32.018402
 20
-47.499996
 11
32.018402
 21
-50.999996
  0
LINE
  8
0
  6
DASHED
 10
53.418404
 20
-47.499996
 11
53.418404
 21
-50.999996
  0
LINE
  8
0
  6
CENTER
 10
55.218399
 20
-45.682396
 11
55.218399
 21
-52.352993
  0
LINE
  8
0
  6
DASHED
 10
57.018402
 20
-47.499996
 11
57.018402
 21
-50.999996
  0
ARC
  8
0
 62
     5
 10
96.532585
 20
-83.101181
 40
0.782021
 50
0.000000
 51
90.000000
  0
ARC
  8
0
 62
     5
 10
102.984276
 20
-87.304565
 40
0.782021
 50
270.000000
 51
0.000000
  0
ARC
  8
0
 62
     5
 10
102.593254
 20
-83.492180
 40
1.173035
 50
0.000000
 51
90.000000
  0
ARC
  8
0
 62
     5
 10
109.729218
 20
-83.101181
 40
0.782021
 50
0.000000
 51
90.000000
  0
ARC
  8
0
 62
     5
 10
109.729218
 20
-83.725945
 40
0.782025
 50
294.999969
 51
0.000000
  0
ARC
  8
0
 62
     5
 10
115.789886
 20
-82.319160
 40
1.173037
 50
291.688202
 51
0.000000
  0
ARC
  8
0
 62
     5
 10
115.398865
 20
-82.053864
 40
0.391008
 50
291.688477
 51
0.000000
  0
ARC
  8
0
  6
PHANTOM
 10
48.718414
 20
-45.999992
 40
2.500000
 50
270.000000
 51
0.000000
  0
ARC
  8
0
  6
PHANTOM
 10
36.718414
 20
-45.999992
 40
2.500000
 50
180.000000
 51
270.000000
  0
ARC
  8
0
  6
PHANTOM
 10
48.718414
 20
-33.999992
 40
2.500000
 50
0.000000
 51
90.000000
  0
ARC
  8
0
  6
PHANTOM
 10
36.718414
 20
-33.999992
 40
2.500000
 50
90.000000
 51
180.000000
  0
CIRCLE
  8
0
 10
-49.999992
 20
41.139633
 40
1.800000
  0
CIRCLE
  8
0
 10
-49.999992
 20
16.139631
 40
1.800000
  0
ARC
  8
0
 10
36.518402
 20
-45.499996
 40
3.000000
 50
221.810303
 51
269.999939
  0
ARC
  8
0
 10
39.418404
 20
-48.499996
 40
1.299999
 50
90.000000
 51
180.000000
  0
ARC
  8
0
 10
39.418404
 20
-47.499996
 40
0.299999
 50
270.000000
 51
90.000000
  0
ARC
  8
0
 10
39.418404
 20
-48.149994
 40
0.349998
 50
90.000000
 51
270.000000
  0
ARC
  8
0
 10
39.418404
 20
-48.799995
 40
0.299999
 50
0.000000
 51
90.000000
  0
ARC
  8
0
 10
48.918404
 20
-45.499996
 40
3.000000
 50
270.000000
 51
318.189697
  0
ARC
  8
0
 10
46.018402
 20
-48.499996
 40
1.299999
 50
0.000000
 51
90.000000
  0
ARC
  8
0
 10
46.018402
 20
-48.799995
 40
0.299999
 50
90.000000
 51
180.000000
  0
ARC
  8
0
 10
46.018402
 20
-47.499996
 40
0.299999
 50
90.000000
 51
270.000000
  0
ARC
  8
0
 10
46.018402
 20
-48.149994
 40
0.349998
 50
270.000000
 51
90.000000
  0
TEXT
  8
0
 10
80.231529
 20
83.243828
 40
3.000000
  1
DATE : NOV,1991
 50
0.000000
 41
1.052632
 51
0.000000
  7
STANDARD
  0
TEXT
  8
0
 10
-127.157318
 20
82.793823
 40
3.500000
  1
ORC I SUPPORT
 50
0.000000
 41
1.052632
 51
0.000000
  7
STANDARD
  0
TEXT
  8
0
 10
-118.123611
 20
62.737640
 40
3.500000
  1
BORE : 10
 50
0.000000
 41
1.052632
 51
0.000000
  7
STANDARD
  0
ENDSEC
  0
EOF
