  0
SECTION
  2
HEADER
  0
ENDSEC
  0
SECTION
  2
TABLES
  0
TABLE
  2
LTYPE
 70
     4
  0
LTYPE
  2
CONTINUOUS
 70
    64
  3
Solid line
 72
    65
 73
     0
 40
0.000000
  0
LTYPE
  2
DASHED
 70
    64
  3
__ __ __ __ __ __ __ __ __ __ __ __ __ __ __
 72
    65
 73
     2
 40
3.500000
 49
2.000000
 49
-1.500000
  0
LTYPE
  2
CENTER
 70
    64
  3
____ _ ____ _ ____ _ ____ _ ____ _ ____ _ ____
 72
    65
 73
     4
 40
17.500000
 49
13.000000
 49
-1.500000
 49
1.500000
 49
-1.500000
  0
LTYPE
  2
PHANTOM
 70
    64
  3
_____ _ _ _____ _ _ _____ _ _ _____ _ _ ____  
 72
    65
 73
     6
 40
15.500000
 49
8.000000
 49
-1.500000
 49
1.500000
 49
-1.500000
 49
1.500000
 49
-1.500000
  0
LTYPE
  2
DASHED1
 70
    64
  3
__ __ __ __ __ __ __ __ __ __ __ __ __ __ __
 72
    65
 73
     2
 40
1.500000
 49
1.000000
 49
-0.500000
  0
LTYPE
  2
DASHED2
 70
    64
  3
__ __ __ __ __ __ __ __ __ __ __ __ __ __ __
 72
    65
 73
     2
 40
3.500000
 49
2.500000
 49
-1.000000
  0
LTYPE
  2
DASHED3
 70
    64
  3
__ __ __ __ __ __ __ __ __ __ __ __ __ __ __
 72
    65
 73
     2
 40
6.000000
 49
4.000000
 49
-2.000000
  0
LTYPE
  2
DASHED4
 70
    64
  3
__ __ __ __ __ __ __ __ __ __ __ __ __ __ __
 72
    65
 73
     2
 40
12.000000
 49
10.000000
 49
-2.000000
  0
LTYPE
  2
DASHED5
 70
    64
  3
__ __ __ __ __ __ __ __ __ __ __ __ __ __ __
 72
    65
 73
     2
 40
17.000000
 49
15.000000
 49
-2.000000
  0
LTYPE
  2
DASHED6
 70
    64
  3
__ __ __ __ __ __ __ __ __ __ __ __ __ __ __
 72
    65
 73
     2
 40
29.000000
 49
27.000000
 49
-2.000000
  0
LTYPE
  2
PHANTOM1
 70
    64
  3
_____ _ _ _____ _ _ _____ _ _ _____ _ _ ____  
 72
    65
 73
     6
 40
31.000000
 49
25.000000
 49
-1.500000
 49
1.000000
 49
-1.000000
 49
1.000000
 49
-1.500000
  0
LTYPE
  2
PHANTOM2
 70
    64
  3
_____ _ _ _____ _ _ _____ _ _ _____ _ _ ____  
 72
    65
 73
     6
 40
36.000000
 49
27.000000
 49
-1.500000
 49
2.500000
 49
-1.000000
 49
2.500000
 49
-1.500000
  0
LTYPE
  2
PHANTOM3
 70
    64
  3
_____ _ _ _____ _ _ _____ _ _ _____ _ _ ____  
 72
    65
 73
     6
 40
78.000000
 49
64.000000
 49
-2.000000
 49
4.000000
 49
-2.000000
 49
4.000000
 49
-2.000000
  0
LTYPE
  2
CENTER1
 70
    64
  3
____ _ ____ _ ____ _ ____ _ ____ _ ____ _ ____
 72
    65
 73
     4
 40
19.000000
 49
14.000000
 49
-1.000000
 49
3.000000
 49
-1.000000
  0
LTYPE
  2
CENTER2
 70
    64
  3
____ _ ____ _ ____ _ ____ _ ____ _ ____ _ ____
 72
    65
 73
     4
 40
28.500000
 49
25.000000
 49
-1.000000
 49
1.500000
 49
-1.000000
  0
LTYPE
  2
CENTER3
 70
    64
  3
____ _ ____ _ ____ _ ____ _ ____ _ ____ _ ____
 72
    65
 73
     4
 40
31.500000
 49
27.000000
 49
-1.000000
 49
2.500000
 49
-1.000000
  0
LTYPE
  2
CENTER4
 70
    64
  3
____ _ ____ _ ____ _ ____ _ ____ _ ____ _ ____
 72
    65
 73
     4
 40
50.000000
 49
45.000000
 49
-1.000000
 49
3.000000
 49
-1.000000
  0
LTYPE
  2
CENTER5
 70
    64
  3
____ _ ____ _ ____ _ ____ _ ____ _ ____ _ ____
 72
    65
 73
     4
 40
100.000000
 49
92.000000
 49
-2.000000
 49
4.000000
 49
-2.000000
  0
LTYPE
  2
SBK1
 70
    64
  3
______ _ _ _ ______ _ _ _ ______ _ _ _ _____  
 72
    65
 73
     8
 40
60.500000
 49
45.000000
 49
-2.000000
 49
2.500000
 49
-2.000000
 49
2.500000
 49
-2.000000
 49
2.500000
 49
-2.000000
  0
LTYPE
  2
SBK2
 70
    64
  3
______ _ _ _ ______ _ _ _ ______ _ _ _ _____  
 72
    65
 73
     8
 40
84.000000
 49
64.000000
 49
-2.000000
 49
4.000000
 49
-2.000000
 49
4.000000
 49
-2.000000
 49
4.000000
 49
-2.000000
  0
LTYPE
  2
STCH
 70
    64
  3
__ __ __ __ __ __ __ __ __ __ __ __ __ __ __
 72
    65
 73
     2
 40
3.000000
 49
1.000000
 49
-2.000000
  0
LTYPE
  2
MTCH
 70
    64
  3
_____ _ _ _____ _ _ _____ _ _ _____ _ _ ____  
 72
    65
 73
     6
 40
80.000000
 49
66.000000
 49
-2.000000
 49
4.000000
 49
-2.000000
 49
4.000000
 49
-2.000000
  0
ENDTAB
  0
TABLE
  2
LAYER
 70
     1
  0
LAYER
  2
0
 70
     0
 62
     7
  6
CONTINUOUS
  0
ENDTAB
  0
TABLE
  2
STYLE
 70
     1
  0
STYLE
  2
STANDARD
 70
     0
 40
0.000000
 41
1.000000
 50
0.000000
 71
     0
 42
0.200000
  3
txt
  4
BIGFONT
  0
ENDTAB
  0
TABLE
  2
VIEW
 70
     0
  0
ENDTAB
  0
ENDSEC
  0
SECTION
  2
BLOCKS
  0
ENDSEC
  0
SECTION
  2
ENTITIES
  0
POINT
  8
0
 10
-139.563095
 20
388.934448
  0
POINT
  8
0
 10
-139.563171
 20
132.978210
  0
POINT
  8
0
 10
321.310516
 20
132.978226
  0
POINT
  8
0
 10
112.436829
 20
132.978210
  0
POINT
  8
0
 10
112.436905
 20
388.934448
  0
POINT
  8
0
 10
365.310516
 20
132.978226
  0
POINT
  8
0
 10
-171.747192
 20
-381.837769
  0
POINT
  8
0
 10
-171.747116
 20
-102.279236
  0
POINT
  8
0
 10
333.252838
 20
-381.837799
  0
POINT
  8
0
 10
123.252808
 20
-381.837769
  0
POINT
  8
0
 10
123.252884
 20
-102.279236
  0
POINT
  8
0
 10
389.252808
 20
-381.837799
  0
LINE
  8
0
 10
436.658356
 20
-451.912964
 11
741.747192
 21
-451.912964
  0
LINE
  8
0
 10
-436.658356
 20
451.912811
 11
-436.658356
 21
509.117035
  0
LINE
  8
0
 10
-741.747192
 20
451.912811
 11
-436.658356
 21
451.912811
  0
LINE
  8
0
 10
-741.747192
 20
509.117035
 11
741.747192
 21
509.117035
  0
LINE
  8
0
 10
-741.747192
 20
-509.117035
 11
741.747192
 21
-509.117035
  0
LINE
  8
0
 10
741.747192
 20
509.117035
 11
741.747192
 21
-509.117035
  0
LINE
  8
0
 10
-741.747192
 20
-509.117035
 11
-741.747192
 21
509.117035
  0
LINE
  8
0
 10
436.658356
 20
-451.912964
 11
436.658356
 21
-509.117035
  0
LINE
  8
0
 10
436.658356
 20
509.117035
 11
436.658356
 21
451.912811
  0
LINE
  8
0
 10
436.658356
 20
451.912811
 11
741.747192
 21
451.912811
  0
LINE
  8
0
 10
516.763306
 20
-472.303223
 11
541.647156
 21
-472.303223
  0
LINE
  8
0
 10
516.763306
 20
-498.292999
 11
550.494751
 21
-498.292999
  0
LINE
  8
0
 10
516.763306
 20
-491.657379
 11
541.647156
 21
-491.657379
  0
LINE
  8
0
 10
516.763306
 20
-465.667511
 11
546.070862
 21
-465.667511
  0
LINE
  8
0
 10
541.647156
 20
-472.303223
 11
541.647156
 21
-491.657379
  0
LINE
  8
0
 10
550.494751
 20
-470.091400
 11
550.494751
 21
-498.292999
  0
LINE
  8
0
 10
516.763306
 20
-491.657379
 11
516.763306
 21
-498.292999
  0
LINE
  8
0
 10
586.990845
 20
-472.303223
 11
586.990845
 21
-493.869354
  0
LINE
  8
0
 10
555.471375
 20
-465.667511
 11
555.471375
 21
-472.303223
  0
LINE
  8
0
 10
587.875732
 20
-465.169983
 11
591.027710
 21
-465.169983
  0
LINE
  8
0
 10
587.875732
 20
-460.746094
 11
591.027710
 21
-460.746094
  0
LINE
  8
0
 10
591.027710
 20
-460.746094
 11
591.027710
 21
-465.169983
  0
LINE
  8
0
 10
587.875732
 20
-460.746094
 11
587.875732
 21
-465.169983
  0
LINE
  8
0
 10
586.216614
 20
-460.746094
 11
586.216614
 21
-465.169983
  0
LINE
  8
0
 10
565.532166
 20
-460.746094
 11
572.401855
 21
-460.746094
  0
LINE
  8
0
 10
571.082458
 20
-465.666931
 11
572.401123
 21
-460.745453
  0
LINE
  8
0
 10
564.213440
 20
-465.667480
 11
565.532104
 21
-460.746002
  0
LINE
  8
0
 10
571.083191
 20
-465.667511
 11
580.355164
 21
-465.667511
  0
LINE
  8
0
 10
569.305176
 20
-472.303223
 11
578.143372
 21
-472.303223
  0
LINE
  8
0
 10
573.285767
 20
-498.292999
 11
582.567200
 21
-498.292999
  0
LINE
  8
0
 10
571.507446
 20
-491.657257
 11
573.285522
 21
-498.292725
  0
LINE
  8
0
 10
571.507568
 20
-491.657379
 11
578.143372
 21
-491.657379
  0
LINE
  8
0
 10
562.341553
 20
-498.293396
 11
569.305420
 21
-472.303528
  0
LINE
  8
0
 10
555.471375
 20
-472.303223
 11
562.435425
 21
-472.303223
  0
LINE
  8
0
 10
555.471130
 20
-498.292755
 11
562.435242
 21
-472.302887
  0
LINE
  8
0
 10
555.471375
 20
-498.292999
 11
562.341248
 21
-498.292999
  0
LINE
  8
0
 10
555.471375
 20
-465.667511
 11
564.213440
 21
-465.667511
  0
LINE
  8
0
 10
578.143372
 20
-472.303223
 11
578.143372
 21
-491.657379
  0
LINE
  8
0
 10
583.064636
 20
-460.746094
 11
586.216614
 21
-460.746094
  0
LINE
  8
0
 10
583.064636
 20
-465.169983
 11
586.216614
 21
-465.169983
  0
LINE
  8
0
 10
583.064636
 20
-460.746094
 11
583.064636
 21
-465.169983
  0
LINE
  8
0
 10
603.027161
 20
-460.746094
 11
611.874634
 21
-460.746094
  0
LINE
  8
0
 10
616.684692
 20
-480.390106
 11
622.592529
 21
-477.635315
  0
LINE
  8
0
 10
611.874634
 20
-485.468903
 11
611.874634
 21
-498.292999
  0
LINE
  8
0
 10
603.027161
 20
-486.758148
 11
603.027161
 21
-498.292999
  0
LINE
  8
0
 10
611.874634
 20
-465.667511
 11
620.722290
 21
-465.667511
  0
LINE
  8
0
 10
611.874634
 20
-460.746094
 11
611.874634
 21
-465.667511
  0
LINE
  8
0
 10
603.027161
 20
-460.746094
 11
603.027161
 21
-465.667511
  0
LINE
  8
0
 10
625.146118
 20
-470.091400
 11
625.146118
 21
-473.625641
  0
LINE
  8
0
 10
616.684753
 20
-480.389984
 11
625.146667
 21
-484.335999
  0
LINE
  8
0
 10
611.874634
 20
-485.468781
 11
625.146179
 21
-491.657349
  0
LINE
  8
0
 10
592.520630
 20
-484.335693
 11
592.520630
 21
-491.657379
  0
LINE
  8
0
 10
592.521545
 20
-484.336395
 11
618.325195
 21
-472.303925
  0
LINE
  8
0
 10
592.520630
 20
-491.657349
 11
603.027344
 21
-486.757965
  0
LINE
  8
0
 10
625.146118
 20
-484.335693
 11
625.146118
 21
-491.657379
  0
LINE
  8
0
 10
592.520630
 20
-465.667511
 11
592.520630
 21
-472.303223
  0
LINE
  8
0
 10
603.027161
 20
-498.292999
 11
611.874634
 21
-498.292999
  0
LINE
  8
0
 10
592.520630
 20
-472.303223
 11
618.324219
 21
-472.303223
  0
LINE
  8
0
 10
592.520630
 20
-465.667511
 11
603.027161
 21
-465.667511
  0
LINE
  8
0
 10
655.007935
 20
-472.809448
 11
657.460022
 21
-471.834076
  0
LINE
  8
0
 10
655.006836
 20
-472.808868
 11
655.006836
 21
-498.292999
  0
LINE
  8
0
 10
646.159119
 20
-498.292999
 11
655.006836
 21
-498.292999
  0
LINE
  8
0
 10
627.910522
 20
-483.584991
 11
646.158691
 21
-476.327423
  0
LINE
  8
0
 10
627.911011
 20
-476.443848
 11
653.612183
 21
-466.222107
  0
LINE
  8
0
 10
646.159119
 20
-476.327606
 11
646.159119
 21
-498.292999
  0
LINE
  8
0
 10
655.006836
 20
-462.736908
 11
655.006836
 21
-464.166809
  0
LINE
  8
0
 10
661.642273
 20
-462.736908
 11
661.642273
 21
-465.667572
  0
LINE
  8
0
 10
627.911011
 20
-476.443878
 11
627.911011
 21
-483.585083
  0
LINE
  8
0
 10
655.006836
 20
-462.736908
 11
661.642273
 21
-462.736908
  0
LINE
  8
0
 10
516.763306
 20
-465.667511
 11
516.763306
 21
-472.303223
  0
LINE
  8
0
 10
-741.747192
 20
0.000000
 11
741.747192
 21
0.000000
  0
LINE
  8
0
  6
PHANTOM
 10
102.436798
 20
176.978210
 11
112.436798
 21
176.978210
  0
LINE
  8
0
  6
PHANTOM
 10
-391.563202
 20
88.978203
 11
112.436798
 21
88.978203
  0
LINE
  8
0
  6
PHANTOM
 10
-391.563202
 20
176.978210
 11
-381.563202
 21
176.978210
  0
LINE
  8
0
  6
PHANTOM
 10
-391.563202
 20
344.934601
 11
112.436798
 21
344.934601
  0
LINE
  8
0
  6
PHANTOM
 10
-395.781708
 20
402.049469
 11
-381.563202
 21
402.049469
  0
LINE
  8
0
  6
PHANTOM
 10
-387.344696
 20
375.819733
 11
-381.563202
 21
375.819733
  0
LINE
  8
0
  6
PHANTOM
 10
-391.563202
 20
432.934601
 11
112.436798
 21
432.934601
  0
LINE
  8
0
  6
PHANTOM
 10
102.436798
 20
402.049469
 11
108.218292
 21
402.049469
  0
LINE
  8
0
  6
PHANTOM
 10
102.436798
 20
375.819733
 11
116.655304
 21
375.819733
  0
LINE
  8
0
  6
PHANTOM
 10
-466.747192
 20
-46.279259
 11
123.252808
 21
-46.279259
  0
LINE
  8
0
  6
PHANTOM
 10
-458.754150
 20
-117.111664
 11
-453.747192
 21
-117.111664
  0
LINE
  8
0
  6
PHANTOM
 10
-474.740234
 20
-87.446861
 11
-453.747192
 21
-87.446861
  0
LINE
  8
0
  6
PHANTOM
 10
-466.747192
 20
-158.279266
 11
123.252808
 21
-158.279266
  0
LINE
  8
0
  6
PHANTOM
 10
110.252808
 20
-117.111664
 11
131.245850
 21
-117.111664
  0
LINE
  8
0
  6
PHANTOM
 10
110.252808
 20
-87.446861
 11
115.259766
 21
-87.446861
  0
LINE
  8
0
  6
PHANTOM
 10
110.252808
 20
-325.837769
 11
123.252808
 21
-325.837769
  0
LINE
  8
0
  6
PHANTOM
 10
-466.747192
 20
-437.837769
 11
123.252808
 21
-437.837769
  0
LINE
  8
0
  6
PHANTOM
 10
-466.747192
 20
-325.837769
 11
-453.747192
 21
-325.837769
  0
LINE
  8
0
  6
CENTER
 10
-139.563171
 20
232.095123
 11
-139.563171
 21
78.978203
  0
LINE
  8
0
  6
CENTER
 10
-401.563202
 20
132.978210
 11
122.436813
 21
132.978210
  0
LINE
  8
0
  6
CENTER
 10
-139.563187
 20
442.934601
 11
-139.563187
 21
334.934601
  0
LINE
  8
0
  6
CENTER
 10
-401.563202
 20
388.934601
 11
122.436813
 21
388.934601
  0
LINE
  8
0
  6
CENTER
 10
321.310486
 20
232.095123
 11
321.310486
 21
78.978203
  0
LINE
  8
0
  6
CENTER
 10
267.310425
 20
132.978210
 11
375.310425
 21
132.978210
  0
LINE
  8
0
  6
CENTER
 10
-476.747192
 20
-381.837769
 11
133.252808
 21
-381.837769
  0
LINE
  8
0
  6
CENTER
 10
-171.747192
 20
-263.837769
 11
-171.747192
 21
-447.837769
  0
LINE
  8
0
  6
CENTER
 10
-476.747192
 20
-102.279228
 11
133.252808
 21
-102.279228
  0
LINE
  8
0
  6
CENTER
 10
-171.747192
 20
-36.404533
 11
-171.747192
 21
-168.279236
  0
LINE
  8
0
  6
CENTER
 10
333.252838
 20
-263.837769
 11
333.252838
 21
-447.837769
  0
LINE
  8
0
  6
CENTER
 10
267.252808
 20
-381.837769
 11
399.252808
 21
-381.837769
  0
LINE
  8
0
 10
100.436829
 20
210.978210
 11
100.436829
 21
178.978210
  0
LINE
  8
0
 10
-379.563171
 20
210.978210
 11
-379.563171
 21
178.978210
  0
LINE
  8
0
 10
94.436829
 20
221.978210
 11
94.436829
 21
210.978210
  0
LINE
  8
0
 10
-373.563171
 20
221.978210
 11
-373.563171
 21
210.978210
  0
LINE
  8
0
 10
-379.563171
 20
210.978210
 11
100.436829
 21
210.978210
  0
LINE
  8
0
 10
57.436867
 20
199.246140
 11
60.436855
 21
197.514084
  0
LINE
  8
0
 10
60.436821
 20
197.514160
 11
63.436821
 21
199.246201
  0
LINE
  8
0
 10
63.436523
 20
199.246155
 11
63.436523
 21
202.710266
  0
LINE
  8
0
 10
63.436802
 20
202.710236
 11
60.436802
 21
204.442291
  0
LINE
  8
0
 10
60.436813
 20
204.442291
 11
57.436813
 21
202.710251
  0
LINE
  8
0
 10
57.436523
 20
202.710236
 11
57.436523
 21
199.246155
  0
LINE
  8
0
 10
-242.562866
 20
199.246155
 11
-242.562866
 21
202.710266
  0
LINE
  8
0
 10
-36.563183
 20
199.246140
 11
-39.563175
 21
197.514084
  0
LINE
  8
0
 10
-39.563194
 20
197.514130
 11
-42.563194
 21
199.246170
  0
LINE
  8
0
 10
-42.562874
 20
199.246155
 11
-42.562874
 21
202.710266
  0
LINE
  8
0
 10
-42.563160
 20
202.710281
 11
-39.563160
 21
204.442337
  0
LINE
  8
0
 10
-39.563160
 20
204.442307
 11
-36.563175
 21
202.710266
  0
LINE
  8
0
 10
-36.562874
 20
202.710236
 11
-36.562874
 21
199.246155
  0
LINE
  8
0
 10
-379.563171
 20
178.978210
 11
100.436829
 21
178.978210
  0
LINE
  8
0
 10
-379.563171
 20
174.978210
 11
100.436829
 21
174.978210
  0
LINE
  8
0
 10
-373.563171
 20
212.178192
 11
94.436829
 21
212.178192
  0
LINE
  8
0
 10
-373.563171
 20
214.978210
 11
94.436829
 21
214.978210
  0
LINE
  8
0
 10
-373.563171
 20
221.978210
 11
94.436829
 21
221.978210
  0
LINE
  8
0
 10
-242.563141
 20
202.710297
 11
-239.563141
 21
204.442352
  0
LINE
  8
0
 10
-239.563187
 20
197.514114
 11
-242.563141
 21
199.246124
  0
LINE
  8
0
 10
-336.563171
 20
199.246155
 11
-339.563171
 21
197.514099
  0
LINE
  8
0
 10
-339.563171
 20
197.514130
 11
-342.563171
 21
199.246170
  0
LINE
  8
0
 10
-342.562866
 20
199.246155
 11
-342.562866
 21
202.710266
  0
LINE
  8
0
 10
-342.563202
 20
202.710220
 11
-339.563202
 21
204.442291
  0
LINE
  8
0
 10
-339.563141
 20
204.442276
 11
-336.563141
 21
202.710251
  0
LINE
  8
0
 10
-336.562866
 20
202.710236
 11
-336.562866
 21
199.246155
  0
LINE
  8
0
 10
-239.563156
 20
204.442307
 11
-236.563141
 21
202.710251
  0
LINE
  8
0
 10
-236.562866
 20
202.710236
 11
-236.562866
 21
199.246155
  0
LINE
  8
0
 10
-236.563171
 20
199.246155
 11
-239.563156
 21
197.514084
  0
LINE
  8
0
  6
CENTER
 10
-339.563171
 20
210.978210
 11
-339.563171
 21
190.978210
  0
LINE
  8
0
  6
CENTER
 10
-329.563171
 20
200.978210
 11
-349.563171
 21
200.978210
  0
LINE
  8
0
  6
DASHED
 10
-274.063171
 20
221.978210
 11
-274.063171
 21
214.978210
  0
LINE
  8
0
  6
CENTER
 10
-269.563171
 20
226.983337
 11
-269.563171
 21
210.039703
  0
LINE
  8
0
  6
DASHED
 10
-265.063171
 20
221.978210
 11
-265.063171
 21
214.978210
  0
LINE
  8
0
  6
CENTER
 10
-239.563171
 20
210.978210
 11
-239.563171
 21
190.978210
  0
LINE
  8
0
  6
CENTER
 10
-229.563171
 20
200.978210
 11
-249.563171
 21
200.978210
  0
LINE
  8
0
  6
CENTER
 10
-204.563171
 20
226.983337
 11
-204.563171
 21
210.039703
  0
LINE
  8
0
  6
DASHED
 10
-209.063171
 20
221.978210
 11
-209.063171
 21
214.978210
  0
LINE
  8
0
  6
DASHED
 10
-200.063171
 20
221.978210
 11
-200.063171
 21
214.978210
  0
LINE
  8
0
  6
DASHED
 10
-79.063171
 20
221.978210
 11
-79.063171
 21
214.978210
  0
LINE
  8
0
  6
CENTER
 10
-74.563171
 20
226.983337
 11
-74.563171
 21
210.039703
  0
LINE
  8
0
  6
DASHED
 10
-70.063171
 20
221.978210
 11
-70.063171
 21
214.978210
  0
LINE
  8
0
  6
CENTER
 10
-29.563171
 20
200.978210
 11
-49.563171
 21
200.978210
  0
LINE
  8
0
  6
CENTER
 10
-39.563171
 20
210.978210
 11
-39.563171
 21
190.978210
  0
LINE
  8
0
  6
DASHED
 10
-14.063171
 20
221.978210
 11
-14.063171
 21
214.978210
  0
LINE
  8
0
  6
CENTER
 10
-9.563171
 20
226.983337
 11
-9.563171
 21
210.039703
  0
LINE
  8
0
  6
DASHED
 10
-5.063171
 20
221.978210
 11
-5.063171
 21
214.978210
  0
LINE
  8
0
  6
CENTER
 10
50.436829
 20
200.978210
 11
70.436829
 21
200.978210
  0
LINE
  8
0
  6
CENTER
 10
60.436829
 20
210.978210
 11
60.436829
 21
190.978210
  0
LINE
  8
0
 10
100.436905
 20
403.934448
 11
100.436905
 21
373.934448
  0
LINE
  8
0
 10
-379.563080
 20
403.934448
 11
-379.563080
 21
373.934448
  0
LINE
  8
0
 10
94.436905
 20
428.934448
 11
94.436905
 21
348.934448
  0
LINE
  8
0
 10
102.436905
 20
403.934448
 11
102.436905
 21
373.934448
  0
LINE
  8
0
 10
-381.563080
 20
403.934448
 11
-381.563080
 21
373.934448
  0
LINE
  8
0
 10
94.436905
 20
403.934448
 11
100.436905
 21
403.934448
  0
LINE
  8
0
 10
94.436905
 20
373.934448
 11
100.436905
 21
373.934448
  0
LINE
  8
0
 10
94.436905
 20
398.434448
 11
100.436905
 21
398.434448
  0
LINE
  8
0
 10
94.436905
 20
405.934448
 11
100.436905
 21
405.934448
  0
LINE
  8
0
 10
94.436905
 20
371.934448
 11
100.436905
 21
371.934448
  0
LINE
  8
0
 10
-373.563080
 20
428.934448
 11
94.436905
 21
428.934448
  0
LINE
  8
0
 10
-373.563080
 20
348.934448
 11
94.436905
 21
348.934448
  0
LINE
  8
0
 10
94.436905
 20
379.434448
 11
100.436905
 21
379.434448
  0
LINE
  8
0
 10
-373.563080
 20
428.934448
 11
-373.563080
 21
348.934448
  0
LINE
  8
0
 10
-373.563080
 20
371.934448
 11
-379.563080
 21
371.934448
  0
LINE
  8
0
 10
-373.563080
 20
373.934448
 11
-379.563080
 21
373.934448
  0
LINE
  8
0
 10
-373.563080
 20
379.434448
 11
-379.563080
 21
379.434448
  0
LINE
  8
0
 10
-373.563080
 20
398.434448
 11
-379.563080
 21
398.434448
  0
LINE
  8
0
 10
-373.563080
 20
403.934448
 11
-379.563080
 21
403.934448
  0
LINE
  8
0
 10
-373.563080
 20
405.934448
 11
-379.563080
 21
405.934448
  0
LINE
  8
0
  6
CENTER
 10
-269.563110
 20
408.934448
 11
-269.563110
 21
428.934448
  0
LINE
  8
0
  6
CENTER
 10
-259.563110
 20
418.934448
 11
-279.563110
 21
418.934448
  0
LINE
  8
0
  6
CENTER
 10
-269.563110
 20
368.934448
 11
-269.563110
 21
348.934448
  0
LINE
  8
0
  6
CENTER
 10
-259.563110
 20
358.934448
 11
-279.563110
 21
358.934448
  0
LINE
  8
0
  6
CENTER
 10
-204.563095
 20
368.934448
 11
-204.563095
 21
348.934448
  0
LINE
  8
0
  6
CENTER
 10
-194.563095
 20
358.934448
 11
-214.563095
 21
358.934448
  0
LINE
  8
0
  6
CENTER
 10
-204.563095
 20
408.934448
 11
-204.563095
 21
428.934448
  0
LINE
  8
0
  6
CENTER
 10
-194.563095
 20
418.934448
 11
-214.563095
 21
418.934448
  0
LINE
  8
0
  6
CENTER
 10
-84.563095
 20
418.934448
 11
-64.563095
 21
418.934448
  0
LINE
  8
0
  6
CENTER
 10
-74.563095
 20
408.934448
 11
-74.563095
 21
428.934448
  0
LINE
  8
0
  6
CENTER
 10
-19.563095
 20
418.934448
 11
0.436905
 21
418.934448
  0
LINE
  8
0
  6
CENTER
 10
-9.563095
 20
408.934448
 11
-9.563095
 21
428.934448
  0
LINE
  8
0
  6
CENTER
 10
-74.563095
 20
368.934448
 11
-74.563095
 21
348.934448
  0
LINE
  8
0
  6
CENTER
 10
-84.563095
 20
358.934448
 11
-64.563095
 21
358.934448
  0
LINE
  8
0
  6
CENTER
 10
-9.563095
 20
368.934448
 11
-9.563095
 21
348.934448
  0
LINE
  8
0
  6
CENTER
 10
-19.563095
 20
358.934448
 11
0.436905
 21
358.934448
  0
LINE
  8
0
 10
336.310638
 20
207.478180
 11
336.891205
 21
208.483795
  0
LINE
  8
0
 10
336.309448
 20
194.477631
 11
336.890015
 21
193.472015
  0
LINE
  8
0
 10
341.310516
 20
204.301727
 11
343.310516
 21
204.301727
  0
LINE
  8
0
 10
341.310516
 20
197.654724
 11
343.310516
 21
197.654724
  0
LINE
  8
0
 10
341.260284
 20
214.978226
 11
361.310516
 21
214.978226
  0
LINE
  8
0
 10
330.810547
 20
212.178223
 11
341.260284
 21
214.978226
  0
LINE
  8
0
 10
361.310516
 20
221.978226
 11
361.310516
 21
214.978226
  0
LINE
  8
0
 10
311.810516
 20
212.178207
 11
301.360779
 21
214.978195
  0
LINE
  8
0
 10
301.360748
 20
214.978226
 11
281.310516
 21
214.978226
  0
LINE
  8
0
 10
281.310516
 20
221.978226
 11
281.310516
 21
214.978226
  0
LINE
  8
0
 10
281.310516
 20
221.978226
 11
361.310516
 21
221.978226
  0
LINE
  8
0
 10
319.542786
 20
199.210419
 11
323.078339
 21
202.745941
  0
LINE
  8
0
 10
319.542938
 20
202.746109
 11
323.078491
 21
199.210571
  0
LINE
  8
0
 10
336.310516
 20
210.978226
 11
336.310516
 21
178.978226
  0
LINE
  8
0
 10
330.810516
 20
212.178223
 11
330.810516
 21
178.978226
  0
LINE
  8
0
 10
306.310516
 20
210.978226
 11
336.310516
 21
210.978226
  0
LINE
  8
0
 10
306.310516
 20
178.978226
 11
336.310516
 21
178.978226
  0
LINE
  8
0
 10
306.310516
 20
174.978226
 11
336.310516
 21
174.978226
  0
LINE
  8
0
 10
306.310516
 20
210.978226
 11
306.310516
 21
178.978226
  0
LINE
  8
0
 10
311.810516
 20
212.178223
 11
311.810516
 21
178.978226
  0
LINE
  8
0
 10
298.310516
 20
207.478226
 11
298.310516
 21
194.478226
  0
LINE
  8
0
 10
298.310516
 20
207.478226
 11
306.310516
 21
207.478226
  0
LINE
  8
0
 10
298.310516
 20
194.478226
 11
306.310516
 21
194.478226
  0
LINE
  8
0
 10
341.310516
 20
207.478256
 11
341.310516
 21
194.478134
  0
LINE
  8
0
 10
343.310516
 20
204.978226
 11
343.310516
 21
196.978226
  0
LINE
  8
0
 10
341.310516
 20
204.978226
 11
343.310516
 21
204.978226
  0
LINE
  8
0
 10
341.310516
 20
196.978226
 11
343.310516
 21
196.978226
  0
LINE
  8
0
 10
336.891083
 20
197.225479
 11
340.729950
 21
197.225479
  0
LINE
  8
0
 10
336.891022
 20
193.472672
 11
340.730011
 21
193.472672
  0
LINE
  8
0
 10
336.891083
 20
208.483810
 11
340.729950
 21
208.483810
  0
LINE
  8
0
 10
336.891083
 20
204.731033
 11
340.729950
 21
204.731033
  0
LINE
  8
0
 10
341.311127
 20
207.478546
 11
340.730560
 21
208.484116
  0
LINE
  8
0
 10
341.310089
 20
194.478424
 11
340.729523
 21
193.472778
  0
LINE
  8
0
  6
CENTER
 10
291.310516
 20
226.983368
 11
291.310516
 21
210.039749
  0
LINE
  8
0
  6
DASHED
 10
286.810516
 20
221.978226
 11
286.810516
 21
214.978226
  0
LINE
  8
0
  6
DASHED
 10
295.810516
 20
221.978226
 11
295.810516
 21
214.978226
  0
LINE
  8
0
  6
CENTER
 10
296.310516
 20
200.978226
 11
346.310516
 21
200.978226
  0
LINE
  8
0
  6
DASHED
 10
346.810516
 20
221.978226
 11
346.810516
 21
214.978226
  0
LINE
  8
0
  6
CENTER
 10
351.310516
 20
226.983368
 11
351.310516
 21
210.039749
  0
LINE
  8
0
  6
DASHED
 10
355.810516
 20
221.978226
 11
355.810516
 21
214.978226
  0
LINE
  8
0
  6
CENTER
 10
-411.747192
 20
-286.337769
 11
-411.747192
 21
-311.337769
  0
LINE
  8
0
 10
-451.747192
 20
-286.837769
 11
-451.747192
 21
-323.837769
  0
LINE
  8
0
 10
108.252808
 20
-286.837769
 11
108.252808
 21
-323.837769
  0
LINE
  8
0
 10
-451.747192
 20
-286.837769
 11
108.252808
 21
-286.837769
  0
LINE
  8
0
 10
102.252808
 20
-273.837769
 11
102.252808
 21
-286.837769
  0
LINE
  8
0
 10
-445.747192
 20
-273.837769
 11
-445.747192
 21
-286.837769
  0
LINE
  8
0
 10
-55.747162
 20
-296.528381
 11
-55.747162
 21
-301.147186
  0
LINE
  8
0
 10
-55.747169
 20
-301.147217
 11
-51.747169
 21
-303.456604
  0
LINE
  8
0
 10
-51.747200
 20
-303.456451
 11
-47.747196
 21
-301.147064
  0
LINE
  8
0
 10
-47.747223
 20
-301.147156
 11
-47.747223
 21
-296.528351
  0
LINE
  8
0
 10
-47.747173
 20
-296.528290
 11
-51.747173
 21
-294.218872
  0
LINE
  8
0
 10
-51.747242
 20
-294.218964
 11
-55.747215
 21
-296.528351
  0
LINE
  8
0
 10
-291.747131
 20
-294.218933
 11
-287.747131
 21
-296.528351
  0
LINE
  8
0
 10
72.252747
 20
-301.147064
 11
68.252747
 21
-303.456451
  0
LINE
  8
0
 10
68.252792
 20
-294.218994
 11
72.252792
 21
-296.528381
  0
LINE
  8
0
 10
72.252777
 20
-296.528381
 11
72.252777
 21
-301.147186
  0
LINE
  8
0
 10
64.252838
 20
-301.147156
 11
64.252838
 21
-296.528351
  0
LINE
  8
0
 10
64.252762
 20
-296.528320
 11
68.252792
 21
-294.218903
  0
LINE
  8
0
 10
68.252853
 20
-303.456512
 11
64.252815
 21
-301.147125
  0
LINE
  8
0
 10
-451.747192
 20
-323.837769
 11
108.252808
 21
-323.837769
  0
LINE
  8
0
 10
-451.747192
 20
-327.837769
 11
108.252808
 21
-327.837769
  0
LINE
  8
0
 10
-445.747192
 20
-285.837646
 11
102.252808
 21
-285.837646
  0
LINE
  8
0
 10
-445.747192
 20
-281.837769
 11
102.252808
 21
-281.837769
  0
LINE
  8
0
 10
-445.747192
 20
-273.837769
 11
102.252808
 21
-273.837769
  0
LINE
  8
0
 10
-287.747223
 20
-296.528381
 11
-287.747223
 21
-301.147186
  0
LINE
  8
0
 10
-295.747162
 20
-301.147156
 11
-295.747162
 21
-296.528351
  0
LINE
  8
0
 10
-407.747192
 20
-301.147247
 11
-411.747162
 21
-303.456635
  0
LINE
  8
0
 10
-411.747162
 20
-294.218933
 11
-407.747162
 21
-296.528351
  0
LINE
  8
0
 10
-407.747192
 20
-296.528381
 11
-407.747192
 21
-301.147186
  0
LINE
  8
0
 10
-415.747192
 20
-301.147156
 11
-415.747192
 21
-296.528351
  0
LINE
  8
0
 10
-415.747162
 20
-296.528473
 11
-411.747192
 21
-294.219086
  0
LINE
  8
0
 10
-411.747162
 20
-303.456604
 11
-415.747223
 21
-301.147217
  0
LINE
  8
0
 10
-295.747162
 20
-296.528412
 11
-291.747162
 21
-294.218994
  0
LINE
  8
0
 10
-291.747223
 20
-303.456573
 11
-295.747253
 21
-301.147186
  0
LINE
  8
0
 10
-287.747162
 20
-301.147186
 11
-291.747162
 21
-303.456604
  0
LINE
  8
0
  6
CENTER
 10
-399.247192
 20
-298.837769
 11
-424.247192
 21
-298.837769
  0
LINE
  8
0
  6
DASHED
 10
-357.247192
 20
-273.837769
 11
-357.247192
 21
-281.837769
  0
LINE
  8
0
  6
CENTER
 10
-351.747192
 20
-268.285919
 11
-351.747192
 21
-287.925415
  0
LINE
  8
0
  6
DASHED
 10
-346.247192
 20
-273.837769
 11
-346.247192
 21
-281.837769
  0
LINE
  8
0
  6
CENTER
 10
-279.247192
 20
-298.837769
 11
-304.247192
 21
-298.837769
  0
LINE
  8
0
  6
CENTER
 10
-291.747192
 20
-286.337769
 11
-291.747192
 21
-311.337769
  0
LINE
  8
0
  6
DASHED
 10
-267.247192
 20
-273.837769
 11
-267.247192
 21
-281.837769
  0
LINE
  8
0
  6
CENTER
 10
-261.747192
 20
-268.285919
 11
-261.747192
 21
-287.925415
  0
LINE
  8
0
  6
DASHED
 10
-256.247192
 20
-273.837769
 11
-256.247192
 21
-281.837769
  0
LINE
  8
0
  6
DASHED
 10
-87.247192
 20
-273.837769
 11
-87.247192
 21
-281.837769
  0
LINE
  8
0
  6
CENTER
 10
-81.747192
 20
-268.285919
 11
-81.747192
 21
-287.925415
  0
LINE
  8
0
  6
DASHED
 10
-76.247192
 20
-273.837769
 11
-76.247192
 21
-281.837769
  0
LINE
  8
0
  6
CENTER
 10
-64.247192
 20
-298.837769
 11
-39.247192
 21
-298.837769
  0
LINE
  8
0
  6
CENTER
 10
-51.747192
 20
-286.337769
 11
-51.747192
 21
-311.337769
  0
LINE
  8
0
  6
DASHED
 10
2.752808
 20
-273.837769
 11
2.752808
 21
-281.837769
  0
LINE
  8
0
  6
CENTER
 10
8.252808
 20
-268.285919
 11
8.252808
 21
-287.925415
  0
LINE
  8
0
  6
DASHED
 10
13.752808
 20
-273.837769
 11
13.752808
 21
-281.837769
  0
LINE
  8
0
  6
CENTER
 10
80.752808
 20
-298.837769
 11
55.752808
 21
-298.837769
  0
LINE
  8
0
  6
CENTER
 10
68.252808
 20
-286.337769
 11
68.252808
 21
-311.337769
  0
LINE
  8
0
  6
CENTER
 10
-91.747116
 20
-139.779236
 11
-71.747116
 21
-139.779236
  0
LINE
  8
0
 10
-451.747131
 20
-86.279236
 11
-451.747131
 21
-118.279243
  0
LINE
  8
0
 10
-445.747131
 20
-52.279236
 11
-445.747131
 21
-152.279236
  0
LINE
  8
0
 10
108.252884
 20
-86.279236
 11
108.252884
 21
-118.279243
  0
LINE
  8
0
 10
102.252884
 20
-52.279236
 11
102.252884
 21
-152.279236
  0
LINE
  8
0
 10
-451.747131
 20
-86.279236
 11
-445.747131
 21
-86.279236
  0
LINE
  8
0
 10
-451.747131
 20
-118.279243
 11
-445.747131
 21
-118.279243
  0
LINE
  8
0
 10
-451.747131
 20
-120.279243
 11
-445.747131
 21
-120.279243
  0
LINE
  8
0
 10
-451.747131
 20
-84.279236
 11
-445.747131
 21
-84.279236
  0
LINE
  8
0
 10
-453.747131
 20
-86.279236
 11
-453.747131
 21
-118.279243
  0
LINE
  8
0
 10
110.252884
 20
-86.279236
 11
110.252884
 21
-118.279243
  0
LINE
  8
0
 10
-451.747131
 20
-92.279236
 11
-445.747131
 21
-92.279236
  0
LINE
  8
0
 10
-451.747131
 20
-112.279243
 11
-445.747131
 21
-112.279243
  0
LINE
  8
0
 10
-445.747131
 20
-152.279236
 11
102.252884
 21
-152.279236
  0
LINE
  8
0
 10
-445.747131
 20
-52.279236
 11
102.252884
 21
-52.279236
  0
LINE
  8
0
 10
108.252884
 20
-92.279236
 11
102.252884
 21
-92.279236
  0
LINE
  8
0
 10
108.252884
 20
-86.279236
 11
102.252884
 21
-86.279236
  0
LINE
  8
0
 10
108.252884
 20
-84.279236
 11
102.252884
 21
-84.279236
  0
LINE
  8
0
 10
108.252884
 20
-112.279243
 11
102.252884
 21
-112.279243
  0
LINE
  8
0
 10
108.252884
 20
-118.279243
 11
102.252884
 21
-118.279243
  0
LINE
  8
0
 10
108.252884
 20
-120.279243
 11
102.252884
 21
-120.279243
  0
LINE
  8
0
  6
CENTER
 10
-351.747131
 20
-129.779236
 11
-351.747131
 21
-149.779236
  0
LINE
  8
0
  6
CENTER
 10
-341.747131
 20
-139.779236
 11
-361.747131
 21
-139.779236
  0
LINE
  8
0
  6
CENTER
 10
-351.747131
 20
-74.779236
 11
-351.747131
 21
-54.779236
  0
LINE
  8
0
  6
CENTER
 10
-341.747131
 20
-64.779236
 11
-361.747131
 21
-64.779236
  0
LINE
  8
0
  6
CENTER
 10
-251.747131
 20
-64.779236
 11
-271.747131
 21
-64.779236
  0
LINE
  8
0
  6
CENTER
 10
-261.747131
 20
-74.779236
 11
-261.747131
 21
-54.779236
  0
LINE
  8
0
  6
CENTER
 10
-261.747131
 20
-129.779236
 11
-261.747131
 21
-149.779236
  0
LINE
  8
0
  6
CENTER
 10
-251.747131
 20
-139.779236
 11
-271.747131
 21
-139.779236
  0
LINE
  8
0
  6
CENTER
 10
-91.747116
 20
-64.779236
 11
-71.747116
 21
-64.779236
  0
LINE
  8
0
  6
CENTER
 10
-81.747116
 20
-74.779236
 11
-81.747116
 21
-54.779236
  0
LINE
  8
0
  6
CENTER
 10
-81.747116
 20
-129.779236
 11
-81.747116
 21
-149.779236
  0
LINE
  8
0
  6
CENTER
 10
8.252884
 20
-129.779236
 11
8.252884
 21
-149.779236
  0
LINE
  8
0
  6
CENTER
 10
-1.747116
 20
-139.779236
 11
18.252884
 21
-139.779236
  0
LINE
  8
0
  6
CENTER
 10
8.252884
 20
-74.779236
 11
8.252884
 21
-54.779236
  0
LINE
  8
0
  6
CENTER
 10
-1.747116
 20
-64.779236
 11
18.252884
 21
-64.779236
  0
LINE
  8
0
 10
317.252838
 20
-286.837799
 11
349.252808
 21
-286.837799
  0
LINE
  8
0
 10
343.252808
 20
-285.837799
 11
343.252808
 21
-323.837799
  0
LINE
  8
0
 10
323.252838
 20
-285.837830
 11
323.252838
 21
-323.837799
  0
LINE
  8
0
 10
317.252838
 20
-286.837799
 11
317.252838
 21
-323.837799
  0
LINE
  8
0
 10
307.252838
 20
-290.837799
 11
307.252838
 21
-306.837799
  0
LINE
  8
0
 10
307.252838
 20
-290.837799
 11
317.252838
 21
-290.837799
  0
LINE
  8
0
 10
307.252838
 20
-306.837799
 11
317.252838
 21
-306.837799
  0
LINE
  8
0
 10
355.252808
 20
-290.337799
 11
355.252808
 21
-307.337830
  0
LINE
  8
0
 10
350.011963
 20
-303.745361
 11
354.493652
 21
-303.745361
  0
LINE
  8
0
 10
350.012085
 20
-293.930328
 11
354.493652
 21
-293.930328
  0
LINE
  8
0
 10
350.012085
 20
-289.022797
 11
354.493652
 21
-289.022797
  0
LINE
  8
0
 10
354.492737
 20
-289.023315
 11
355.251953
 21
-290.338318
  0
LINE
  8
0
 10
354.492920
 20
-308.652344
 11
355.252136
 21
-307.337341
  0
LINE
  8
0
 10
350.012085
 20
-308.652802
 11
354.493652
 21
-308.652802
  0
LINE
  8
0
 10
350.011383
 20
-289.022491
 11
349.252197
 21
-290.337433
  0
LINE
  8
0
 10
350.012695
 20
-308.652466
 11
349.253479
 21
-307.337463
  0
LINE
  8
0
 10
357.252808
 20
-293.837799
 11
357.252808
 21
-303.837799
  0
LINE
  8
0
 10
355.252808
 20
-293.837799
 11
357.252808
 21
-293.837799
  0
LINE
  8
0
 10
355.252808
 20
-294.649811
 11
357.252808
 21
-294.649811
  0
LINE
  8
0
 10
355.252808
 20
-303.025787
 11
357.252808
 21
-303.025787
  0
LINE
  8
0
 10
355.252808
 20
-303.837799
 11
357.252808
 21
-303.837799
  0
LINE
  8
0
 10
317.252838
 20
-323.837799
 11
349.252808
 21
-323.837799
  0
LINE
  8
0
 10
317.252838
 20
-327.837799
 11
349.252808
 21
-327.837799
  0
LINE
  8
0
 10
349.252808
 20
-286.837799
 11
349.252808
 21
-323.837799
  0
LINE
  8
0
 10
283.252838
 20
-273.837799
 11
383.252808
 21
-273.837799
  0
LINE
  8
0
 10
358.181030
 20
-281.837799
 11
383.252808
 21
-281.837799
  0
LINE
  8
0
 10
383.252808
 20
-273.837799
 11
383.252808
 21
-281.837799
  0
LINE
  8
0
 10
283.252838
 20
-273.837799
 11
283.252838
 21
-281.837799
  0
LINE
  8
0
 10
343.252808
 20
-285.837860
 11
358.181030
 21
-281.837860
  0
LINE
  8
0
 10
323.252808
 20
-285.837646
 11
308.324585
 21
-281.837646
  0
LINE
  8
0
 10
308.324615
 20
-281.837799
 11
283.252838
 21
-281.837799
  0
LINE
  8
0
 10
331.485291
 20
-300.605713
 11
335.020813
 21
-297.070190
  0
LINE
  8
0
 10
331.485199
 20
-297.069977
 11
335.020721
 21
-300.605499
  0
LINE
  8
0
  6
DASHED
 10
290.252838
 20
-273.837799
 11
290.252838
 21
-281.837799
  0
LINE
  8
0
  6
CENTER
 10
295.752838
 20
-269.552704
 11
295.752838
 21
-286.263092
  0
LINE
  8
0
  6
DASHED
 10
301.252838
 20
-273.837799
 11
301.252838
 21
-281.837799
  0
LINE
  8
0
  6
CENTER
 10
300.509125
 20
-298.837799
 11
363.367432
 21
-298.837799
  0
LINE
  8
0
  6
DASHED
 10
365.252808
 20
-273.837799
 11
365.252808
 21
-281.837799
  0
LINE
  8
0
  6
CENTER
 10
370.752808
 20
-269.552704
 11
370.752808
 21
-286.263092
  0
LINE
  8
0
  6
DASHED
 10
376.252808
 20
-273.837799
 11
376.252808
 21
-281.837799
  0
ARC
  8
0
 10
652.794678
 20
-464.166809
 40
2.211891
 50
291.688965
 51
0.000000
  0
ARC
  8
0
 10
546.070862
 20
-470.091400
 40
4.423767
 50
0.000000
 51
90.000000
  0
ARC
  8
0
 10
582.567200
 20
-493.869354
 40
4.423798
 50
270.000000
 51
0.000000
  0
ARC
  8
0
 10
580.355164
 20
-472.303223
 40
6.635681
 50
0.000000
 51
90.000000
  0
ARC
  8
0
 10
620.722290
 20
-473.625641
 40
4.423780
 50
294.999969
 51
0.000000
  0
ARC
  8
0
 10
620.722290
 20
-470.091400
 40
4.423767
 50
0.000000
 51
90.000000
  0
ARC
  8
0
 10
655.006836
 20
-465.667572
 40
6.635680
 50
291.688385
 51
0.000000
  0
ARC
  8
0
  6
PHANTOM
 10
158.336792
 20
154.978210
 40
50.900005
 50
154.391342
 51
205.608398
  0
ARC
  8
0
  6
PHANTOM
 10
66.536804
 20
110.978203
 40
50.900002
 50
334.391418
 51
25.608465
  0
ARC
  8
0
  6
PHANTOM
 10
-437.463196
 20
110.978203
 40
50.900013
 50
334.391418
 51
25.608465
  0
ARC
  8
0
  6
PHANTOM
 10
-345.663208
 20
154.978210
 40
50.900009
 50
154.391434
 51
205.608490
  0
ARC
  8
0
  6
PHANTOM
 10
-437.463196
 20
366.934601
 40
50.900021
 50
334.391388
 51
25.608458
  0
ARC
  8
0
  6
PHANTOM
 10
-345.663208
 20
410.934601
 40
50.900009
 50
154.391434
 51
205.608490
  0
ARC
  8
0
  6
PHANTOM
 10
158.336792
 20
410.934601
 40
50.900002
 50
154.391357
 51
205.608414
  0
ARC
  8
0
  6
PHANTOM
 10
66.536804
 20
366.934601
 40
50.900005
 50
334.391388
 51
25.608458
  0
ARC
  8
0
  6
PHANTOM
 10
321.310425
 20
132.978210
 40
44.000008
 50
107.341469
 51
72.658524
  0
ARC
  8
0
  6
PHANTOM
 10
-432.547180
 20
-74.279259
 40
44.200005
 50
140.692368
 51
219.307617
  0
ARC
  8
0
  6
PHANTOM
 10
-500.947205
 20
-130.279266
 40
44.200005
 50
320.692444
 51
39.307686
  0
ARC
  8
0
  6
PHANTOM
 10
89.052795
 20
-130.279266
 40
44.199997
 50
320.692413
 51
39.307686
  0
ARC
  8
0
  6
PHANTOM
 10
157.452820
 20
-74.279259
 40
44.200001
 50
140.692398
 51
219.307648
  0
ARC
  8
0
  6
PHANTOM
 10
157.452820
 20
-353.837769
 40
44.199997
 50
140.692398
 51
219.307648
  0
ARC
  8
0
  6
PHANTOM
 10
89.052795
 20
-409.837769
 40
44.200008
 50
320.692413
 51
39.307693
  0
ARC
  8
0
  6
PHANTOM
 10
-500.947205
 20
-409.837769
 40
44.200008
 50
320.692352
 51
39.307693
  0
ARC
  8
0
  6
PHANTOM
 10
-432.547180
 20
-353.837769
 40
44.200008
 50
140.692368
 51
219.307602
  0
ARC
  8
0
  6
PHANTOM
 10
333.252808
 20
-381.837769
 40
56.000008
 50
105.358917
 51
74.641113
  0
CIRCLE
  8
0
 10
-239.563171
 20
200.978210
 40
6.500000
  0
CIRCLE
  8
0
 10
-339.563171
 20
200.978210
 40
6.500000
  0
ARC
  8
0
 10
-379.563171
 20
176.978210
 40
2.000000
 50
90.000000
 51
270.000000
  0
ARC
  8
0
 10
100.436829
 20
176.978210
 40
2.000000
 50
270.000000
 51
90.000000
  0
CIRCLE
  8
0
 10
-39.563171
 20
200.978210
 40
6.500000
  0
CIRCLE
  8
0
 10
60.436829
 20
200.978210
 40
6.500000
  0
CIRCLE
  8
0
 10
-269.563110
 20
418.934448
 40
4.500000
  0
CIRCLE
  8
0
 10
-269.563110
 20
358.934448
 40
4.500000
  0
CIRCLE
  8
0
 10
-9.563095
 20
418.934448
 40
4.500000
  0
CIRCLE
  8
0
 10
-74.563095
 20
358.934448
 40
4.500000
  0
CIRCLE
  8
0
 10
-204.563095
 20
418.934448
 40
4.500000
  0
CIRCLE
  8
0
 10
-204.563095
 20
358.934448
 40
4.500000
  0
CIRCLE
  8
0
 10
-74.563095
 20
418.934448
 40
4.500000
  0
CIRCLE
  8
0
 10
-9.563095
 20
358.934448
 40
4.500000
  0
ARC
  8
0
 10
100.436905
 20
373.934448
 40
2.000000
 50
270.000000
 51
0.000000
  0
ARC
  8
0
 10
100.436905
 20
403.934448
 40
2.000000
 50
0.000000
 51
90.000000
  0
ARC
  8
0
 10
-379.563080
 20
373.934448
 40
2.000000
 50
180.000000
 51
270.000000
  0
ARC
  8
0
 10
-379.563080
 20
403.934448
 40
2.000000
 50
90.000000
 51
180.000000
  0
ARC
  8
0
 10
337.988007
 20
195.349030
 40
3.322521
 50
325.614868
 51
34.384930
  0
ARC
  8
0
 10
328.891266
 20
200.978256
 40
12.419250
 50
342.411774
 51
17.588238
  0
ARC
  8
0
 10
337.988007
 20
206.607422
 40
3.322512
 50
325.615082
 51
34.384930
  0
ARC
  8
0
 10
306.310516
 20
176.978226
 40
2.000000
 50
90.000000
 51
270.000000
  0
ARC
  8
0
 10
336.310516
 20
176.978226
 40
2.000000
 50
270.000000
 51
90.000000
  0
CIRCLE
  8
0
 10
321.310516
 20
200.978226
 40
5.000000
  0
ARC
  8
0
 10
339.633026
 20
195.349030
 40
3.322512
 50
145.615067
 51
214.384933
  0
ARC
  8
0
 10
348.729767
 20
200.978256
 40
12.419250
 50
162.411758
 51
197.588165
  0
ARC
  8
0
 10
339.633026
 20
206.607422
 40
3.322521
 50
145.614853
 51
214.384933
  0
CIRCLE
  8
0
 10
-291.747192
 20
-298.837769
 40
8.000000
  0
ARC
  8
0
 10
108.252808
 20
-325.837769
 40
2.000000
 50
270.000000
 51
90.000000
  0
ARC
  8
0
 10
-451.747192
 20
-325.837769
 40
2.000000
 50
90.000000
 51
270.000000
  0
CIRCLE
  8
0
 10
68.252808
 20
-298.837769
 40
8.000000
  0
CIRCLE
  8
0
 10
-51.747192
 20
-298.837769
 40
8.000000
  0
CIRCLE
  8
0
 10
-411.747192
 20
-298.837769
 40
8.000000
  0
CIRCLE
  8
0
 10
-351.747131
 20
-64.779236
 40
5.500000
  0
CIRCLE
  8
0
 10
-351.747131
 20
-139.779236
 40
5.500000
  0
CIRCLE
  8
0
 10
8.252884
 20
-64.779236
 40
5.500000
  0
CIRCLE
  8
0
 10
-81.747116
 20
-139.779236
 40
5.500000
  0
CIRCLE
  8
0
 10
-261.747131
 20
-64.779236
 40
5.500000
  0
CIRCLE
  8
0
 10
-261.747131
 20
-139.779236
 40
5.500000
  0
CIRCLE
  8
0
 10
-81.747116
 20
-64.779236
 40
5.500000
  0
ARC
  8
0
 10
108.252884
 20
-118.279243
 40
2.000000
 50
270.000000
 51
0.000000
  0
ARC
  8
0
 10
108.252884
 20
-86.279236
 40
2.000000
 50
0.000000
 51
90.000000
  0
ARC
  8
0
 10
-451.747131
 20
-86.279236
 40
2.000000
 50
90.000000
 51
180.000000
  0
ARC
  8
0
 10
-451.747131
 20
-118.279243
 40
2.000000
 50
180.000000
 51
270.000000
  0
CIRCLE
  8
0
 10
8.252884
 20
-139.779236
 40
5.500000
  0
CIRCLE
  8
0
 10
333.252838
 20
-298.837799
 40
5.000000
  0
ARC
  8
0
 10
349.252808
 20
-325.837799
 40
2.000000
 50
270.000000
 51
90.000000
  0
ARC
  8
0
 10
317.252838
 20
-325.837799
 40
2.000000
 50
90.000000
 51
270.000000
  0
ARC
  8
0
 10
353.597656
 20
-306.199036
 40
4.344840
 50
146.227005
 51
214.385117
  0
ARC
  8
0
 10
353.597656
 20
-291.476562
 40
4.344851
 50
145.614883
 51
213.772659
  0
ARC
  8
0
 10
365.493408
 20
-298.837860
 40
16.240601
 50
162.411606
 51
197.588287
  0
ARC
  8
0
 10
350.907959
 20
-306.199036
 40
4.344851
 50
325.614868
 51
33.772663
  0
ARC
  8
0
 10
339.012238
 20
-298.837860
 40
16.240601
 50
342.411621
 51
17.588390
  0
ARC
  8
0
 10
350.907959
 20
-291.476562
 40
4.344840
 50
326.226990
 51
34.385117
  0
TEXT
  8
0
 10
452.675018
 20
466.214996
 40
17.000000
  1
DATE : NOV ,1991
 50
0.000000
 41
1.052631
 51
0.000000
  7
STANDARD
  0
TEXT
  8
0
 10
-711.809937
 20
463.514984
 40
20.000000
  1
ORC LT MOUNT
 50
0.000000
 41
1.052632
 51
0.000000
  7
STANDARD
  0
TEXT
  8
0
 10
-724.354309
 20
404.912811
 40
20.000000
  1
BORE : 63
 50
0.000000
 41
1.052632
 51
0.000000
  7
STANDARD
  0
TEXT
  8
0
 10
-724.354309
 20
-47.000000
 40
20.000000
  1
BORE : 80
 50
0.000000
 41
1.052632
 51
0.000000
  7
STANDARD
  0
ENDSEC
  0
EOF
