  0
SECTION
  2
HEADER
  0
ENDSEC
  0
SECTION
  2
TABLES
  0
TABLE
  2
LTYPE
 70
     4
  0
LTYPE
  2
CONTINUOUS
 70
    64
  3
Solid line
 72
    65
 73
     0
 40
0.000000
  0
LTYPE
  2
DASHED
 70
    64
  3
__ __ __ __ __ __ __ __ __ __ __ __ __ __ __
 72
    65
 73
     2
 40
3.500000
 49
2.000000
 49
-1.500000
  0
LTYPE
  2
CENTER
 70
    64
  3
____ _ ____ _ ____ _ ____ _ ____ _ ____ _ ____
 72
    65
 73
     4
 40
17.500000
 49
13.000000
 49
-1.500000
 49
1.500000
 49
-1.500000
  0
LTYPE
  2
PHANTOM
 70
    64
  3
_____ _ _ _____ _ _ _____ _ _ _____ _ _ ____  
 72
    65
 73
     6
 40
15.500000
 49
8.000000
 49
-1.500000
 49
1.500000
 49
-1.500000
 49
1.500000
 49
-1.500000
  0
LTYPE
  2
DASHED1
 70
    64
  3
__ __ __ __ __ __ __ __ __ __ __ __ __ __ __
 72
    65
 73
     2
 40
1.500000
 49
1.000000
 49
-0.500000
  0
LTYPE
  2
DASHED2
 70
    64
  3
__ __ __ __ __ __ __ __ __ __ __ __ __ __ __
 72
    65
 73
     2
 40
3.500000
 49
2.500000
 49
-1.000000
  0
LTYPE
  2
DASHED3
 70
    64
  3
__ __ __ __ __ __ __ __ __ __ __ __ __ __ __
 72
    65
 73
     2
 40
6.000000
 49
4.000000
 49
-2.000000
  0
LTYPE
  2
DASHED4
 70
    64
  3
__ __ __ __ __ __ __ __ __ __ __ __ __ __ __
 72
    65
 73
     2
 40
12.000000
 49
10.000000
 49
-2.000000
  0
LTYPE
  2
DASHED5
 70
    64
  3
__ __ __ __ __ __ __ __ __ __ __ __ __ __ __
 72
    65
 73
     2
 40
17.000000
 49
15.000000
 49
-2.000000
  0
LTYPE
  2
DASHED6
 70
    64
  3
__ __ __ __ __ __ __ __ __ __ __ __ __ __ __
 72
    65
 73
     2
 40
29.000000
 49
27.000000
 49
-2.000000
  0
LTYPE
  2
PHANTOM1
 70
    64
  3
_____ _ _ _____ _ _ _____ _ _ _____ _ _ ____  
 72
    65
 73
     6
 40
31.000000
 49
25.000000
 49
-1.500000
 49
1.000000
 49
-1.000000
 49
1.000000
 49
-1.500000
  0
LTYPE
  2
PHANTOM2
 70
    64
  3
_____ _ _ _____ _ _ _____ _ _ _____ _ _ ____  
 72
    65
 73
     6
 40
36.000000
 49
27.000000
 49
-1.500000
 49
2.500000
 49
-1.000000
 49
2.500000
 49
-1.500000
  0
LTYPE
  2
PHANTOM3
 70
    64
  3
_____ _ _ _____ _ _ _____ _ _ _____ _ _ ____  
 72
    65
 73
     6
 40
78.000000
 49
64.000000
 49
-2.000000
 49
4.000000
 49
-2.000000
 49
4.000000
 49
-2.000000
  0
LTYPE
  2
CENTER1
 70
    64
  3
____ _ ____ _ ____ _ ____ _ ____ _ ____ _ ____
 72
    65
 73
     4
 40
19.000000
 49
14.000000
 49
-1.000000
 49
3.000000
 49
-1.000000
  0
LTYPE
  2
CENTER2
 70
    64
  3
____ _ ____ _ ____ _ ____ _ ____ _ ____ _ ____
 72
    65
 73
     4
 40
28.500000
 49
25.000000
 49
-1.000000
 49
1.500000
 49
-1.000000
  0
LTYPE
  2
CENTER3
 70
    64
  3
____ _ ____ _ ____ _ ____ _ ____ _ ____ _ ____
 72
    65
 73
     4
 40
31.500000
 49
27.000000
 49
-1.000000
 49
2.500000
 49
-1.000000
  0
LTYPE
  2
CENTER4
 70
    64
  3
____ _ ____ _ ____ _ ____ _ ____ _ ____ _ ____
 72
    65
 73
     4
 40
50.000000
 49
45.000000
 49
-1.000000
 49
3.000000
 49
-1.000000
  0
LTYPE
  2
CENTER5
 70
    64
  3
____ _ ____ _ ____ _ ____ _ ____ _ ____ _ ____
 72
    65
 73
     4
 40
100.000000
 49
92.000000
 49
-2.000000
 49
4.000000
 49
-2.000000
  0
LTYPE
  2
SBK1
 70
    64
  3
______ _ _ _ ______ _ _ _ ______ _ _ _ _____  
 72
    65
 73
     8
 40
60.500000
 49
45.000000
 49
-2.000000
 49
2.500000
 49
-2.000000
 49
2.500000
 49
-2.000000
 49
2.500000
 49
-2.000000
  0
LTYPE
  2
SBK2
 70
    64
  3
______ _ _ _ ______ _ _ _ ______ _ _ _ _____  
 72
    65
 73
     8
 40
84.000000
 49
64.000000
 49
-2.000000
 49
4.000000
 49
-2.000000
 49
4.000000
 49
-2.000000
 49
4.000000
 49
-2.000000
  0
LTYPE
  2
STCH
 70
    64
  3
__ __ __ __ __ __ __ __ __ __ __ __ __ __ __
 72
    65
 73
     2
 40
3.000000
 49
1.000000
 49
-2.000000
  0
LTYPE
  2
MTCH
 70
    64
  3
_____ _ _ _____ _ _ _____ _ _ _____ _ _ ____  
 72
    65
 73
     6
 40
80.000000
 49
66.000000
 49
-2.000000
 49
4.000000
 49
-2.000000
 49
4.000000
 49
-2.000000
  0
ENDTAB
  0
TABLE
  2
LAYER
 70
     1
  0
LAYER
  2
0
 70
     0
 62
     7
  6
CONTINUOUS
  0
ENDTAB
  0
TABLE
  2
STYLE
 70
     1
  0
STYLE
  2
STANDARD
 70
     0
 40
0.000000
 41
1.000000
 50
0.000000
 71
     0
 42
0.200000
  3
txt
  4
BIGFONT
  0
ENDTAB
  0
TABLE
  2
VIEW
 70
     0
  0
ENDTAB
  0
ENDSEC
  0
SECTION
  2
BLOCKS
  0
ENDSEC
  0
SECTION
  2
ENTITIES
  0
POINT
  8
0
 10
-109.999985
 20
89.999992
  0
POINT
  8
0
 10
197.247223
 20
90.000000
  0
POINT
  8
0
 10
-110.000015
 20
275.000061
  0
POINT
  8
0
 10
12.000023
 20
89.999992
  0
POINT
  8
0
 10
11.999992
 20
275.000061
  0
POINT
  8
0
 10
241.247223
 20
90.000000
  0
POINT
  8
0
 10
-134.494461
 20
-80.000046
  0
POINT
  8
0
 10
-134.494446
 20
-275.000092
  0
POINT
  8
0
 10
207.752762
 20
-275.000092
  0
POINT
  8
0
 10
20.505539
 20
-275.000092
  0
POINT
  8
0
 10
20.505524
 20
-80.000046
  0
POINT
  8
0
 10
263.752747
 20
-275.000092
  0
LINE
  8
0
 10
308.764069
 20
-319.550690
 11
524.494446
 21
-319.550690
  0
LINE
  8
0
 10
-308.764069
 20
319.550598
 11
-308.764069
 21
360.000092
  0
LINE
  8
0
 10
-524.494446
 20
319.550598
 11
-308.764069
 21
319.550598
  0
LINE
  8
0
 10
-524.494446
 20
360.000092
 11
524.494446
 21
360.000092
  0
LINE
  8
0
 10
-524.494446
 20
-360.000092
 11
524.494446
 21
-360.000092
  0
LINE
  8
0
 10
524.494446
 20
360.000092
 11
524.494446
 21
-360.000092
  0
LINE
  8
0
 10
-524.494446
 20
-360.000092
 11
-524.494446
 21
360.000092
  0
LINE
  8
0
 10
308.764069
 20
-319.550690
 11
308.764069
 21
-360.000092
  0
LINE
  8
0
 10
308.764069
 20
360.000092
 11
308.764069
 21
319.550598
  0
LINE
  8
0
 10
308.764069
 20
319.550598
 11
524.494446
 21
319.550598
  0
LINE
  8
0
 10
365.406830
 20
-333.968781
 11
383.002350
 21
-333.968781
  0
LINE
  8
0
 10
365.406830
 20
-352.346344
 11
389.258545
 21
-352.346344
  0
LINE
  8
0
 10
365.406830
 20
-347.654236
 11
383.002350
 21
-347.654236
  0
LINE
  8
0
 10
365.406830
 20
-329.276642
 11
386.130402
 21
-329.276642
  0
LINE
  8
0
 10
383.002350
 20
-333.968781
 11
383.002350
 21
-347.654236
  0
LINE
  8
0
 10
389.258545
 20
-332.404785
 11
389.258545
 21
-352.346344
  0
LINE
  8
0
 10
365.406830
 20
-347.654236
 11
365.406830
 21
-352.346344
  0
LINE
  8
0
 10
415.065186
 20
-333.968781
 11
415.065186
 21
-349.218353
  0
LINE
  8
0
 10
392.777557
 20
-329.276642
 11
392.777557
 21
-333.968781
  0
LINE
  8
0
 10
415.690887
 20
-328.924835
 11
417.919678
 21
-328.924835
  0
LINE
  8
0
 10
415.690887
 20
-325.796661
 11
417.919678
 21
-325.796661
  0
LINE
  8
0
 10
417.919678
 20
-325.796661
 11
417.919678
 21
-328.924835
  0
LINE
  8
0
 10
415.690887
 20
-325.796661
 11
415.690887
 21
-328.924835
  0
LINE
  8
0
 10
414.517731
 20
-325.796661
 11
414.517731
 21
-328.924835
  0
LINE
  8
0
 10
399.891602
 20
-325.796661
 11
404.749207
 21
-325.796661
  0
LINE
  8
0
 10
403.816254
 20
-329.276215
 11
404.748657
 21
-325.796204
  0
LINE
  8
0
 10
398.959137
 20
-329.276611
 11
399.891571
 21
-325.796631
  0
LINE
  8
0
 10
403.816772
 20
-329.276642
 11
410.373047
 21
-329.276642
  0
LINE
  8
0
 10
402.559540
 20
-333.968781
 11
408.809052
 21
-333.968781
  0
LINE
  8
0
 10
405.374237
 20
-352.346344
 11
411.937195
 21
-352.346344
  0
LINE
  8
0
 10
404.116760
 20
-347.654144
 11
405.374054
 21
-352.346161
  0
LINE
  8
0
 10
404.116852
 20
-347.654236
 11
408.809052
 21
-347.654236
  0
LINE
  8
0
 10
397.635498
 20
-352.346588
 11
402.559692
 21
-333.968994
  0
LINE
  8
0
 10
392.777557
 20
-333.968781
 11
397.701874
 21
-333.968781
  0
LINE
  8
0
 10
392.777374
 20
-352.346161
 11
397.701782
 21
-333.968536
  0
LINE
  8
0
 10
392.777557
 20
-352.346344
 11
397.635284
 21
-352.346344
  0
LINE
  8
0
 10
392.777557
 20
-329.276642
 11
398.959137
 21
-329.276642
  0
LINE
  8
0
 10
408.809052
 20
-333.968781
 11
408.809052
 21
-347.654236
  0
LINE
  8
0
 10
412.288940
 20
-325.796661
 11
414.517731
 21
-325.796661
  0
LINE
  8
0
 10
412.288940
 20
-328.924835
 11
414.517731
 21
-328.924835
  0
LINE
  8
0
 10
412.288940
 20
-325.796661
 11
412.288940
 21
-328.924835
  0
LINE
  8
0
 10
426.404572
 20
-325.796661
 11
432.660675
 21
-325.796661
  0
LINE
  8
0
 10
436.061951
 20
-339.687103
 11
440.239410
 21
-337.739166
  0
LINE
  8
0
 10
432.660675
 20
-343.278320
 11
432.660675
 21
-352.346344
  0
LINE
  8
0
 10
426.404572
 20
-344.189972
 11
426.404572
 21
-352.346344
  0
LINE
  8
0
 10
432.660675
 20
-329.276642
 11
438.916931
 21
-329.276642
  0
LINE
  8
0
 10
432.660675
 20
-325.796661
 11
432.660675
 21
-329.276642
  0
LINE
  8
0
 10
426.404572
 20
-325.796661
 11
426.404572
 21
-329.276642
  0
LINE
  8
0
 10
442.045013
 20
-332.404785
 11
442.045013
 21
-334.903870
  0
LINE
  8
0
 10
436.061920
 20
-339.687012
 11
442.045441
 21
-342.477234
  0
LINE
  8
0
 10
432.660645
 20
-343.278229
 11
442.045074
 21
-347.654205
  0
LINE
  8
0
 10
418.975342
 20
-342.477020
 11
418.975342
 21
-347.654236
  0
LINE
  8
0
 10
418.975983
 20
-342.477539
 11
437.221924
 21
-333.969299
  0
LINE
  8
0
 10
418.975372
 20
-347.654266
 11
426.404755
 21
-344.189880
  0
LINE
  8
0
 10
442.045013
 20
-342.477020
 11
442.045013
 21
-347.654236
  0
LINE
  8
0
 10
418.975342
 20
-329.276642
 11
418.975342
 21
-333.968781
  0
LINE
  8
0
 10
426.404572
 20
-352.346344
 11
432.660675
 21
-352.346344
  0
LINE
  8
0
 10
418.975342
 20
-333.968781
 11
437.221222
 21
-333.968781
  0
LINE
  8
0
 10
418.975342
 20
-329.276642
 11
426.404572
 21
-329.276642
  0
LINE
  8
0
 10
463.160522
 20
-334.326782
 11
464.894440
 21
-333.637054
  0
LINE
  8
0
 10
463.159729
 20
-334.326324
 11
463.159729
 21
-352.346344
  0
LINE
  8
0
 10
456.903442
 20
-352.346344
 11
463.159729
 21
-352.346344
  0
LINE
  8
0
 10
443.999786
 20
-341.946228
 11
456.903168
 21
-336.814362
  0
LINE
  8
0
 10
444.000092
 20
-336.896698
 11
462.173584
 21
-329.668823
  0
LINE
  8
0
 10
456.903442
 20
-336.814453
 11
456.903442
 21
-352.346344
  0
LINE
  8
0
 10
463.159729
 20
-327.204376
 11
463.159729
 21
-328.215485
  0
LINE
  8
0
 10
467.851715
 20
-327.204376
 11
467.851715
 21
-329.276672
  0
LINE
  8
0
 10
444.000092
 20
-336.896667
 11
444.000092
 21
-341.946259
  0
LINE
  8
0
 10
463.159729
 20
-327.204376
 11
467.851715
 21
-327.204376
  0
LINE
  8
0
 10
365.406830
 20
-329.276642
 11
365.406830
 21
-333.968781
  0
LINE
  8
0
 10
-524.494446
 20
0.000000
 11
524.494446
 21
0.000000
  0
LINE
  8
0
  6
PHANTOM
 10
-232.000000
 20
134.000000
 11
-222.000000
 21
134.000000
  0
LINE
  8
0
  6
PHANTOM
 10
-232.000000
 20
46.000000
 11
12.000000
 21
46.000000
  0
LINE
  8
0
  6
PHANTOM
 10
2.000000
 20
134.000000
 11
12.000000
 21
134.000000
  0
LINE
  8
0
  6
PHANTOM
 10
-232.000000
 20
231.000061
 11
12.000000
 21
231.000061
  0
LINE
  8
0
  6
PHANTOM
 10
-232.000000
 20
319.000061
 11
12.000000
 21
319.000061
  0
LINE
  8
0
  6
PHANTOM
 10
-227.781494
 20
261.885193
 11
-222.000000
 21
261.885193
  0
LINE
  8
0
  6
PHANTOM
 10
-236.218506
 20
288.114929
 11
-222.000000
 21
288.114929
  0
LINE
  8
0
  6
PHANTOM
 10
2.000000
 20
288.114929
 11
7.781494
 21
288.114929
  0
LINE
  8
0
  6
PHANTOM
 10
2.000000
 20
261.885193
 11
16.218506
 21
261.885193
  0
LINE
  8
0
  6
PHANTOM
 10
-289.494446
 20
-219.000092
 11
-276.494446
 21
-219.000092
  0
LINE
  8
0
  6
PHANTOM
 10
-289.494446
 20
-331.000092
 11
20.505554
 21
-331.000092
  0
LINE
  8
0
  6
PHANTOM
 10
7.505554
 20
-219.000092
 11
20.505554
 21
-219.000092
  0
LINE
  8
0
  6
PHANTOM
 10
-289.494446
 20
-136.000031
 11
20.505554
 21
-136.000031
  0
LINE
  8
0
  6
PHANTOM
 10
-289.494446
 20
-24.000031
 11
20.505554
 21
-24.000031
  0
LINE
  8
0
  6
PHANTOM
 10
-281.501404
 20
-94.832428
 11
-276.494446
 21
-94.832428
  0
LINE
  8
0
  6
PHANTOM
 10
-297.487488
 20
-65.167633
 11
-276.494446
 21
-65.167633
  0
LINE
  8
0
  6
PHANTOM
 10
7.505554
 20
-94.832428
 11
28.498596
 21
-94.832428
  0
LINE
  8
0
  6
PHANTOM
 10
7.505554
 20
-65.167633
 11
12.512512
 21
-65.167633
  0
LINE
  8
0
  6
CENTER
 10
-110.000000
 20
194.000000
 11
-110.000000
 21
31.000000
  0
LINE
  8
0
  6
CENTER
 10
-247.000000
 20
90.000000
 11
27.000008
 21
90.000000
  0
LINE
  8
0
  6
CENTER
 10
-110.000000
 20
334.000061
 11
-110.000000
 21
216.000061
  0
LINE
  8
0
  6
CENTER
 10
-247.000000
 20
275.000061
 11
27.000008
 21
275.000061
  0
LINE
  8
0
  6
CENTER
 10
197.247223
 20
194.000000
 11
197.247223
 21
31.000000
  0
LINE
  8
0
  6
CENTER
 10
138.247223
 20
90.000000
 11
256.247223
 21
90.000000
  0
LINE
  8
0
  6
CENTER
 10
-299.494446
 20
-275.000092
 11
30.505539
 21
-275.000092
  0
LINE
  8
0
  6
CENTER
 10
-134.494446
 20
-157.000092
 11
-134.494446
 21
-341.000092
  0
LINE
  8
0
  6
CENTER
 10
-299.494446
 20
-80.000031
 11
30.505539
 21
-80.000031
  0
LINE
  8
0
  6
CENTER
 10
-134.494446
 20
-14.000031
 11
-134.494446
 21
-146.000031
  0
LINE
  8
0
  6
CENTER
 10
207.752777
 20
-157.000092
 11
207.752777
 21
-341.000092
  0
LINE
  8
0
  6
CENTER
 10
141.752777
 20
-275.000092
 11
273.752777
 21
-275.000092
  0
LINE
  8
0
 10
0.000015
 20
168.000000
 11
0.000015
 21
136.000000
  0
LINE
  8
0
 10
-219.999985
 20
168.000000
 11
-219.999985
 21
136.000000
  0
LINE
  8
0
 10
-5.999985
 20
179.000000
 11
-5.999985
 21
168.000000
  0
LINE
  8
0
 10
-213.999985
 20
179.000000
 11
-213.999985
 21
168.000000
  0
LINE
  8
0
 10
-219.999985
 20
168.000000
 11
-115.999985
 21
168.000000
  0
LINE
  8
0
 10
-22.999964
 20
156.267944
 11
-19.999975
 21
154.535889
  0
LINE
  8
0
 10
-20.000025
 20
154.535965
 11
-17.000019
 21
156.268005
  0
LINE
  8
0
 10
-17.000282
 20
156.267944
 11
-17.000282
 21
159.732056
  0
LINE
  8
0
 10
-17.000008
 20
159.732056
 11
-19.999994
 21
161.464111
  0
LINE
  8
0
 10
-20.000008
 20
161.464081
 11
-23.000015
 21
159.732040
  0
LINE
  8
0
 10
-23.000282
 20
159.732025
 11
-23.000282
 21
156.267944
  0
LINE
  8
0
 10
-61.999981
 20
156.267944
 11
-64.999977
 21
154.535873
  0
LINE
  8
0
 10
-65.000008
 20
154.535919
 11
-68.000015
 21
156.267960
  0
LINE
  8
0
 10
-67.999687
 20
156.267944
 11
-67.999687
 21
159.732056
  0
LINE
  8
0
 10
-67.999977
 20
159.732025
 11
-64.999977
 21
161.464096
  0
LINE
  8
0
 10
-64.999985
 20
161.464081
 11
-61.999985
 21
159.732040
  0
LINE
  8
0
 10
-61.999687
 20
159.732025
 11
-61.999687
 21
156.267944
  0
LINE
  8
0
 10
-219.999985
 20
136.000000
 11
0.000015
 21
136.000000
  0
LINE
  8
0
 10
-219.999985
 20
132.000000
 11
0.000015
 21
132.000000
  0
LINE
  8
0
 10
-213.999985
 20
169.199982
 11
-5.999985
 21
169.199982
  0
LINE
  8
0
 10
-213.999985
 20
172.000000
 11
-5.999985
 21
172.000000
  0
LINE
  8
0
 10
-213.999985
 20
179.000000
 11
-5.999985
 21
179.000000
  0
LINE
  8
0
 10
-151.999680
 20
159.732025
 11
-151.999680
 21
156.267944
  0
LINE
  8
0
 10
-103.999985
 20
168.000000
 11
-103.999985
 21
155.500000
  0
LINE
  8
0
 10
-197.000000
 20
156.267944
 11
-200.000000
 21
154.535873
  0
LINE
  8
0
 10
-200.000000
 20
154.535919
 11
-203.000015
 21
156.267960
  0
LINE
  8
0
 10
-202.999680
 20
156.267944
 11
-202.999680
 21
159.732056
  0
LINE
  8
0
 10
-202.999969
 20
159.732040
 11
-199.999969
 21
161.464111
  0
LINE
  8
0
 10
-199.999985
 20
161.464096
 11
-196.999969
 21
159.732040
  0
LINE
  8
0
 10
-196.999680
 20
159.732025
 11
-196.999680
 21
156.267944
  0
LINE
  8
0
 10
-103.999985
 20
168.000000
 11
0.000015
 21
168.000000
  0
LINE
  8
0
 10
-115.999985
 20
168.000000
 11
-115.999985
 21
155.500000
  0
LINE
  8
0
 10
-151.999985
 20
156.267944
 11
-154.999969
 21
154.535889
  0
LINE
  8
0
 10
-155.000000
 20
154.535904
 11
-158.000000
 21
156.267944
  0
LINE
  8
0
 10
-157.999680
 20
156.267944
 11
-157.999680
 21
159.732056
  0
LINE
  8
0
 10
-157.999939
 20
159.732071
 11
-154.999954
 21
161.464142
  0
LINE
  8
0
 10
-154.999985
 20
161.464066
 11
-151.999985
 21
159.732040
  0
LINE
  8
0
  6
CENTER
 10
-174.999985
 20
184.005127
 11
-174.999985
 21
167.061493
  0
LINE
  8
0
  6
DASHED
 10
-179.499985
 20
179.000000
 11
-179.499985
 21
172.000000
  0
LINE
  8
0
  6
DASHED
 10
-170.499985
 20
179.000000
 11
-170.499985
 21
172.000000
  0
LINE
  8
0
  6
CENTER
 10
-199.999985
 20
168.000000
 11
-199.999985
 21
148.000000
  0
LINE
  8
0
  6
CENTER
 10
-189.999985
 20
158.000000
 11
-209.999985
 21
158.000000
  0
LINE
  8
0
  6
CENTER
 10
-144.999985
 20
158.000000
 11
-164.999985
 21
158.000000
  0
LINE
  8
0
  6
CENTER
 10
-154.999985
 20
168.000000
 11
-154.999985
 21
148.000000
  0
LINE
  8
0
  6
CENTER
 10
-54.999985
 20
158.000000
 11
-74.999985
 21
158.000000
  0
LINE
  8
0
  6
CENTER
 10
-64.999985
 20
168.000000
 11
-64.999985
 21
148.000000
  0
LINE
  8
0
  6
DASHED
 10
-49.499985
 20
179.000000
 11
-49.499985
 21
172.000000
  0
LINE
  8
0
  6
CENTER
 10
-44.999985
 20
184.005127
 11
-44.999985
 21
167.061493
  0
LINE
  8
0
  6
DASHED
 10
-40.499985
 20
179.000000
 11
-40.499985
 21
172.000000
  0
LINE
  8
0
  6
CENTER
 10
-29.999985
 20
158.000000
 11
-9.999985
 21
158.000000
  0
LINE
  8
0
  6
CENTER
 10
-19.999985
 20
168.000000
 11
-19.999985
 21
148.000000
  0
LINE
  8
0
 10
-214.000015
 20
292.000061
 11
-220.000015
 21
292.000061
  0
LINE
  8
0
 10
-214.000015
 20
290.000061
 11
-220.000015
 21
290.000061
  0
LINE
  8
0
 10
-214.000015
 20
284.500061
 11
-220.000015
 21
284.500061
  0
LINE
  8
0
 10
-0.000015
 20
290.000061
 11
-0.000015
 21
260.000061
  0
LINE
  8
0
 10
-220.000015
 20
290.000061
 11
-220.000015
 21
260.000061
  0
LINE
  8
0
 10
-6.000015
 20
315.000061
 11
-6.000015
 21
235.000061
  0
LINE
  8
0
 10
1.999985
 20
290.000061
 11
1.999985
 21
260.000061
  0
LINE
  8
0
 10
-222.000015
 20
290.000061
 11
-222.000015
 21
260.000061
  0
LINE
  8
0
 10
-6.000015
 20
290.000061
 11
-0.000015
 21
290.000061
  0
LINE
  8
0
 10
-6.000015
 20
260.000061
 11
-0.000015
 21
260.000061
  0
LINE
  8
0
 10
-6.000015
 20
284.500061
 11
-0.000015
 21
284.500061
  0
LINE
  8
0
 10
-6.000015
 20
292.000061
 11
-0.000015
 21
292.000061
  0
LINE
  8
0
 10
-6.000015
 20
258.000061
 11
-0.000015
 21
258.000061
  0
LINE
  8
0
 10
-214.000015
 20
315.000061
 11
-6.000015
 21
315.000061
  0
LINE
  8
0
 10
-214.000015
 20
235.000061
 11
-6.000015
 21
235.000061
  0
LINE
  8
0
 10
-6.000015
 20
265.500061
 11
-0.000015
 21
265.500061
  0
LINE
  8
0
 10
-214.000015
 20
315.000061
 11
-214.000015
 21
235.000061
  0
LINE
  8
0
 10
-214.000015
 20
258.000061
 11
-220.000015
 21
258.000061
  0
LINE
  8
0
 10
-214.000015
 20
260.000061
 11
-220.000015
 21
260.000061
  0
LINE
  8
0
 10
-214.000015
 20
265.500061
 11
-220.000015
 21
265.500061
  0
LINE
  8
0
  6
CENTER
 10
-175.000015
 20
255.000061
 11
-175.000015
 21
235.000061
  0
LINE
  8
0
  6
CENTER
 10
-165.000015
 20
245.000061
 11
-185.000015
 21
245.000061
  0
LINE
  8
0
  6
CENTER
 10
-175.000015
 20
295.000061
 11
-175.000015
 21
315.000061
  0
LINE
  8
0
  6
CENTER
 10
-165.000015
 20
305.000061
 11
-185.000015
 21
305.000061
  0
LINE
  8
0
  6
CENTER
 10
-55.000015
 20
305.000061
 11
-35.000015
 21
305.000061
  0
LINE
  8
0
  6
CENTER
 10
-45.000015
 20
295.000061
 11
-45.000015
 21
315.000061
  0
LINE
  8
0
  6
CENTER
 10
-45.000015
 20
255.000061
 11
-45.000015
 21
235.000061
  0
LINE
  8
0
  6
CENTER
 10
-55.000015
 20
245.000061
 11
-35.000015
 21
245.000061
  0
LINE
  8
0
 10
212.247223
 20
168.000000
 11
212.247223
 21
136.000000
  0
LINE
  8
0
 10
206.747223
 20
169.199997
 11
206.747223
 21
136.000000
  0
LINE
  8
0
 10
182.247223
 20
168.000000
 11
212.247223
 21
168.000000
  0
LINE
  8
0
 10
182.247223
 20
136.000000
 11
212.247223
 21
136.000000
  0
LINE
  8
0
 10
182.247223
 20
132.000000
 11
212.247223
 21
132.000000
  0
LINE
  8
0
 10
182.247223
 20
168.000000
 11
182.247223
 21
136.000000
  0
LINE
  8
0
 10
187.747223
 20
169.199997
 11
187.747223
 21
136.000000
  0
LINE
  8
0
 10
174.247223
 20
164.500000
 11
174.247223
 21
151.500000
  0
LINE
  8
0
 10
174.247223
 20
164.500000
 11
182.247223
 21
164.500000
  0
LINE
  8
0
 10
174.247223
 20
151.500000
 11
182.247223
 21
151.500000
  0
LINE
  8
0
 10
217.247223
 20
164.500031
 11
217.247223
 21
151.499908
  0
LINE
  8
0
 10
219.247223
 20
162.000000
 11
219.247223
 21
154.000000
  0
LINE
  8
0
 10
217.247223
 20
162.000000
 11
219.247223
 21
162.000000
  0
LINE
  8
0
 10
217.247223
 20
154.000000
 11
219.247223
 21
154.000000
  0
LINE
  8
0
 10
212.827789
 20
154.247253
 11
216.666656
 21
154.247253
  0
LINE
  8
0
 10
212.827728
 20
150.494446
 11
216.666718
 21
150.494446
  0
LINE
  8
0
 10
212.827789
 20
165.505585
 11
216.666656
 21
165.505585
  0
LINE
  8
0
 10
212.827789
 20
161.752808
 11
216.666656
 21
161.752808
  0
LINE
  8
0
 10
217.247604
 20
164.500229
 11
216.667038
 21
165.505814
  0
LINE
  8
0
 10
217.246979
 20
151.500107
 11
216.666397
 21
150.494476
  0
LINE
  8
0
 10
212.247360
 20
164.499985
 11
212.827927
 21
165.505585
  0
LINE
  8
0
 10
212.246399
 20
151.499573
 11
212.826965
 21
150.493973
  0
LINE
  8
0
 10
217.247223
 20
161.323502
 11
219.247223
 21
161.323502
  0
LINE
  8
0
 10
217.247223
 20
154.676498
 11
219.247223
 21
154.676498
  0
LINE
  8
0
 10
157.247223
 20
179.000000
 11
237.247223
 21
179.000000
  0
LINE
  8
0
 10
217.196991
 20
172.000000
 11
237.247223
 21
172.000000
  0
LINE
  8
0
 10
206.747223
 20
169.199966
 11
217.196991
 21
171.999969
  0
LINE
  8
0
 10
237.247223
 20
179.000000
 11
237.247223
 21
172.000000
  0
LINE
  8
0
 10
187.747238
 20
169.199966
 11
177.297501
 21
171.999954
  0
LINE
  8
0
 10
177.297455
 20
172.000000
 11
157.247223
 21
172.000000
  0
LINE
  8
0
 10
157.247223
 20
179.000000
 11
157.247223
 21
172.000000
  0
LINE
  8
0
 10
195.479462
 20
156.232239
 11
199.014999
 21
159.767776
  0
LINE
  8
0
 10
195.479538
 20
159.767838
 11
199.015060
 21
156.232300
  0
LINE
  8
0
  6
CENTER
 10
167.247223
 20
184.005142
 11
167.247223
 21
167.061523
  0
LINE
  8
0
  6
DASHED
 10
162.747223
 20
179.000000
 11
162.747223
 21
172.000000
  0
LINE
  8
0
  6
DASHED
 10
171.747223
 20
179.000000
 11
171.747223
 21
172.000000
  0
LINE
  8
0
  6
DASHED
 10
222.747223
 20
179.000000
 11
222.747223
 21
172.000000
  0
LINE
  8
0
  6
CENTER
 10
227.247223
 20
184.005142
 11
227.247223
 21
167.061523
  0
LINE
  8
0
  6
DASHED
 10
231.747223
 20
179.000000
 11
231.747223
 21
172.000000
  0
LINE
  8
0
  6
CENTER
 10
172.247223
 20
158.000000
 11
222.247223
 21
158.000000
  0
LINE
  8
0
 10
-274.494446
 20
-180.000092
 11
-274.494446
 21
-217.000092
  0
LINE
  8
0
 10
5.505554
 20
-180.000092
 11
5.505554
 21
-217.000092
  0
LINE
  8
0
 10
-274.494446
 20
-180.000092
 11
-141.994446
 21
-180.000092
  0
LINE
  8
0
 10
-0.494446
 20
-167.000092
 11
-0.494446
 21
-180.000092
  0
LINE
  8
0
 10
-268.494446
 20
-167.000092
 11
-268.494446
 21
-180.000092
  0
LINE
  8
0
 10
-18.494415
 20
-189.690704
 11
-18.494415
 21
-194.309509
  0
LINE
  8
0
 10
-18.494442
 20
-194.309509
 11
-14.494439
 21
-196.618896
  0
LINE
  8
0
 10
-14.494437
 20
-196.618805
 11
-10.494432
 21
-194.309418
  0
LINE
  8
0
 10
-10.494476
 20
-194.309479
 11
-10.494476
 21
-189.690674
  0
LINE
  8
0
 10
-10.494455
 20
-189.690689
 11
-14.494457
 21
-187.381287
  0
LINE
  8
0
 10
-14.494494
 20
-187.381317
 11
-18.494484
 21
-189.690704
  0
LINE
  8
0
 10
-70.494453
 20
-194.309464
 11
-74.494453
 21
-196.618866
  0
LINE
  8
0
 10
-74.494476
 20
-187.381332
 11
-70.494469
 21
-189.690735
  0
LINE
  8
0
 10
-70.494476
 20
-189.690704
 11
-70.494476
 21
-194.309509
  0
LINE
  8
0
 10
-78.494415
 20
-194.309479
 11
-78.494415
 21
-189.690674
  0
LINE
  8
0
 10
-78.494476
 20
-189.690720
 11
-74.494453
 21
-187.381302
  0
LINE
  8
0
 10
-74.494431
 20
-196.618866
 11
-78.494476
 21
-194.309464
  0
LINE
  8
0
 10
-274.494446
 20
-217.000092
 11
5.505554
 21
-217.000092
  0
LINE
  8
0
 10
-274.494446
 20
-221.000092
 11
5.505554
 21
-221.000092
  0
LINE
  8
0
 10
-268.494446
 20
-178.999969
 11
-0.494446
 21
-178.999969
  0
LINE
  8
0
 10
-268.494446
 20
-175.000092
 11
-0.494446
 21
-175.000092
  0
LINE
  8
0
 10
-268.494446
 20
-167.000092
 11
-0.494446
 21
-167.000092
  0
LINE
  8
0
 10
-254.494446
 20
-196.618958
 11
-258.494476
 21
-194.309555
  0
LINE
  8
0
 10
-141.994446
 20
-180.000092
 11
-141.994446
 21
-195.500092
  0
LINE
  8
0
 10
-190.494492
 20
-194.309540
 11
-194.494507
 21
-196.618942
  0
LINE
  8
0
 10
-194.494431
 20
-187.381332
 11
-190.494431
 21
-189.690735
  0
LINE
  8
0
 10
-190.494476
 20
-189.690704
 11
-190.494476
 21
-194.309509
  0
LINE
  8
0
 10
-198.494415
 20
-194.309479
 11
-198.494415
 21
-189.690674
  0
LINE
  8
0
 10
-198.494476
 20
-189.690735
 11
-194.494476
 21
-187.381332
  0
LINE
  8
0
 10
-194.494461
 20
-196.618881
 11
-198.494507
 21
-194.309494
  0
LINE
  8
0
 10
-126.994446
 20
-180.000092
 11
5.505554
 21
-180.000092
  0
LINE
  8
0
 10
-126.994446
 20
-180.000092
 11
-126.994446
 21
-195.500092
  0
LINE
  8
0
 10
-250.494400
 20
-194.309509
 11
-254.494415
 21
-196.618912
  0
LINE
  8
0
 10
-254.494461
 20
-187.381302
 11
-250.494461
 21
-189.690704
  0
LINE
  8
0
 10
-250.494476
 20
-189.690704
 11
-250.494476
 21
-194.309509
  0
LINE
  8
0
 10
-258.494415
 20
-194.309479
 11
-258.494415
 21
-189.690674
  0
LINE
  8
0
 10
-258.494385
 20
-189.690735
 11
-254.494400
 21
-187.381332
  0
LINE
  8
0
  6
DASHED
 10
-229.994446
 20
-167.000092
 11
-229.994446
 21
-175.000092
  0
LINE
  8
0
  6
CENTER
 10
-224.494446
 20
-161.448242
 11
-224.494446
 21
-181.087738
  0
LINE
  8
0
  6
DASHED
 10
-218.994446
 20
-167.000092
 11
-218.994446
 21
-175.000092
  0
LINE
  8
0
  6
CENTER
 10
-254.494446
 20
-179.500092
 11
-254.494446
 21
-204.500092
  0
LINE
  8
0
  6
CENTER
 10
-241.994446
 20
-192.000092
 11
-266.994446
 21
-192.000092
  0
LINE
  8
0
  6
CENTER
 10
-181.994446
 20
-192.000092
 11
-206.994446
 21
-192.000092
  0
LINE
  8
0
  6
CENTER
 10
-194.494446
 20
-179.500092
 11
-194.494446
 21
-204.500092
  0
LINE
  8
0
  6
CENTER
 10
-61.994446
 20
-192.000092
 11
-86.994446
 21
-192.000092
  0
LINE
  8
0
  6
CENTER
 10
-74.494446
 20
-179.500092
 11
-74.494446
 21
-204.500092
  0
LINE
  8
0
  6
CENTER
 10
-26.994446
 20
-192.000092
 11
-1.994446
 21
-192.000092
  0
LINE
  8
0
  6
CENTER
 10
-14.494446
 20
-179.500092
 11
-14.494446
 21
-204.500092
  0
LINE
  8
0
  6
DASHED
 10
-49.994446
 20
-167.000092
 11
-49.994446
 21
-175.000092
  0
LINE
  8
0
  6
CENTER
 10
-44.494446
 20
-161.448242
 11
-44.494446
 21
-181.087738
  0
LINE
  8
0
  6
DASHED
 10
-38.994446
 20
-167.000092
 11
-38.994446
 21
-175.000092
  0
LINE
  8
0
 10
5.505539
 20
-90.000046
 11
-0.494461
 21
-90.000046
  0
LINE
  8
0
 10
5.505539
 20
-96.000046
 11
-0.494461
 21
-96.000046
  0
LINE
  8
0
 10
5.505539
 20
-98.000046
 11
-0.494461
 21
-98.000046
  0
LINE
  8
0
 10
5.505539
 20
-62.000046
 11
-0.494461
 21
-62.000046
  0
LINE
  8
0
 10
5.505539
 20
-64.000046
 11
-0.494461
 21
-64.000046
  0
LINE
  8
0
 10
-274.494446
 20
-64.000046
 11
-274.494446
 21
-96.000046
  0
LINE
  8
0
 10
-268.494446
 20
-30.000046
 11
-268.494446
 21
-130.000046
  0
LINE
  8
0
 10
5.505539
 20
-64.000046
 11
5.505539
 21
-96.000046
  0
LINE
  8
0
 10
-0.494461
 20
-30.000046
 11
-0.494461
 21
-130.000046
  0
LINE
  8
0
 10
-274.494446
 20
-64.000046
 11
-268.494446
 21
-64.000046
  0
LINE
  8
0
 10
-274.494446
 20
-96.000046
 11
-268.494446
 21
-96.000046
  0
LINE
  8
0
 10
-274.494446
 20
-98.000046
 11
-268.494446
 21
-98.000046
  0
LINE
  8
0
 10
-274.494446
 20
-62.000046
 11
-268.494446
 21
-62.000046
  0
LINE
  8
0
 10
-276.494446
 20
-64.000046
 11
-276.494446
 21
-96.000046
  0
LINE
  8
0
 10
7.505539
 20
-64.000046
 11
7.505539
 21
-96.000046
  0
LINE
  8
0
 10
-274.494446
 20
-70.000046
 11
-268.494446
 21
-70.000046
  0
LINE
  8
0
 10
-274.494446
 20
-90.000046
 11
-268.494446
 21
-90.000046
  0
LINE
  8
0
 10
-268.494446
 20
-130.000046
 11
-0.494461
 21
-130.000046
  0
LINE
  8
0
 10
-268.494446
 20
-30.000046
 11
-0.494461
 21
-30.000046
  0
LINE
  8
0
 10
5.505539
 20
-70.000046
 11
-0.494461
 21
-70.000046
  0
LINE
  8
0
  6
CENTER
 10
-214.494461
 20
-42.500046
 11
-234.494461
 21
-42.500046
  0
LINE
  8
0
  6
CENTER
 10
-224.494461
 20
-52.500046
 11
-224.494461
 21
-32.500046
  0
LINE
  8
0
  6
CENTER
 10
-224.494461
 20
-107.500046
 11
-224.494461
 21
-127.500046
  0
LINE
  8
0
  6
CENTER
 10
-214.494461
 20
-117.500046
 11
-234.494461
 21
-117.500046
  0
LINE
  8
0
  6
CENTER
 10
-54.494461
 20
-42.500046
 11
-34.494461
 21
-42.500046
  0
LINE
  8
0
  6
CENTER
 10
-44.494461
 20
-52.500046
 11
-44.494461
 21
-32.500046
  0
LINE
  8
0
  6
CENTER
 10
-44.494461
 20
-107.500046
 11
-44.494461
 21
-127.500046
  0
LINE
  8
0
  6
CENTER
 10
-54.494461
 20
-117.500046
 11
-34.494461
 21
-117.500046
  0
LINE
  8
0
 10
191.752762
 20
-180.000092
 11
223.752762
 21
-180.000092
  0
LINE
  8
0
 10
217.752762
 20
-179.000092
 11
217.752762
 21
-217.000092
  0
LINE
  8
0
 10
197.752762
 20
-179.000122
 11
197.752762
 21
-217.000092
  0
LINE
  8
0
 10
191.752762
 20
-180.000092
 11
191.752762
 21
-217.000092
  0
LINE
  8
0
 10
181.752762
 20
-184.000092
 11
181.752762
 21
-200.000092
  0
LINE
  8
0
 10
181.752762
 20
-184.000092
 11
191.752762
 21
-184.000092
  0
LINE
  8
0
 10
181.752762
 20
-200.000092
 11
191.752762
 21
-200.000092
  0
LINE
  8
0
 10
229.752762
 20
-183.500092
 11
229.752762
 21
-200.500122
  0
LINE
  8
0
 10
224.511917
 20
-196.907654
 11
228.993546
 21
-196.907654
  0
LINE
  8
0
 10
224.511978
 20
-187.092606
 11
228.993546
 21
-187.092606
  0
LINE
  8
0
 10
224.511978
 20
-182.185089
 11
228.993546
 21
-182.185089
  0
LINE
  8
0
 10
228.992889
 20
-182.185394
 11
229.752106
 21
-183.500397
  0
LINE
  8
0
 10
228.992996
 20
-201.814774
 11
229.752213
 21
-200.499771
  0
LINE
  8
0
 10
224.512039
 20
-201.815094
 11
228.993546
 21
-201.815094
  0
LINE
  8
0
 10
224.511444
 20
-182.184830
 11
223.752243
 21
-183.499802
  0
LINE
  8
0
 10
224.512466
 20
-201.814850
 11
223.753250
 21
-200.499847
  0
LINE
  8
0
 10
231.752762
 20
-187.000092
 11
231.752762
 21
-197.000092
  0
LINE
  8
0
 10
229.752762
 20
-187.000092
 11
231.752762
 21
-187.000092
  0
LINE
  8
0
 10
229.752762
 20
-187.812088
 11
231.752762
 21
-187.812088
  0
LINE
  8
0
 10
229.752762
 20
-196.188095
 11
231.752762
 21
-196.188095
  0
LINE
  8
0
 10
229.752762
 20
-197.000092
 11
231.752762
 21
-197.000092
  0
LINE
  8
0
 10
191.752762
 20
-217.000092
 11
223.752762
 21
-217.000092
  0
LINE
  8
0
 10
191.752762
 20
-221.000092
 11
223.752762
 21
-221.000092
  0
LINE
  8
0
 10
223.752762
 20
-180.000092
 11
223.752762
 21
-217.000092
  0
LINE
  8
0
  6
DASHED
 10
239.752762
 20
-167.000092
 11
239.752762
 21
-175.000092
  0
LINE
  8
0
 10
232.680984
 20
-175.000092
 11
257.752747
 21
-175.000092
  0
LINE
  8
0
 10
257.752747
 20
-167.000092
 11
257.752747
 21
-175.000092
  0
LINE
  8
0
 10
157.752762
 20
-167.000092
 11
157.752762
 21
-175.000092
  0
LINE
  8
0
 10
217.752747
 20
-179.000198
 11
232.680969
 21
-175.000198
  0
LINE
  8
0
 10
197.752716
 20
-179.000015
 11
182.824493
 21
-175.000015
  0
LINE
  8
0
 10
182.824539
 20
-175.000092
 11
157.752762
 21
-175.000092
  0
LINE
  8
0
 10
205.985062
 20
-193.767944
 11
209.520599
 21
-190.232422
  0
LINE
  8
0
 10
205.985062
 20
-190.232300
 11
209.520584
 21
-193.767822
  0
LINE
  8
0
  6
DASHED
 10
164.752762
 20
-167.000092
 11
164.752762
 21
-175.000092
  0
LINE
  8
0
  6
CENTER
 10
170.252762
 20
-162.714996
 11
170.252762
 21
-179.425400
  0
LINE
  8
0
  6
DASHED
 10
175.752762
 20
-167.000092
 11
175.752762
 21
-175.000092
  0
LINE
  8
0
  6
CENTER
 10
175.009048
 20
-192.000092
 11
237.867325
 21
-192.000092
  0
LINE
  8
0
 10
157.752762
 20
-167.000092
 11
257.752747
 21
-167.000092
  0
LINE
  8
0
  6
CENTER
 10
245.252762
 20
-162.714996
 11
245.252762
 21
-179.425400
  0
LINE
  8
0
  6
DASHED
 10
250.752762
 20
-167.000092
 11
250.752762
 21
-175.000092
  0
ARC
  8
0
 10
461.595520
 20
-328.215485
 40
1.564059
 50
291.688049
 51
0.000000
  0
ARC
  8
0
 10
386.130402
 20
-332.404785
 40
3.128082
 50
0.000000
 51
90.000000
  0
ARC
  8
0
 10
411.937195
 20
-349.218353
 40
3.128082
 50
270.000000
 51
0.000000
  0
ARC
  8
0
 10
410.373047
 20
-333.968781
 40
4.692139
 50
0.000000
 51
90.000000
  0
ARC
  8
0
 10
438.916931
 20
-334.903870
 40
3.128100
 50
294.999969
 51
0.000000
  0
ARC
  8
0
 10
438.916931
 20
-332.404785
 40
3.128082
 50
0.000000
 51
90.000000
  0
ARC
  8
0
 10
463.159729
 20
-329.276672
 40
4.692149
 50
291.688202
 51
0.000000
  0
ARC
  8
0
  6
PHANTOM
 10
-277.899994
 20
68.000000
 40
50.900002
 50
334.391418
 51
25.608475
  0
ARC
  8
0
  6
PHANTOM
 10
-186.100006
 20
112.000000
 40
50.899994
 50
154.391434
 51
205.608490
  0
ARC
  8
0
  6
PHANTOM
 10
-33.899994
 20
68.000000
 40
50.900002
 50
334.391418
 51
25.608475
  0
ARC
  8
0
  6
PHANTOM
 10
57.899994
 20
112.000000
 40
50.900005
 50
154.391342
 51
205.608414
  0
ARC
  8
0
  6
PHANTOM
 10
-277.899994
 20
253.000061
 40
50.900002
 50
334.391418
 51
25.608458
  0
ARC
  8
0
  6
PHANTOM
 10
-186.100006
 20
297.000061
 40
50.899994
 50
154.391434
 51
205.608490
  0
ARC
  8
0
  6
PHANTOM
 10
57.899994
 20
297.000061
 40
50.899998
 50
154.391357
 51
205.608414
  0
ARC
  8
0
  6
PHANTOM
 10
-33.899994
 20
253.000061
 40
50.900002
 50
334.391418
 51
25.608458
  0
ARC
  8
0
  6
PHANTOM
 10
197.247223
 20
90.000000
 40
44.000008
 50
107.341469
 51
72.658524
  0
ARC
  8
0
  6
PHANTOM
 10
-255.294434
 20
-247.000092
 40
44.200008
 50
140.692368
 51
219.307602
  0
ARC
  8
0
  6
PHANTOM
 10
-323.694458
 20
-303.000092
 40
44.200012
 50
320.692413
 51
39.307693
  0
ARC
  8
0
  6
PHANTOM
 10
-13.694458
 20
-303.000092
 40
44.200008
 50
320.692413
 51
39.307693
  0
ARC
  8
0
  6
PHANTOM
 10
54.705566
 20
-247.000092
 40
44.200005
 50
140.692383
 51
219.307648
  0
ARC
  8
0
  6
PHANTOM
 10
-255.294434
 20
-52.000031
 40
44.200005
 50
140.692368
 51
219.307617
  0
ARC
  8
0
  6
PHANTOM
 10
-323.694458
 20
-108.000031
 40
44.200005
 50
320.692444
 51
39.307686
  0
ARC
  8
0
  6
PHANTOM
 10
-13.694458
 20
-108.000031
 40
44.199997
 50
320.692413
 51
39.307686
  0
ARC
  8
0
  6
PHANTOM
 10
54.705566
 20
-52.000031
 40
44.200001
 50
140.692398
 51
219.307648
  0
ARC
  8
0
  6
PHANTOM
 10
207.752777
 20
-275.000092
 40
56.000004
 50
105.358902
 51
74.641113
  0
ARC
  8
0
 10
-109.999985
 20
155.500000
 40
6.000000
 50
180.000000
 51
0.000000
  0
CIRCLE
  8
0
 10
-154.999985
 20
158.000000
 40
6.500000
  0
CIRCLE
  8
0
 10
-199.999985
 20
158.000000
 40
6.500000
  0
ARC
  8
0
 10
-219.999985
 20
134.000000
 40
2.000000
 50
90.000000
 51
270.000000
  0
ARC
  8
0
 10
0.000015
 20
134.000000
 40
2.000000
 50
270.000031
 51
89.999985
  0
CIRCLE
  8
0
 10
-64.999985
 20
158.000000
 40
6.500000
  0
CIRCLE
  8
0
 10
-19.999985
 20
158.000000
 40
6.500000
  0
CIRCLE
  8
0
 10
-175.000015
 20
305.000061
 40
4.500000
  0
CIRCLE
  8
0
 10
-175.000015
 20
245.000061
 40
4.500000
  0
CIRCLE
  8
0
 10
-45.000015
 20
305.000061
 40
4.500000
  0
CIRCLE
  8
0
 10
-45.000015
 20
245.000061
 40
4.500000
  0
ARC
  8
0
 10
-0.000015
 20
260.000061
 40
2.000000
 50
270.000031
 51
0.000000
  0
ARC
  8
0
 10
-0.000015
 20
290.000061
 40
2.000000
 50
0.000000
 51
89.999985
  0
ARC
  8
0
 10
-220.000015
 20
260.000061
 40
2.000000
 50
180.000000
 51
270.000000
  0
ARC
  8
0
 10
-220.000015
 20
290.000061
 40
2.000000
 50
90.000000
 51
180.000000
  0
CIRCLE
  8
0
 10
197.247223
 20
158.000000
 40
5.000000
  0
ARC
  8
0
 10
215.569733
 20
152.370804
 40
3.322525
 50
145.615219
 51
214.384781
  0
ARC
  8
0
 10
224.666473
 20
158.000031
 40
12.419250
 50
162.411758
 51
197.588165
  0
ARC
  8
0
 10
215.569733
 20
163.629196
 40
3.322533
 50
145.615005
 51
214.384781
  0
ARC
  8
0
 10
213.924713
 20
152.370804
 40
3.322533
 50
325.614990
 51
34.384781
  0
ARC
  8
0
 10
204.827972
 20
158.000031
 40
12.419250
 50
342.411774
 51
17.588238
  0
ARC
  8
0
 10
213.924713
 20
163.629196
 40
3.322525
 50
325.615234
 51
34.384781
  0
ARC
  8
0
 10
182.247223
 20
134.000000
 40
2.000000
 50
90.000000
 51
270.000000
  0
ARC
  8
0
 10
212.247223
 20
134.000000
 40
2.000000
 50
270.000000
 51
90.000000
  0
ARC
  8
0
 10
-134.494446
 20
-195.500092
 40
7.500000
 50
180.000000
 51
0.000000
  0
CIRCLE
  8
0
 10
-254.494446
 20
-192.000092
 40
8.000000
  0
CIRCLE
  8
0
 10
-194.494446
 20
-192.000092
 40
8.000000
  0
ARC
  8
0
 10
5.505554
 20
-219.000092
 40
2.000000
 50
269.999969
 51
89.999985
  0
ARC
  8
0
 10
-274.494446
 20
-219.000092
 40
2.000000
 50
90.000000
 51
270.000000
  0
CIRCLE
  8
0
 10
-74.494446
 20
-192.000092
 40
8.000000
  0
CIRCLE
  8
0
 10
-14.494446
 20
-192.000092
 40
8.000000
  0
CIRCLE
  8
0
 10
-224.494461
 20
-42.500046
 40
5.500000
  0
CIRCLE
  8
0
 10
-224.494461
 20
-117.500046
 40
5.500000
  0
CIRCLE
  8
0
 10
-44.494461
 20
-42.500046
 40
5.500000
  0
CIRCLE
  8
0
 10
-44.494461
 20
-117.500046
 40
5.500000
  0
ARC
  8
0
 10
5.505539
 20
-96.000046
 40
2.000000
 50
270.000000
 51
0.000000
  0
ARC
  8
0
 10
5.505539
 20
-64.000046
 40
2.000000
 50
0.000000
 51
89.999985
  0
ARC
  8
0
 10
-274.494446
 20
-64.000046
 40
2.000000
 50
90.000000
 51
180.000000
  0
ARC
  8
0
 10
-274.494446
 20
-96.000046
 40
2.000000
 50
180.000000
 51
270.000000
  0
CIRCLE
  8
0
 10
207.752762
 20
-192.000092
 40
5.000000
  0
ARC
  8
0
 10
223.752762
 20
-219.000092
 40
2.000000
 50
270.000000
 51
90.000000
  0
ARC
  8
0
 10
191.752762
 20
-219.000092
 40
2.000000
 50
90.000000
 51
270.000000
  0
ARC
  8
0
 10
228.097610
 20
-199.361328
 40
4.344831
 50
146.227173
 51
214.385071
  0
ARC
  8
0
 10
228.097610
 20
-184.638855
 40
4.344829
 50
145.614929
 51
213.772827
  0
ARC
  8
0
 10
239.993362
 20
-192.000137
 40
16.240587
 50
162.411591
 51
197.588333
  0
ARC
  8
0
 10
225.407913
 20
-199.361328
 40
4.344829
 50
325.614929
 51
33.772831
  0
ARC
  8
0
 10
213.512161
 20
-192.000137
 40
16.240582
 50
342.411652
 51
17.588406
  0
ARC
  8
0
 10
225.407913
 20
-184.638855
 40
4.344831
 50
326.227173
 51
34.385063
  0
TEXT
  8
0
 10
320.176147
 20
329.975403
 40
12.000000
  1
DATE : NOV ,1991
 50
0.000000
 41
1.052631
 51
0.000000
  7
STANDARD
  0
TEXT
  8
0
 10
-502.379242
 20
328.175385
 40
14.000000
  1
ORC ST MOUNT
 50
0.000000
 41
1.052632
 51
0.000000
  7
STANDARD
  0
TEXT
  8
0
 10
-513.244446
 20
287.950592
 40
14.000000
  1
BORE : 63
 50
0.000000
 41
1.052632
 51
0.000000
  7
STANDARD
  0
TEXT
  8
0
 10
-513.244446
 20
-31.600002
 40
14.000000
  1
BORE : 80
 50
0.000000
 41
1.052632
 51
0.000000
  7
STANDARD
  0
ENDSEC
  0
EOF
