  0
SECTION
  2
HEADER
  0
ENDSEC
  0
SECTION
  2
TABLES
  0
TABLE
  2
LTYPE
 70
     4
  0
LTYPE
  2
CONTINUOUS
 70
    64
  3
Solid line
 72
    65
 73
     0
 40
0.000000
  0
LTYPE
  2
DASHED
 70
    64
  3
__ __ __ __ __ __ __ __ __ __ __ __ __ __ __
 72
    65
 73
     2
 40
3.500000
 49
2.000000
 49
-1.500000
  0
LTYPE
  2
CENTER
 70
    64
  3
____ _ ____ _ ____ _ ____ _ ____ _ ____ _ ____
 72
    65
 73
     4
 40
17.500000
 49
13.000000
 49
-1.500000
 49
1.500000
 49
-1.500000
  0
LTYPE
  2
PHANTOM
 70
    64
  3
_____ _ _ _____ _ _ _____ _ _ _____ _ _ ____  
 72
    65
 73
     6
 40
15.500000
 49
8.000000
 49
-1.500000
 49
1.500000
 49
-1.500000
 49
1.500000
 49
-1.500000
  0
LTYPE
  2
DASHED1
 70
    64
  3
__ __ __ __ __ __ __ __ __ __ __ __ __ __ __
 72
    65
 73
     2
 40
1.500000
 49
1.000000
 49
-0.500000
  0
LTYPE
  2
DASHED2
 70
    64
  3
__ __ __ __ __ __ __ __ __ __ __ __ __ __ __
 72
    65
 73
     2
 40
3.500000
 49
2.500000
 49
-1.000000
  0
LTYPE
  2
DASHED3
 70
    64
  3
__ __ __ __ __ __ __ __ __ __ __ __ __ __ __
 72
    65
 73
     2
 40
6.000000
 49
4.000000
 49
-2.000000
  0
LTYPE
  2
DASHED4
 70
    64
  3
__ __ __ __ __ __ __ __ __ __ __ __ __ __ __
 72
    65
 73
     2
 40
12.000000
 49
10.000000
 49
-2.000000
  0
LTYPE
  2
DASHED5
 70
    64
  3
__ __ __ __ __ __ __ __ __ __ __ __ __ __ __
 72
    65
 73
     2
 40
17.000000
 49
15.000000
 49
-2.000000
  0
LTYPE
  2
DASHED6
 70
    64
  3
__ __ __ __ __ __ __ __ __ __ __ __ __ __ __
 72
    65
 73
     2
 40
29.000000
 49
27.000000
 49
-2.000000
  0
LTYPE
  2
PHANTOM1
 70
    64
  3
_____ _ _ _____ _ _ _____ _ _ _____ _ _ ____  
 72
    65
 73
     6
 40
31.000000
 49
25.000000
 49
-1.500000
 49
1.000000
 49
-1.000000
 49
1.000000
 49
-1.500000
  0
LTYPE
  2
PHANTOM2
 70
    64
  3
_____ _ _ _____ _ _ _____ _ _ _____ _ _ ____  
 72
    65
 73
     6
 40
36.000000
 49
27.000000
 49
-1.500000
 49
2.500000
 49
-1.000000
 49
2.500000
 49
-1.500000
  0
LTYPE
  2
PHANTOM3
 70
    64
  3
_____ _ _ _____ _ _ _____ _ _ _____ _ _ ____  
 72
    65
 73
     6
 40
78.000000
 49
64.000000
 49
-2.000000
 49
4.000000
 49
-2.000000
 49
4.000000
 49
-2.000000
  0
LTYPE
  2
CENTER1
 70
    64
  3
____ _ ____ _ ____ _ ____ _ ____ _ ____ _ ____
 72
    65
 73
     4
 40
19.000000
 49
14.000000
 49
-1.000000
 49
3.000000
 49
-1.000000
  0
LTYPE
  2
CENTER2
 70
    64
  3
____ _ ____ _ ____ _ ____ _ ____ _ ____ _ ____
 72
    65
 73
     4
 40
28.500000
 49
25.000000
 49
-1.000000
 49
1.500000
 49
-1.000000
  0
LTYPE
  2
CENTER3
 70
    64
  3
____ _ ____ _ ____ _ ____ _ ____ _ ____ _ ____
 72
    65
 73
     4
 40
31.500000
 49
27.000000
 49
-1.000000
 49
2.500000
 49
-1.000000
  0
LTYPE
  2
CENTER4
 70
    64
  3
____ _ ____ _ ____ _ ____ _ ____ _ ____ _ ____
 72
    65
 73
     4
 40
50.000000
 49
45.000000
 49
-1.000000
 49
3.000000
 49
-1.000000
  0
LTYPE
  2
CENTER5
 70
    64
  3
____ _ ____ _ ____ _ ____ _ ____ _ ____ _ ____
 72
    65
 73
     4
 40
100.000000
 49
92.000000
 49
-2.000000
 49
4.000000
 49
-2.000000
  0
LTYPE
  2
SBK1
 70
    64
  3
______ _ _ _ ______ _ _ _ ______ _ _ _ _____  
 72
    65
 73
     8
 40
60.500000
 49
45.000000
 49
-2.000000
 49
2.500000
 49
-2.000000
 49
2.500000
 49
-2.000000
 49
2.500000
 49
-2.000000
  0
LTYPE
  2
SBK2
 70
    64
  3
______ _ _ _ ______ _ _ _ ______ _ _ _ _____  
 72
    65
 73
     8
 40
84.000000
 49
64.000000
 49
-2.000000
 49
4.000000
 49
-2.000000
 49
4.000000
 49
-2.000000
 49
4.000000
 49
-2.000000
  0
LTYPE
  2
STCH
 70
    64
  3
__ __ __ __ __ __ __ __ __ __ __ __ __ __ __
 72
    65
 73
     2
 40
3.000000
 49
1.000000
 49
-2.000000
  0
LTYPE
  2
MTCH
 70
    64
  3
_____ _ _ _____ _ _ _____ _ _ _____ _ _ ____  
 72
    65
 73
     6
 40
80.000000
 49
66.000000
 49
-2.000000
 49
4.000000
 49
-2.000000
 49
4.000000
 49
-2.000000
  0
ENDTAB
  0
TABLE
  2
LAYER
 70
     1
  0
LAYER
  2
0
 70
     0
 62
     7
  6
CONTINUOUS
  0
ENDTAB
  0
TABLE
  2
STYLE
 70
     1
  0
STYLE
  2
STANDARD
 70
     0
 40
0.000000
 41
1.000000
 50
0.000000
 71
     0
 42
0.200000
  3
txt
  4
BIGFONT
  0
ENDTAB
  0
TABLE
  2
VIEW
 70
     0
  0
ENDTAB
  0
ENDSEC
  0
SECTION
  2
BLOCKS
  0
ENDSEC
  0
SECTION
  2
ENTITIES
  0
POINT
  8
0
 10
-182.247147
 20
39.999950
  0
POINT
  8
0
 10
47.752853
 20
39.999950
  0
POINT
  8
0
 10
-182.247131
 20
-80.000015
  0
POINT
  8
0
 10
47.752869
 20
-80.000015
  0
POINT
  8
0
 10
157.752777
 20
-80.000053
  0
POINT
  8
0
 10
171.252777
 20
-80.000053
  0
LINE
  8
0
 62
     3
 10
-262.247223
 20
-180.000046
 11
-262.247223
 21
180.000046
  0
LINE
  8
0
 62
     3
 10
262.247223
 20
180.000046
 11
262.247223
 21
-180.000046
  0
LINE
  8
0
 62
     3
 10
-262.247223
 20
-180.000046
 11
262.247223
 21
-180.000046
  0
LINE
  8
0
 62
     3
 10
-262.247223
 20
180.000046
 11
262.247223
 21
180.000046
  0
LINE
  8
0
 62
     3
 10
-262.247223
 20
159.775299
 11
-154.382050
 21
159.775299
  0
LINE
  8
0
 62
     3
 10
-154.382050
 20
159.775299
 11
-154.382050
 21
180.000046
  0
LINE
  8
0
 62
     3
 10
154.382034
 20
-159.775345
 11
262.247223
 21
-159.775345
  0
LINE
  8
0
 62
     5
 10
182.703415
 20
-164.638336
 11
193.065201
 21
-164.638336
  0
LINE
  8
0
 62
     5
 10
182.703415
 20
-173.827118
 11
191.501175
 21
-173.827118
  0
LINE
  8
0
 62
     5
 10
182.703415
 20
-176.173172
 11
194.629272
 21
-176.173172
  0
LINE
  8
0
 62
     5
 10
182.703415
 20
-166.984390
 11
191.501175
 21
-166.984390
  0
LINE
  8
0
 62
     5
 10
182.703415
 20
-164.638336
 11
182.703415
 21
-166.984390
  0
LINE
  8
0
 62
     5
 10
194.629272
 20
-166.202393
 11
194.629272
 21
-176.173172
  0
LINE
  8
0
 62
     5
 10
191.501175
 20
-166.984390
 11
191.501175
 21
-173.827118
  0
LINE
  8
0
 62
     5
 10
196.388779
 20
-164.638336
 11
196.388779
 21
-166.984390
  0
LINE
  8
0
 62
     5
 10
207.532593
 20
-166.984390
 11
207.532593
 21
-174.609177
  0
LINE
  8
0
 62
     5
 10
204.404526
 20
-166.984390
 11
204.404526
 21
-173.827118
  0
LINE
  8
0
 62
     5
 10
182.703415
 20
-173.827118
 11
182.703415
 21
-176.173172
  0
LINE
  8
0
 62
     5
 10
196.388779
 20
-164.638336
 11
199.479568
 21
-164.638336
  0
LINE
  8
0
 62
     5
 10
196.388779
 20
-176.173172
 11
198.817642
 21
-176.173172
  0
LINE
  8
0
 62
     5
 10
196.388718
 20
-176.173080
 11
198.850922
 21
-166.984344
  0
LINE
  8
0
 62
     5
 10
196.388779
 20
-166.984390
 11
198.850937
 21
-166.984390
  0
LINE
  8
0
 62
     5
 10
198.817780
 20
-176.173279
 11
201.279861
 21
-166.984528
  0
LINE
  8
0
 62
     5
 10
202.058426
 20
-173.827118
 11
204.404526
 21
-173.827118
  0
LINE
  8
0
 62
     5
 10
202.058365
 20
-173.827072
 11
202.686935
 21
-176.173096
  0
LINE
  8
0
 62
     5
 10
202.687119
 20
-176.173172
 11
205.968597
 21
-176.173172
  0
LINE
  8
0
 62
     5
 10
201.279770
 20
-166.984390
 11
204.404526
 21
-166.984390
  0
LINE
  8
0
 62
     5
 10
201.908386
 20
-164.638336
 11
205.186523
 21
-164.638336
  0
LINE
  8
0
 62
     5
 10
199.479599
 20
-164.638351
 11
199.945786
 21
-162.898392
  0
LINE
  8
0
 62
     5
 10
201.908234
 20
-164.638229
 11
202.374420
 21
-162.898209
  0
LINE
  8
0
 62
     5
 10
209.487671
 20
-164.638336
 11
213.202286
 21
-164.638336
  0
LINE
  8
0
 62
     5
 10
209.487671
 20
-166.984390
 11
218.610596
 21
-166.984390
  0
LINE
  8
0
 62
     5
 10
213.202286
 20
-176.173172
 11
216.330322
 21
-176.173172
  0
LINE
  8
0
 62
     5
 10
209.487671
 20
-164.638336
 11
209.487671
 21
-166.984390
  0
LINE
  8
0
 62
     5
 10
221.022522
 20
-171.238510
 11
221.022522
 21
-173.827118
  0
LINE
  8
0
 62
     5
 10
209.487518
 20
-173.827026
 11
213.202194
 21
-172.094818
  0
LINE
  8
0
 62
     5
 10
209.487885
 20
-171.238678
 11
218.610779
 21
-166.984558
  0
LINE
  8
0
 62
     5
 10
209.487671
 20
-171.238510
 11
209.487671
 21
-173.827118
  0
LINE
  8
0
 62
     5
 10
216.330246
 20
-171.639053
 11
221.022491
 21
-173.827042
  0
LINE
  8
0
 62
     5
 10
218.031052
 20
-169.843643
 11
221.022827
 21
-171.238724
  0
LINE
  8
0
 62
     5
 10
221.022522
 20
-166.202393
 11
221.022522
 21
-167.451935
  0
LINE
  8
0
 62
     5
 10
213.202286
 20
-162.898361
 11
213.202286
 21
-164.638336
  0
LINE
  8
0
 62
     5
 10
216.330322
 20
-162.898361
 11
216.330322
 21
-164.638336
  0
LINE
  8
0
 62
     5
 10
216.330322
 20
-164.638336
 11
219.458466
 21
-164.638336
  0
LINE
  8
0
 62
     5
 10
213.202286
 20
-172.094986
 11
213.202286
 21
-176.173172
  0
LINE
  8
0
 62
     5
 10
216.330322
 20
-171.639160
 11
216.330322
 21
-176.173172
  0
LINE
  8
0
 62
     5
 10
218.030975
 20
-169.843597
 11
220.119705
 21
-168.869614
  0
LINE
  8
0
 62
     5
 10
231.579834
 20
-163.602188
 11
233.925842
 21
-163.602188
  0
LINE
  8
0
 62
     5
 10
222.000061
 20
-168.448334
 11
222.000061
 21
-170.973129
  0
LINE
  8
0
 62
     5
 10
233.925842
 20
-163.602188
 11
233.925842
 21
-164.638336
  0
LINE
  8
0
 62
     5
 10
231.579834
 20
-163.602188
 11
231.579834
 21
-164.107742
  0
LINE
  8
0
 62
     5
 10
228.451721
 20
-168.407227
 11
228.451721
 21
-176.173172
  0
LINE
  8
0
 62
     5
 10
222.000137
 20
-168.448441
 11
231.086914
 21
-164.834534
  0
LINE
  8
0
 62
     5
 10
222.000092
 20
-170.973236
 11
228.451752
 21
-168.407303
  0
LINE
  8
0
 62
     5
 10
228.451721
 20
-176.173172
 11
231.579834
 21
-176.173172
  0
LINE
  8
0
 62
     5
 10
231.579834
 20
-167.163162
 11
231.579834
 21
-176.173172
  0
LINE
  8
0
 62
     5
 10
231.580063
 20
-167.163315
 11
232.447128
 21
-166.818451
  0
LINE
  8
0
 62
     5
 10
199.945801
 20
-162.898361
 11
202.374603
 21
-162.898361
  0
LINE
  8
0
 62
     5
 10
206.261841
 20
-162.898361
 11
207.258865
 21
-162.898361
  0
LINE
  8
0
 62
     5
 10
213.202286
 20
-162.898361
 11
216.330322
 21
-162.898361
  0
LINE
  8
0
 62
     5
 10
206.261841
 20
-164.462418
 11
207.258865
 21
-164.462418
  0
LINE
  8
0
 62
     5
 10
206.261841
 20
-162.898361
 11
206.261841
 21
-164.462418
  0
LINE
  8
0
 62
     5
 10
207.258865
 20
-162.898361
 11
207.258865
 21
-164.462418
  0
LINE
  8
0
 62
     5
 10
207.845444
 20
-162.898361
 11
207.845444
 21
-164.462418
  0
LINE
  8
0
 62
     5
 10
208.959839
 20
-162.898361
 11
208.959839
 21
-164.462418
  0
LINE
  8
0
 62
     5
 10
207.845444
 20
-162.898361
 11
208.959839
 21
-162.898361
  0
LINE
  8
0
 62
     5
 10
207.845444
 20
-164.462418
 11
208.959839
 21
-164.462418
  0
LINE
  8
0
 62
     3
 10
154.382034
 20
159.775299
 11
262.247223
 21
159.775299
  0
LINE
  8
0
 62
     3
 10
154.382034
 20
180.000046
 11
154.382034
 21
159.775299
  0
LINE
  8
0
 62
     3
 10
154.382034
 20
-159.775345
 11
154.382034
 21
-180.000046
  0
LINE
  8
0
 10
-167.247131
 20
-95.000015
 11
32.752869
 21
-95.000015
  0
LINE
  8
0
 10
-167.247131
 20
-68.000015
 11
32.752869
 21
-68.000015
  0
LINE
  8
0
 10
-167.247131
 20
-73.650017
 11
32.752869
 21
-73.650017
  0
LINE
  8
0
 10
-167.247131
 20
-86.350014
 11
32.752869
 21
-86.350014
  0
LINE
  8
0
 10
-167.247131
 20
-87.650017
 11
32.752869
 21
-87.650017
  0
LINE
  8
0
 10
-167.247131
 20
-72.350014
 11
32.752869
 21
-72.350014
  0
LINE
  8
0
 10
-167.247131
 20
-92.000015
 11
17.851425
 21
-92.000015
  0
LINE
  8
0
 10
16.752869
 20
-95.000015
 11
16.752869
 21
-94.000015
  0
LINE
  8
0
 10
19.369034
 20
-91.500015
 11
32.752869
 21
-91.500015
  0
LINE
  8
0
 10
12.838074
 20
-94.000015
 11
16.752869
 21
-94.000015
  0
LINE
  8
0
 10
-155.247131
 20
-55.000015
 11
-119.247131
 21
-55.000015
  0
LINE
  8
0
  6
CENTER
 10
-117.247131
 20
-100.000015
 11
-117.247131
 21
-50.000015
  0
LINE
  8
0
 10
-79.247131
 20
-67.000015
 11
-79.247131
 21
-55.000015
  0
LINE
  8
0
 10
-155.247131
 20
-67.000015
 11
-155.247131
 21
-55.000015
  0
LINE
  8
0
  6
CENTER
 10
-136.747131
 20
-58.000015
 11
-129.747131
 21
-58.000015
  0
LINE
  8
0
  6
CENTER
 10
-133.247131
 20
-54.500015
 11
-133.247131
 21
-61.500015
  0
LINE
  8
0
  6
CENTER
 10
-97.747131
 20
-58.000015
 11
-104.747131
 21
-58.000015
  0
LINE
  8
0
  6
CENTER
 10
-101.247131
 20
-54.500015
 11
-101.247131
 21
-61.500015
  0
LINE
  8
0
 10
-155.747131
 20
-67.000015
 11
-78.747131
 21
-67.000015
  0
LINE
  8
0
 10
-115.247131
 20
-57.500015
 11
-115.247131
 21
-55.000015
  0
LINE
  8
0
 10
-119.247131
 20
-57.500015
 11
-119.247131
 21
-55.000015
  0
LINE
  8
0
 10
-115.247131
 20
-55.000015
 11
-79.247131
 21
-55.000015
  0
LINE
  8
0
  6
CENTER
 10
-187.247131
 20
-80.000015
 11
52.752869
 21
-80.000015
  0
LINE
  8
0
 10
-182.247131
 20
-93.500015
 11
-182.247131
 21
-66.500015
  0
LINE
  8
0
 10
-167.247131
 20
-66.500015
 11
-182.247131
 21
-66.500015
  0
LINE
  8
0
 10
-167.247131
 20
-93.500015
 11
-182.247131
 21
-93.500015
  0
LINE
  8
0
 10
-178.747131
 20
-93.500015
 11
-178.747131
 21
-84.500015
  0
LINE
  8
0
 10
-178.747131
 20
-84.500015
 11
-182.247131
 21
-84.500015
  0
LINE
  8
0
  6
CENTER
 10
-175.747131
 20
-89.000015
 11
-185.247131
 21
-89.000015
  0
LINE
  8
0
 10
-179.347137
 20
-92.750015
 11
-179.347137
 21
-85.250015
  0
LINE
  8
0
 10
-179.678879
 20
-92.175407
 11
-182.247131
 21
-92.175407
  0
LINE
  8
0
 10
-179.678879
 20
-90.587700
 11
-182.247131
 21
-90.587700
  0
LINE
  8
0
 10
-179.678879
 20
-87.412285
 11
-182.247131
 21
-87.412285
  0
LINE
  8
0
 10
-179.678879
 20
-85.824600
 11
-182.247131
 21
-85.824600
  0
LINE
  8
0
 10
-178.747131
 20
-66.500015
 11
-178.747131
 21
-75.500015
  0
LINE
  8
0
 10
-178.747131
 20
-75.500015
 11
-182.247131
 21
-75.500015
  0
LINE
  8
0
  6
CENTER
 10
-175.747131
 20
-71.000015
 11
-185.247131
 21
-71.000015
  0
LINE
  8
0
 10
-179.678879
 20
-67.824623
 11
-182.247131
 21
-67.824623
  0
LINE
  8
0
 10
-179.678879
 20
-69.412331
 11
-182.247131
 21
-69.412331
  0
LINE
  8
0
 10
-179.678879
 20
-72.587746
 11
-182.247131
 21
-72.587746
  0
LINE
  8
0
 10
-179.678879
 20
-74.175430
 11
-182.247131
 21
-74.175430
  0
LINE
  8
0
  6
CENTER
 10
-176.747131
 20
-76.000015
 11
-176.747131
 21
-84.000015
  0
LINE
  8
0
 10
-175.497101
 20
-80.721695
 11
-176.747116
 21
-81.443390
  0
LINE
  8
0
 10
-176.747070
 20
-81.443329
 11
-177.997070
 21
-80.721642
  0
LINE
  8
0
 10
-177.997131
 20
-80.721703
 11
-177.997131
 21
-79.278328
  0
LINE
  8
0
 10
-177.997086
 20
-79.278313
 11
-176.747101
 21
-78.556633
  0
LINE
  8
0
 10
-176.747070
 20
-78.556557
 11
-175.497070
 21
-79.278252
  0
LINE
  8
0
 10
-175.497131
 20
-79.278320
 11
-175.497131
 21
-80.721695
  0
LINE
  8
0
  6
CENTER
 10
-170.247131
 20
-73.500015
 11
-170.247131
 21
-78.500015
  0
LINE
  8
0
  6
CENTER
 10
-167.747131
 20
-76.000015
 11
-172.747131
 21
-76.000015
  0
LINE
  8
0
 10
-169.420029
 20
-77.251366
 11
-171.498489
 21
-75.172905
  0
LINE
  8
0
 10
-168.995743
 20
-76.827095
 11
-171.074203
 21
-74.748634
  0
LINE
  8
0
 10
47.752869
 20
-93.500015
 11
47.752869
 21
-66.500015
  0
LINE
  8
0
 10
32.752869
 20
-66.500015
 11
47.752869
 21
-66.500015
  0
LINE
  8
0
 10
32.752869
 20
-93.500015
 11
47.752869
 21
-93.500015
  0
LINE
  8
0
  6
CENTER
 10
42.252869
 20
-76.000015
 11
42.252869
 21
-84.000015
  0
LINE
  8
0
 10
41.002846
 20
-80.721710
 11
42.252857
 21
-81.443405
  0
LINE
  8
0
 10
42.252892
 20
-81.443413
 11
43.502892
 21
-80.721725
  0
LINE
  8
0
 10
43.502869
 20
-80.721703
 11
43.502869
 21
-79.278328
  0
LINE
  8
0
 10
43.502865
 20
-79.278328
 11
42.252869
 21
-78.556641
  0
LINE
  8
0
 10
42.252911
 20
-78.556679
 11
41.002911
 21
-79.278366
  0
LINE
  8
0
 10
41.002869
 20
-79.278320
 11
41.002869
 21
-80.721695
  0
LINE
  8
0
  6
CENTER
 10
35.752869
 20
-73.500015
 11
35.752869
 21
-78.500015
  0
LINE
  8
0
  6
CENTER
 10
33.252869
 20
-76.000015
 11
38.252869
 21
-76.000015
  0
LINE
  8
0
 10
34.925777
 20
-77.251389
 11
37.004242
 21
-75.172928
  0
LINE
  8
0
 10
34.501514
 20
-76.827148
 11
36.579979
 21
-74.748688
  0
LINE
  8
0
 10
32.752869
 20
-95.000015
 11
32.752869
 21
-66.500015
  0
LINE
  8
0
 10
-167.247131
 20
-95.000015
 11
-167.247131
 21
-66.500015
  0
LINE
  8
0
  6
CENTER
 10
-17.247131
 20
-100.000015
 11
-17.247131
 21
-63.000015
  0
LINE
  8
0
 10
-118.747131
 20
-58.000015
 11
-115.747131
 21
-58.000015
  0
LINE
  8
0
 10
-178.747131
 20
-92.750015
 11
-179.347137
 21
-92.750015
  0
LINE
  8
0
 10
-178.747131
 20
-85.250015
 11
-179.347137
 21
-85.250015
  0
LINE
  8
0
 10
-179.347137
 20
-92.750008
 11
-179.678879
 21
-92.175400
  0
LINE
  8
0
 10
-179.347137
 20
-85.250015
 11
-179.678879
 21
-85.824608
  0
LINE
  8
0
 10
-179.678879
 20
-85.824600
 11
-179.678879
 21
-92.175407
  0
LINE
  8
0
 10
-178.747131
 20
-74.750015
 11
-179.347137
 21
-74.750015
  0
LINE
  8
0
 10
-179.347137
 20
-67.250015
 11
-179.347137
 21
-74.750015
  0
LINE
  8
0
 10
-179.347137
 20
-74.750023
 11
-179.678879
 21
-74.175438
  0
LINE
  8
0
 10
-179.678879
 20
-74.175430
 11
-179.678879
 21
-67.824623
  0
LINE
  8
0
 10
-179.347153
 20
-67.250015
 11
-179.678894
 21
-67.824623
  0
LINE
  8
0
 10
-178.747131
 20
-67.250015
 11
-179.347137
 21
-67.250015
  0
LINE
  8
0
 10
44.252869
 20
-67.250015
 11
44.852875
 21
-67.250015
  0
LINE
  8
0
 10
45.184601
 20
-74.175430
 11
45.184601
 21
-67.824623
  0
LINE
  8
0
 10
44.852879
 20
-67.250015
 11
45.184639
 21
-67.824631
  0
LINE
  8
0
 10
44.852875
 20
-67.250015
 11
44.852875
 21
-74.750015
  0
LINE
  8
0
 10
44.252869
 20
-93.500015
 11
44.252869
 21
-84.500015
  0
LINE
  8
0
 10
44.252869
 20
-84.500015
 11
47.752869
 21
-84.500015
  0
LINE
  8
0
  6
CENTER
 10
41.252869
 20
-89.000015
 11
50.752869
 21
-89.000015
  0
LINE
  8
0
 10
44.852875
 20
-92.750015
 11
44.852875
 21
-85.250015
  0
LINE
  8
0
 10
45.184601
 20
-92.175407
 11
47.752869
 21
-92.175407
  0
LINE
  8
0
 10
45.184601
 20
-90.587700
 11
47.752869
 21
-90.587700
  0
LINE
  8
0
 10
45.184601
 20
-87.412285
 11
47.752869
 21
-87.412285
  0
LINE
  8
0
 10
45.184601
 20
-85.824600
 11
47.752869
 21
-85.824600
  0
LINE
  8
0
 10
44.252869
 20
-66.500015
 11
44.252869
 21
-75.500015
  0
LINE
  8
0
 10
44.252869
 20
-75.500015
 11
47.752869
 21
-75.500015
  0
LINE
  8
0
  6
CENTER
 10
41.252869
 20
-71.000015
 11
50.752869
 21
-71.000015
  0
LINE
  8
0
 10
45.184601
 20
-67.824623
 11
47.752869
 21
-67.824623
  0
LINE
  8
0
 10
45.184601
 20
-69.412331
 11
47.752869
 21
-69.412331
  0
LINE
  8
0
 10
45.184601
 20
-72.587746
 11
47.752869
 21
-72.587746
  0
LINE
  8
0
 10
45.184601
 20
-74.175430
 11
47.752869
 21
-74.175430
  0
LINE
  8
0
 10
44.852882
 20
-74.750031
 11
45.184608
 21
-74.175446
  0
LINE
  8
0
 10
44.252869
 20
-92.750015
 11
44.852875
 21
-92.750015
  0
LINE
  8
0
 10
44.252869
 20
-85.250015
 11
44.852875
 21
-85.250015
  0
LINE
  8
0
 10
44.852882
 20
-92.750008
 11
45.184639
 21
-92.175400
  0
LINE
  8
0
 10
44.852882
 20
-85.250023
 11
45.184608
 21
-85.824600
  0
LINE
  8
0
 10
45.184601
 20
-85.824600
 11
45.184601
 21
-92.175407
  0
LINE
  8
0
 10
44.252869
 20
-74.750015
 11
44.852875
 21
-74.750015
  0
LINE
  8
0
  6
CENTER
 10
-187.247147
 20
39.999950
 11
52.752853
 21
39.999950
  0
LINE
  8
0
 10
47.752853
 20
26.499950
 11
47.752853
 21
53.499950
  0
LINE
  8
0
 10
32.752853
 20
26.499950
 11
32.752853
 21
53.499950
  0
LINE
  8
0
 10
32.752853
 20
53.499950
 11
47.752853
 21
53.499950
  0
LINE
  8
0
 10
32.752853
 20
26.499950
 11
47.752853
 21
26.499950
  0
LINE
  8
0
 10
-182.247147
 20
26.499950
 11
-182.247147
 21
53.499950
  0
LINE
  8
0
 10
-167.247147
 20
26.499950
 11
-167.247147
 21
53.499950
  0
LINE
  8
0
 10
-167.247147
 20
53.499950
 11
-182.247147
 21
53.499950
  0
LINE
  8
0
 10
-167.247147
 20
26.499950
 11
-182.247147
 21
26.499950
  0
LINE
  8
0
 10
-178.747147
 20
26.499950
 11
-178.747147
 21
35.499950
  0
LINE
  8
0
 10
-178.747147
 20
35.499950
 11
-182.247147
 21
35.499950
  0
LINE
  8
0
  6
CENTER
 10
-175.747147
 20
30.999950
 11
-185.247147
 21
30.999950
  0
LINE
  8
0
 10
-179.347153
 20
27.249950
 11
-179.347153
 21
34.749950
  0
LINE
  8
0
 10
-178.747147
 20
53.499950
 11
-178.747147
 21
44.499950
  0
LINE
  8
0
 10
-178.747147
 20
44.499950
 11
-182.247147
 21
44.499950
  0
LINE
  8
0
  6
CENTER
 10
-175.747147
 20
48.999950
 11
-185.247147
 21
48.999950
  0
LINE
  8
0
 10
-167.247147
 20
27.999950
 11
32.752853
 21
27.999950
  0
LINE
  8
0
 10
-167.247147
 20
51.999950
 11
32.752853
 21
51.999950
  0
LINE
  8
0
 10
-155.247147
 20
48.999950
 11
-155.247147
 21
30.999950
  0
LINE
  8
0
 10
-79.247147
 20
48.999950
 11
-79.247147
 21
30.999950
  0
LINE
  8
0
 10
-119.247147
 20
48.999950
 11
-119.247147
 21
44.999950
  0
LINE
  8
0
 10
-115.247147
 20
48.999950
 11
-115.247147
 21
44.999950
  0
LINE
  8
0
 10
-155.247147
 20
30.999950
 11
-79.247147
 21
30.999950
  0
LINE
  8
0
 10
-155.247147
 20
48.999950
 11
-79.247147
 21
48.999950
  0
LINE
  8
0
 10
-119.247147
 20
34.999950
 11
-119.247147
 21
30.999950
  0
LINE
  8
0
 10
-115.247147
 20
34.999950
 11
-115.247147
 21
30.999950
  0
LINE
  8
0
 10
-120.747147
 20
44.999950
 11
-120.747147
 21
34.999950
  0
LINE
  8
0
 10
-113.747147
 20
44.999950
 11
-113.747147
 21
34.999950
  0
LINE
  8
0
 10
-120.747147
 20
44.999950
 11
-113.747147
 21
44.999950
  0
LINE
  8
0
 10
-120.747147
 20
34.999950
 11
-113.747147
 21
34.999950
  0
LINE
  8
0
  6
CENTER
 10
-117.247147
 20
56.999950
 11
-117.247147
 21
22.999950
  0
LINE
  8
0
  6
CENTER
 10
-143.247147
 20
42.999950
 11
-143.247147
 21
36.999950
  0
LINE
  8
0
  6
CENTER
 10
-91.247147
 20
42.999950
 11
-91.247147
 21
36.999950
  0
LINE
  8
0
 10
-156.247147
 20
47.999950
 11
-156.247147
 21
31.999950
  0
LINE
  8
0
 10
-78.247147
 20
47.999950
 11
-78.247147
 21
31.999950
  0
LINE
  8
0
  6
CENTER
 10
-17.247147
 20
56.999950
 11
-17.247147
 21
22.999950
  0
LINE
  8
0
 10
-167.247147
 20
35.299950
 11
-156.247147
 21
35.299950
  0
LINE
  8
0
 10
-167.247147
 20
44.699951
 11
-156.247147
 21
44.699951
  0
LINE
  8
0
 10
-78.247147
 20
44.699951
 11
32.752853
 21
44.699951
  0
LINE
  8
0
 10
-78.247147
 20
35.299950
 11
32.752853
 21
35.299950
  0
LINE
  8
0
 10
-179.678848
 20
28.249950
 11
-182.247147
 21
28.249950
  0
LINE
  8
0
 10
-179.678848
 20
33.749950
 11
-182.247147
 21
33.749950
  0
LINE
  8
0
 10
-179.678848
 20
30.999950
 11
-182.247147
 21
30.999950
  0
LINE
  8
0
 10
-179.678848
 20
46.249950
 11
-182.247147
 21
46.249950
  0
LINE
  8
0
 10
-179.678848
 20
48.999950
 11
-182.247147
 21
48.999950
  0
LINE
  8
0
 10
-179.678848
 20
51.749950
 11
-182.247147
 21
51.749950
  0
LINE
  8
0
 10
-178.747147
 20
27.249950
 11
-179.347153
 21
27.249950
  0
LINE
  8
0
 10
-178.747147
 20
34.749950
 11
-179.347153
 21
34.749950
  0
LINE
  8
0
 10
-179.678848
 20
27.824461
 11
-179.678848
 21
34.175438
  0
LINE
  8
0
 10
-179.347137
 20
27.249950
 11
-179.678833
 21
27.824463
  0
LINE
  8
0
 10
-179.347122
 20
34.749947
 11
-179.678818
 21
34.175438
  0
LINE
  8
0
 10
-178.747147
 20
45.249950
 11
-179.347153
 21
45.249950
  0
LINE
  8
0
 10
-179.347137
 20
45.249947
 11
-179.678833
 21
45.824463
  0
LINE
  8
0
 10
-179.347153
 20
52.749950
 11
-179.347153
 21
45.249950
  0
LINE
  8
0
 10
-179.678848
 20
52.175438
 11
-179.678848
 21
45.824463
  0
LINE
  8
0
 10
-179.347137
 20
52.749947
 11
-179.678833
 21
52.175434
  0
LINE
  8
0
 10
-178.747147
 20
52.749950
 11
-179.347153
 21
52.749950
  0
LINE
  8
0
 10
45.184555
 20
52.175438
 11
45.184555
 21
45.824463
  0
LINE
  8
0
 10
44.852840
 20
52.749931
 11
45.184536
 21
52.175419
  0
LINE
  8
0
 10
44.252853
 20
52.749950
 11
44.852859
 21
52.749950
  0
LINE
  8
0
 10
44.852859
 20
52.749950
 11
44.852859
 21
45.249950
  0
LINE
  8
0
 10
44.252853
 20
26.499950
 11
44.252853
 21
35.499950
  0
LINE
  8
0
 10
44.252853
 20
35.499950
 11
47.752853
 21
35.499950
  0
LINE
  8
0
  6
CENTER
 10
41.252853
 20
30.999950
 11
50.752853
 21
30.999950
  0
LINE
  8
0
 10
44.852859
 20
27.249950
 11
44.852859
 21
34.749950
  0
LINE
  8
0
 10
44.252853
 20
53.499950
 11
44.252853
 21
44.499950
  0
LINE
  8
0
 10
44.252853
 20
44.499950
 11
47.752853
 21
44.499950
  0
LINE
  8
0
  6
CENTER
 10
41.252853
 20
48.999950
 11
50.752853
 21
48.999950
  0
LINE
  8
0
 10
45.184555
 20
28.249950
 11
47.752853
 21
28.249950
  0
LINE
  8
0
 10
45.184555
 20
33.749950
 11
47.752853
 21
33.749950
  0
LINE
  8
0
 10
45.184555
 20
30.999950
 11
47.752853
 21
30.999950
  0
LINE
  8
0
 10
45.184555
 20
46.249950
 11
47.752853
 21
46.249950
  0
LINE
  8
0
 10
45.184555
 20
48.999950
 11
47.752853
 21
48.999950
  0
LINE
  8
0
 10
45.184555
 20
51.749950
 11
47.752853
 21
51.749950
  0
LINE
  8
0
 10
44.252853
 20
27.249950
 11
44.852859
 21
27.249950
  0
LINE
  8
0
 10
44.252853
 20
34.749950
 11
44.852859
 21
34.749950
  0
LINE
  8
0
 10
45.184555
 20
27.824461
 11
45.184555
 21
34.175438
  0
LINE
  8
0
 10
44.852840
 20
27.249960
 11
45.184536
 21
27.824472
  0
LINE
  8
0
 10
44.852844
 20
34.749947
 11
45.184536
 21
34.175442
  0
LINE
  8
0
 10
44.252853
 20
45.249950
 11
44.852859
 21
45.249950
  0
LINE
  8
0
 10
44.852840
 20
45.249950
 11
45.184540
 21
45.824463
  0
LINE
  8
0
  6
CENTER
 10
157.752777
 20
-100.000053
 11
157.752777
 21
-50.000053
  0
LINE
  8
0
  6
CENTER
 10
139.252777
 20
-80.000053
 11
176.252777
 21
-80.000053
  0
LINE
  8
0
 10
171.252777
 20
-89.000053
 11
171.252777
 21
-71.000053
  0
LINE
  8
0
 10
144.252777
 20
-89.000053
 11
144.252777
 21
-71.000053
  0
LINE
  8
0
 10
148.752777
 20
-93.500053
 11
153.152054
 21
-93.500053
  0
LINE
  8
0
 10
148.752777
 20
-66.500053
 11
166.752777
 21
-66.500053
  0
LINE
  8
0
  6
CENTER
 10
148.752777
 20
-65.500053
 11
148.752777
 21
-76.500053
  0
LINE
  8
0
  6
CENTER
 10
143.252777
 20
-71.000053
 11
154.252777
 21
-71.000053
  0
LINE
  8
0
 10
146.002808
 20
-72.587753
 11
148.752808
 21
-74.175468
  0
LINE
  8
0
 10
148.752777
 20
-74.175491
 11
151.502777
 21
-72.587776
  0
LINE
  8
0
 10
151.502762
 20
-72.587761
 11
151.502762
 21
-69.412338
  0
LINE
  8
0
 10
151.502792
 20
-69.412361
 11
148.752777
 21
-67.824646
  0
LINE
  8
0
 10
148.752792
 20
-67.824692
 11
146.002792
 21
-69.412407
  0
LINE
  8
0
 10
146.002808
 20
-69.412354
 11
146.002808
 21
-72.587784
  0
LINE
  8
0
  6
CENTER
 10
166.752777
 20
-65.500053
 11
166.752777
 21
-76.500053
  0
LINE
  8
0
  6
CENTER
 10
172.252777
 20
-71.000053
 11
161.252777
 21
-71.000053
  0
LINE
  8
0
 10
169.502762
 20
-72.587753
 11
166.752747
 21
-74.175468
  0
LINE
  8
0
 10
166.752777
 20
-74.175484
 11
164.002762
 21
-72.587769
  0
LINE
  8
0
 10
164.002792
 20
-72.587761
 11
164.002792
 21
-69.412338
  0
LINE
  8
0
 10
164.002808
 20
-69.412399
 11
166.752823
 21
-67.824677
  0
LINE
  8
0
 10
166.752762
 20
-67.824646
 11
169.502777
 21
-69.412369
  0
LINE
  8
0
 10
169.502747
 20
-69.412354
 11
169.502747
 21
-72.587784
  0
LINE
  8
0
  6
CENTER
 10
148.752777
 20
-94.500053
 11
148.752777
 21
-83.500053
  0
LINE
  8
0
  6
CENTER
 10
143.252777
 20
-89.000053
 11
154.252777
 21
-89.000053
  0
LINE
  8
0
 10
146.002808
 20
-87.412338
 11
148.752808
 21
-85.824623
  0
LINE
  8
0
 10
148.752777
 20
-85.824631
 11
151.502792
 21
-87.412346
  0
LINE
  8
0
 10
151.502762
 20
-87.412346
 11
151.502762
 21
-90.587769
  0
LINE
  8
0
 10
151.502838
 20
-90.587814
 11
148.752808
 21
-92.175529
  0
LINE
  8
0
 10
148.752777
 20
-92.175446
 11
146.002792
 21
-90.587738
  0
LINE
  8
0
 10
146.002808
 20
-90.587753
 11
146.002808
 21
-87.412323
  0
LINE
  8
0
  6
CENTER
 10
166.752777
 20
-94.500053
 11
166.752777
 21
-83.500053
  0
LINE
  8
0
  6
CENTER
 10
172.252777
 20
-89.000053
 11
161.252777
 21
-89.000053
  0
LINE
  8
0
 10
169.502716
 20
-87.412346
 11
166.752731
 21
-85.824631
  0
LINE
  8
0
 10
166.752762
 20
-85.824623
 11
164.002762
 21
-87.412331
  0
LINE
  8
0
 10
164.002792
 20
-87.412346
 11
164.002792
 21
-90.587769
  0
LINE
  8
0
 10
164.002808
 20
-90.587761
 11
166.752823
 21
-92.175476
  0
LINE
  8
0
 10
166.752792
 20
-92.175438
 11
169.502777
 21
-90.587723
  0
LINE
  8
0
 10
169.502747
 20
-90.587753
 11
169.502747
 21
-87.412323
  0
LINE
  8
0
 10
162.252777
 20
-93.285393
 11
162.252777
 21
-89.000053
  0
LINE
  8
0
 10
153.252777
 20
-71.000053
 11
153.252777
 21
-66.500053
  0
LINE
  8
0
 10
144.252777
 20
-84.500053
 11
148.752777
 21
-84.500053
  0
LINE
  8
0
 10
144.252777
 20
-75.500053
 11
148.752777
 21
-75.500053
  0
LINE
  8
0
 10
153.252777
 20
-89.000053
 11
153.252777
 21
-93.285393
  0
LINE
  8
0
 10
162.252777
 20
-71.000053
 11
162.252777
 21
-66.500053
  0
LINE
  8
0
 10
166.752777
 20
-84.500053
 11
171.252777
 21
-84.500053
  0
LINE
  8
0
 10
166.752777
 20
-75.500053
 11
171.252777
 21
-75.500053
  0
LINE
  8
0
  6
CENTER
 10
150.752777
 20
-76.000053
 11
150.752777
 21
-84.000053
  0
LINE
  8
0
  6
CENTER
 10
164.752777
 20
-76.000053
 11
164.752777
 21
-84.000053
  0
LINE
  8
0
 10
151.752777
 20
-95.000053
 11
156.052780
 21
-95.000053
  0
LINE
  8
0
 10
151.752777
 20
-95.000053
 11
151.752777
 21
-93.500053
  0
LINE
  8
0
 10
163.752777
 20
-95.000053
 11
163.752777
 21
-93.500053
  0
LINE
  8
0
 10
156.052780
 20
-95.000053
 11
156.052780
 21
-94.000053
  0
LINE
  8
0
 10
159.452774
 20
-95.000053
 11
159.452774
 21
-94.000053
  0
LINE
  8
0
 10
159.452774
 20
-95.000053
 11
163.752777
 21
-95.000053
  0
LINE
  8
0
 10
154.752777
 20
-94.000053
 11
156.052780
 21
-94.000053
  0
LINE
  8
0
 10
155.752777
 20
-91.500053
 11
159.752777
 21
-91.500053
  0
LINE
  8
0
 10
154.752777
 20
-94.000053
 11
154.752777
 21
-92.500053
  0
LINE
  8
0
 10
160.752777
 20
-94.000053
 11
160.752777
 21
-92.500053
  0
LINE
  8
0
 10
159.452774
 20
-94.000053
 11
160.752777
 21
-94.000053
  0
LINE
  8
0
 10
162.353500
 20
-93.500053
 11
166.752777
 21
-93.500053
  0
LINE
  8
0
 10
154.752777
 20
-92.500053
 11
155.752777
 21
-91.500053
  0
LINE
  8
0
 10
159.752777
 20
-91.500053
 11
160.752777
 21
-92.500061
  0
LINE
  8
0
 10
148.752777
 20
-55.000053
 11
166.752777
 21
-55.000053
  0
LINE
  8
0
 10
166.752777
 20
-66.500053
 11
166.752777
 21
-55.000053
  0
LINE
  8
0
 10
148.752777
 20
-66.500053
 11
148.752777
 21
-55.000053
  0
LINE
  8
0
  6
CENTER
 10
145.752777
 20
-58.000053
 11
169.752777
 21
-58.000053
  0
LINE
  8
0
 10
-117.247131
 20
-100.000015
 11
-117.247131
 21
-122.500046
  0
LINE
  8
0
 10
-17.247131
 20
-100.000015
 11
-17.247131
 21
-122.500046
  0
LINE
  8
0
 10
-117.247223
 20
-120.000046
 11
-17.247131
 21
-120.000046
  0
LINE
  8
0
 10
-117.247215
 20
-120.000038
 11
-113.383514
 21
-118.964760
  0
LINE
  8
0
 10
-21.110834
 20
-121.035316
 11
-17.247129
 21
-120.000046
  0
LINE
  8
0
 10
-117.247215
 20
-120.000046
 11
-113.383514
 21
-121.035324
  0
LINE
  8
0
 10
-21.110834
 20
-118.964767
 11
-17.247131
 21
-120.000046
  0
LINE
  8
0
 10
41.002769
 20
-77.834969
 11
22.911551
 21
-46.500046
  0
LINE
  8
0
 10
41.002769
 20
-77.834976
 11
39.967495
 21
-73.971268
  0
LINE
  8
0
 10
41.002766
 20
-77.834969
 11
38.174339
 21
-75.006538
  0
LINE
  8
0
 10
-19.833334
 20
-46.500046
 11
22.911551
 21
-46.500046
  0
LINE
  8
0
 10
-142.497162
 20
41.298962
 11
-123.905930
 21
73.499924
  0
LINE
  8
0
 10
-142.497162
 20
41.298962
 11
-141.461884
 21
45.162663
  0
LINE
  8
0
 10
-142.497162
 20
41.298965
 11
-139.668747
 21
44.127392
  0
LINE
  8
0
 10
-123.905930
 20
73.499924
 11
-81.833336
 21
73.499924
  0
ARC
  8
0
 62
     5
 10
193.065201
 20
-166.202393
 40
1.564041
 50
0.000000
 51
90.000000
  0
ARC
  8
0
 62
     5
 10
205.968597
 20
-174.609177
 40
1.564041
 50
270.000000
 51
0.000000
  0
ARC
  8
0
 62
     5
 10
205.186523
 20
-166.984390
 40
2.346069
 50
0.000000
 51
90.000000
  0
ARC
  8
0
 62
     5
 10
219.458466
 20
-166.202393
 40
1.564041
 50
0.000000
 51
90.000000
  0
ARC
  8
0
 62
     5
 10
219.458466
 20
-167.451935
 40
1.564050
 50
294.999969
 51
0.000000
  0
ARC
  8
0
 62
     5
 10
231.579834
 20
-164.638336
 40
2.346074
 50
291.688202
 51
0.000000
  0
ARC
  8
0
 62
     5
 10
230.797760
 20
-164.107742
 40
0.782030
 50
291.688049
 51
0.000000
  0
ARC
  8
0
 10
-115.747131
 20
-57.500015
 40
0.500000
 50
270.000000
 51
0.000000
  0
CIRCLE
  8
0
 10
42.252869
 20
-80.000015
 40
2.067000
  0
CIRCLE
  8
0
 10
35.752869
 20
-76.000015
 40
1.500000
  0
CIRCLE
  8
0
 10
42.252869
 20
-80.000015
 40
2.500000
  0
ARC
  8
0
 10
-118.747131
 20
-57.500015
 40
0.500000
 50
180.000000
 51
270.000000
  0
ARC
  8
0
 10
36.462585
 20
-145.935669
 40
57.056377
 50
93.727936
 51
116.782326
  0
CIRCLE
  8
0
 10
-133.247131
 20
-58.000015
 40
1.700000
  0
CIRCLE
  8
0
 10
-101.247131
 20
-58.000015
 40
1.700000
  0
ARC
  8
0
 10
-155.747131
 20
-67.500015
 40
0.500000
 50
90.000000
 51
270.000000
  0
ARC
  8
0
 10
-78.747131
 20
-67.500015
 40
0.500000
 50
270.000000
 51
90.000000
  0
CIRCLE
  8
0
 10
-170.247131
 20
-76.000015
 40
1.500000
  0
CIRCLE
  8
0
 10
-176.747131
 20
-80.000015
 40
2.500000
  0
CIRCLE
  8
0
 10
-176.747131
 20
-80.000015
 40
2.067000
  0
ARC
  8
0
 10
-155.247147
 20
31.999950
 40
1.000000
 50
180.000000
 51
270.000000
  0
ARC
  8
0
 10
-155.247147
 20
47.999950
 40
1.000000
 50
90.000000
 51
180.000000
  0
ARC
  8
0
 10
-79.247147
 20
47.999950
 40
1.000000
 50
0.000000
 51
90.000000
  0
ARC
  8
0
 10
-79.247147
 20
31.999950
 40
1.000000
 50
270.000000
 51
0.000000
  0
CIRCLE
  8
0
 10
-143.247147
 20
39.999950
 40
1.500000
  0
CIRCLE
  8
0
 10
-143.247147
 20
39.999950
 40
1.229500
  0
CIRCLE
  8
0
 10
-91.247147
 20
39.999950
 40
1.500000
  0
CIRCLE
  8
0
 10
-91.247147
 20
39.999950
 40
1.229500
  0
CIRCLE
  8
0
 10
164.752777
 20
-80.000053
 40
2.500000
  0
CIRCLE
  8
0
 10
164.752777
 20
-80.000053
 40
2.067000
  0
ARC
  8
0
 10
157.752777
 20
-95.527832
 40
5.027778
 50
6.025585
 51
173.974411
  0
ARC
  8
0
 10
148.752777
 20
-71.000053
 40
4.500000
 50
90.000000
 51
180.000000
  0
ARC
  8
0
 10
166.752777
 20
-71.000053
 40
4.500000
 50
0.000000
 51
90.000000
  0
ARC
  8
0
 10
148.752777
 20
-89.000053
 40
4.500000
 50
180.000000
 51
270.000000
  0
ARC
  8
0
 10
166.752777
 20
-89.000053
 40
4.500000
 50
270.000000
 51
0.000000
  0
CIRCLE
  8
0
 10
148.752777
 20
-71.000053
 40
2.750000
  0
CIRCLE
  8
0
 10
148.752777
 20
-71.000053
 40
1.500000
  0
CIRCLE
  8
0
 10
148.752777
 20
-71.000053
 40
1.229500
  0
CIRCLE
  8
0
 10
166.752777
 20
-71.000053
 40
1.229500
  0
CIRCLE
  8
0
 10
166.752777
 20
-71.000053
 40
2.750000
  0
CIRCLE
  8
0
 10
166.752777
 20
-71.000053
 40
1.500000
  0
CIRCLE
  8
0
 10
148.752777
 20
-89.000053
 40
1.229500
  0
CIRCLE
  8
0
 10
148.752777
 20
-89.000053
 40
2.750000
  0
CIRCLE
  8
0
 10
148.752777
 20
-89.000053
 40
1.500000
  0
CIRCLE
  8
0
 10
166.752777
 20
-89.000053
 40
1.229500
  0
CIRCLE
  8
0
 10
166.752777
 20
-89.000053
 40
2.750000
  0
CIRCLE
  8
0
 10
166.752777
 20
-89.000053
 40
1.500000
  0
ARC
  8
0
 10
148.752777
 20
-71.000053
 40
4.500000
 50
270.000000
 51
0.000000
  0
ARC
  8
0
 10
166.752777
 20
-71.000053
 40
4.500000
 50
180.000000
 51
270.000000
  0
ARC
  8
0
 10
166.752777
 20
-89.000053
 40
4.500000
 50
90.000000
 51
180.000000
  0
ARC
  8
0
 10
148.752777
 20
-89.000053
 40
4.500000
 50
0.000000
 51
90.000000
  0
CIRCLE
  8
0
 10
150.752777
 20
-80.000053
 40
2.500000
  0
CIRCLE
  8
0
 10
150.752777
 20
-80.000053
 40
2.067000
  0
CIRCLE
  8
0
 10
148.752777
 20
-89.000053
 40
3.750000
  0
CIRCLE
  8
0
 10
166.752777
 20
-89.000053
 40
3.750000
  0
CIRCLE
  8
0
 10
148.752777
 20
-71.000053
 40
3.750000
  0
CIRCLE
  8
0
 10
166.752777
 20
-71.000053
 40
3.750000
  0
TEXT
  8
0
 10
160.213089
 20
165.487701
 40
6.000000
  1
DATE : SEP ,1991
 50
0.000000
 41
1.052631
 51
0.000000
  7
STANDARD
  0
TEXT
  8
0
 10
-259.882782
 20
164.587692
 40
7.000000
  1
RODLESS CYLINDER
 50
0.000000
 41
0.956938
 51
0.000000
  7
STANDARD
  0
TEXT
  8
0
 10
-246.497223
 20
134.475296
 40
7.000000
  1
MODEL : ORCA 16xSt(100)
 50
0.000000
 41
1.052632
 51
0.000000
  7
STANDARD
  0
TEXT
  8
0
 10
-82.711510
 20
-118.500046
 40
5.000000
  1
STROKE
 50
0.000000
 41
1.052632
 51
0.000000
  7
STANDARD
  0
TEXT
  8
0
 10
-19.052734
 20
-46.500042
 40
5.000000
  1
6-M5x0.8
 50
0.000000
 41
1.052632
 51
0.000000
  7
STANDARD
  0
TEXT
  8
0
 10
-123.870216
 20
73.499924
 40
5.000000
  1
2-M3x0.5
 50
0.000000
 41
1.052632
 51
0.000000
  7
STANDARD
  0
ENDSEC
  0
EOF
