  0
SECTION
  2
HEADER
  0
ENDSEC
  0
SECTION
  2
TABLES
  0
TABLE
  2
LTYPE
 70
     4
  0
LTYPE
  2
CONTINUOUS
 70
    64
  3
Solid line
 72
    65
 73
     0
 40
0.000000
  0
LTYPE
  2
DASHED
 70
    64
  3
__ __ __ __ __ __ __ __ __ __ __ __ __ __ __
 72
    65
 73
     2
 40
3.500000
 49
2.000000
 49
-1.500000
  0
LTYPE
  2
CENTER
 70
    64
  3
____ _ ____ _ ____ _ ____ _ ____ _ ____ _ ____
 72
    65
 73
     4
 40
17.500000
 49
13.000000
 49
-1.500000
 49
1.500000
 49
-1.500000
  0
LTYPE
  2
PHANTOM
 70
    64
  3
_____ _ _ _____ _ _ _____ _ _ _____ _ _ ____  
 72
    65
 73
     6
 40
15.500000
 49
8.000000
 49
-1.500000
 49
1.500000
 49
-1.500000
 49
1.500000
 49
-1.500000
  0
LTYPE
  2
DASHED1
 70
    64
  3
__ __ __ __ __ __ __ __ __ __ __ __ __ __ __
 72
    65
 73
     2
 40
1.500000
 49
1.000000
 49
-0.500000
  0
LTYPE
  2
DASHED2
 70
    64
  3
__ __ __ __ __ __ __ __ __ __ __ __ __ __ __
 72
    65
 73
     2
 40
3.500000
 49
2.500000
 49
-1.000000
  0
LTYPE
  2
DASHED3
 70
    64
  3
__ __ __ __ __ __ __ __ __ __ __ __ __ __ __
 72
    65
 73
     2
 40
6.000000
 49
4.000000
 49
-2.000000
  0
LTYPE
  2
DASHED4
 70
    64
  3
__ __ __ __ __ __ __ __ __ __ __ __ __ __ __
 72
    65
 73
     2
 40
12.000000
 49
10.000000
 49
-2.000000
  0
LTYPE
  2
DASHED5
 70
    64
  3
__ __ __ __ __ __ __ __ __ __ __ __ __ __ __
 72
    65
 73
     2
 40
17.000000
 49
15.000000
 49
-2.000000
  0
LTYPE
  2
DASHED6
 70
    64
  3
__ __ __ __ __ __ __ __ __ __ __ __ __ __ __
 72
    65
 73
     2
 40
29.000000
 49
27.000000
 49
-2.000000
  0
LTYPE
  2
PHANTOM1
 70
    64
  3
_____ _ _ _____ _ _ _____ _ _ _____ _ _ ____  
 72
    65
 73
     6
 40
31.000000
 49
25.000000
 49
-1.500000
 49
1.000000
 49
-1.000000
 49
1.000000
 49
-1.500000
  0
LTYPE
  2
PHANTOM2
 70
    64
  3
_____ _ _ _____ _ _ _____ _ _ _____ _ _ ____  
 72
    65
 73
     6
 40
36.000000
 49
27.000000
 49
-1.500000
 49
2.500000
 49
-1.000000
 49
2.500000
 49
-1.500000
  0
LTYPE
  2
PHANTOM3
 70
    64
  3
_____ _ _ _____ _ _ _____ _ _ _____ _ _ ____  
 72
    65
 73
     6
 40
78.000000
 49
64.000000
 49
-2.000000
 49
4.000000
 49
-2.000000
 49
4.000000
 49
-2.000000
  0
LTYPE
  2
CENTER1
 70
    64
  3
____ _ ____ _ ____ _ ____ _ ____ _ ____ _ ____
 72
    65
 73
     4
 40
19.000000
 49
14.000000
 49
-1.000000
 49
3.000000
 49
-1.000000
  0
LTYPE
  2
CENTER2
 70
    64
  3
____ _ ____ _ ____ _ ____ _ ____ _ ____ _ ____
 72
    65
 73
     4
 40
28.500000
 49
25.000000
 49
-1.000000
 49
1.500000
 49
-1.000000
  0
LTYPE
  2
CENTER3
 70
    64
  3
____ _ ____ _ ____ _ ____ _ ____ _ ____ _ ____
 72
    65
 73
     4
 40
31.500000
 49
27.000000
 49
-1.000000
 49
2.500000
 49
-1.000000
  0
LTYPE
  2
CENTER4
 70
    64
  3
____ _ ____ _ ____ _ ____ _ ____ _ ____ _ ____
 72
    65
 73
     4
 40
50.000000
 49
45.000000
 49
-1.000000
 49
3.000000
 49
-1.000000
  0
LTYPE
  2
CENTER5
 70
    64
  3
____ _ ____ _ ____ _ ____ _ ____ _ ____ _ ____
 72
    65
 73
     4
 40
100.000000
 49
92.000000
 49
-2.000000
 49
4.000000
 49
-2.000000
  0
LTYPE
  2
SBK1
 70
    64
  3
______ _ _ _ ______ _ _ _ ______ _ _ _ _____  
 72
    65
 73
     8
 40
60.500000
 49
45.000000
 49
-2.000000
 49
2.500000
 49
-2.000000
 49
2.500000
 49
-2.000000
 49
2.500000
 49
-2.000000
  0
LTYPE
  2
SBK2
 70
    64
  3
______ _ _ _ ______ _ _ _ ______ _ _ _ _____  
 72
    65
 73
     8
 40
84.000000
 49
64.000000
 49
-2.000000
 49
4.000000
 49
-2.000000
 49
4.000000
 49
-2.000000
 49
4.000000
 49
-2.000000
  0
LTYPE
  2
STCH
 70
    64
  3
__ __ __ __ __ __ __ __ __ __ __ __ __ __ __
 72
    65
 73
     2
 40
3.000000
 49
1.000000
 49
-2.000000
  0
LTYPE
  2
MTCH
 70
    64
  3
_____ _ _ _____ _ _ _____ _ _ _____ _ _ ____  
 72
    65
 73
     6
 40
80.000000
 49
66.000000
 49
-2.000000
 49
4.000000
 49
-2.000000
 49
4.000000
 49
-2.000000
  0
ENDTAB
  0
TABLE
  2
LAYER
 70
     1
  0
LAYER
  2
0
 70
     0
 62
     7
  6
CONTINUOUS
  0
ENDTAB
  0
TABLE
  2
STYLE
 70
     1
  0
STYLE
  2
STANDARD
 70
     0
 40
0.000000
 41
1.000000
 50
0.000000
 71
     0
 42
0.200000
  3
txt
  4
BIGFONT
  0
ENDTAB
  0
TABLE
  2
VIEW
 70
     0
  0
ENDTAB
  0
ENDSEC
  0
SECTION
  2
BLOCKS
  0
ENDSEC
  0
SECTION
  2
ENTITIES
  0
POINT
  8
0
 10
-270.873596
 20
65.441528
  0
POINT
  8
0
 10
-270.873566
 20
-104.558479
  0
POINT
  8
0
 10
89.126434
 20
-104.558479
  0
POINT
  8
0
 10
89.126404
 20
65.441528
  0
POINT
  8
0
 10
229.126434
 20
-104.558510
  0
POINT
  8
0
 10
246.126434
 20
-104.558510
  0
LINE
  8
0
 62
     3
 10
218.329163
 20
-225.956436
 11
370.873566
 21
-225.956436
  0
LINE
  8
0
 62
     3
 10
-218.329163
 20
225.956390
 11
-218.329163
 21
254.558487
  0
LINE
  8
0
 62
     3
 10
-370.873566
 20
225.956390
 11
-218.329163
 21
225.956390
  0
LINE
  8
0
 62
     3
 10
-370.873566
 20
254.558487
 11
370.873566
 21
254.558487
  0
LINE
  8
0
 62
     3
 10
-370.873566
 20
-254.558487
 11
370.873566
 21
-254.558487
  0
LINE
  8
0
 62
     3
 10
370.873566
 20
254.558487
 11
370.873566
 21
-254.558487
  0
LINE
  8
0
 62
     3
 10
-370.873566
 20
-254.558487
 11
-370.873566
 21
254.558487
  0
LINE
  8
0
 62
     3
 10
218.329163
 20
-225.956436
 11
218.329163
 21
-254.558487
  0
LINE
  8
0
 62
     3
 10
218.329163
 20
254.558487
 11
218.329163
 21
225.956390
  0
LINE
  8
0
 62
     3
 10
218.329163
 20
225.956390
 11
370.873566
 21
225.956390
  0
LINE
  8
0
 62
     5
 10
258.381622
 20
-232.833740
 11
258.381622
 21
-236.151566
  0
LINE
  8
0
 62
     5
 10
258.381622
 20
-236.151566
 11
270.823547
 21
-236.151566
  0
LINE
  8
0
 62
     5
 10
258.381622
 20
-249.146469
 11
275.247345
 21
-249.146469
  0
LINE
  8
0
 62
     5
 10
258.381622
 20
-245.828644
 11
270.823547
 21
-245.828644
  0
LINE
  8
0
 62
     5
 10
258.381622
 20
-232.833740
 11
273.035400
 21
-232.833740
  0
LINE
  8
0
 62
     5
 10
270.823547
 20
-236.151566
 11
270.823547
 21
-245.828644
  0
LINE
  8
0
 62
     5
 10
275.247345
 20
-235.045654
 11
275.247345
 21
-249.146469
  0
LINE
  8
0
 62
     5
 10
258.381622
 20
-245.828644
 11
258.381622
 21
-249.146469
  0
LINE
  8
0
 62
     5
 10
293.495392
 20
-236.151566
 11
293.495392
 21
-246.934647
  0
LINE
  8
0
 62
     5
 10
277.735657
 20
-232.833740
 11
277.735657
 21
-236.151566
  0
LINE
  8
0
 62
     5
 10
293.937836
 20
-232.584961
 11
295.513824
 21
-232.584961
  0
LINE
  8
0
 62
     5
 10
293.937836
 20
-230.373016
 11
295.513824
 21
-230.373016
  0
LINE
  8
0
 62
     5
 10
295.513824
 20
-230.373016
 11
295.513824
 21
-232.584961
  0
LINE
  8
0
 62
     5
 10
293.937836
 20
-230.373016
 11
293.937836
 21
-232.584961
  0
LINE
  8
0
 62
     5
 10
293.108276
 20
-230.373016
 11
293.108276
 21
-232.584961
  0
LINE
  8
0
 62
     5
 10
282.766052
 20
-230.373016
 11
286.200897
 21
-230.373016
  0
LINE
  8
0
 62
     5
 10
285.541260
 20
-232.833466
 11
286.200562
 21
-230.372711
  0
LINE
  8
0
 62
     5
 10
282.106689
 20
-232.833710
 11
282.766022
 21
-230.372986
  0
LINE
  8
0
 62
     5
 10
285.541565
 20
-232.833740
 11
290.177551
 21
-232.833740
  0
LINE
  8
0
 62
     5
 10
284.652557
 20
-236.151566
 11
289.071625
 21
-236.151566
  0
LINE
  8
0
 62
     5
 10
286.642853
 20
-249.146469
 11
291.283569
 21
-249.146469
  0
LINE
  8
0
 62
     5
 10
285.753693
 20
-245.828583
 11
286.642731
 21
-249.146347
  0
LINE
  8
0
 62
     5
 10
285.753754
 20
-245.828644
 11
289.071625
 21
-245.828644
  0
LINE
  8
0
 62
     5
 10
281.170746
 20
-249.146637
 11
284.652679
 21
-236.151733
  0
LINE
  8
0
 62
     5
 10
277.735657
 20
-236.151566
 11
281.217682
 21
-236.151566
  0
LINE
  8
0
 62
     5
 10
277.735413
 20
-249.146210
 11
281.217468
 21
-236.151337
  0
LINE
  8
0
 62
     5
 10
277.735657
 20
-249.146469
 11
281.170593
 21
-249.146469
  0
LINE
  8
0
 62
     5
 10
277.735657
 20
-232.833740
 11
282.106689
 21
-232.833740
  0
LINE
  8
0
 62
     5
 10
289.071625
 20
-236.151566
 11
289.071625
 21
-245.828644
  0
LINE
  8
0
 62
     5
 10
291.532288
 20
-230.373016
 11
293.108276
 21
-230.373016
  0
LINE
  8
0
 62
     5
 10
291.532288
 20
-232.584961
 11
293.108276
 21
-232.584961
  0
LINE
  8
0
 62
     5
 10
291.532288
 20
-230.373016
 11
291.532288
 21
-232.584961
  0
LINE
  8
0
 62
     5
 10
301.513550
 20
-230.373016
 11
305.937286
 21
-230.373016
  0
LINE
  8
0
 62
     5
 10
308.342316
 20
-240.195053
 11
311.296204
 21
-238.817642
  0
LINE
  8
0
 62
     5
 10
305.937286
 20
-242.734406
 11
305.937286
 21
-249.146469
  0
LINE
  8
0
 62
     5
 10
301.513550
 20
-243.379044
 11
301.513550
 21
-249.146469
  0
LINE
  8
0
 62
     5
 10
305.937286
 20
-232.833740
 11
310.361115
 21
-232.833740
  0
LINE
  8
0
 62
     5
 10
305.937286
 20
-230.373016
 11
305.937286
 21
-232.833740
  0
LINE
  8
0
 62
     5
 10
301.513550
 20
-230.373016
 11
301.513550
 21
-232.833740
  0
LINE
  8
0
 62
     5
 10
312.572998
 20
-235.045654
 11
312.572998
 21
-236.812775
  0
LINE
  8
0
 62
     5
 10
308.342377
 20
-240.195038
 11
312.573395
 21
-242.168030
  0
LINE
  8
0
 62
     5
 10
305.937256
 20
-242.734329
 11
312.573059
 21
-245.828613
  0
LINE
  8
0
 62
     5
 10
296.260284
 20
-242.167801
 11
296.260284
 21
-245.828644
  0
LINE
  8
0
 62
     5
 10
296.260742
 20
-242.168167
 11
309.162567
 21
-236.151932
  0
LINE
  8
0
 62
     5
 10
296.260254
 20
-245.828598
 11
301.513580
 21
-243.378937
  0
LINE
  8
0
 62
     5
 10
312.572998
 20
-242.167801
 11
312.572998
 21
-245.828644
  0
LINE
  8
0
 62
     5
 10
296.260284
 20
-232.833740
 11
296.260284
 21
-236.151566
  0
LINE
  8
0
 62
     5
 10
301.513550
 20
-249.146469
 11
305.937286
 21
-249.146469
  0
LINE
  8
0
 62
     5
 10
296.260284
 20
-236.151566
 11
309.162079
 21
-236.151566
  0
LINE
  8
0
 62
     5
 10
296.260284
 20
-232.833740
 11
301.513550
 21
-232.833740
  0
LINE
  8
0
 62
     5
 10
327.503998
 20
-236.404739
 11
328.730042
 21
-235.917068
  0
LINE
  8
0
 62
     5
 10
327.503357
 20
-236.404404
 11
327.503357
 21
-249.146469
  0
LINE
  8
0
 62
     5
 10
323.079498
 20
-249.146469
 11
327.503357
 21
-249.146469
  0
LINE
  8
0
 62
     5
 10
313.955292
 20
-241.792511
 11
323.079376
 21
-238.163742
  0
LINE
  8
0
 62
     5
 10
313.955536
 20
-238.221954
 11
326.806152
 21
-233.111084
  0
LINE
  8
0
 62
     5
 10
323.079498
 20
-238.163773
 11
323.079498
 21
-249.146469
  0
LINE
  8
0
 62
     5
 10
327.503357
 20
-231.368408
 11
327.503357
 21
-232.083389
  0
LINE
  8
0
 62
     5
 10
330.821106
 20
-231.368408
 11
330.821106
 21
-232.833755
  0
LINE
  8
0
 62
     5
 10
313.955444
 20
-238.221893
 11
313.955444
 21
-241.792496
  0
LINE
  8
0
 62
     5
 10
327.503357
 20
-231.368408
 11
330.821106
 21
-231.368408
  0
LINE
  8
0
  6
CENTER
 10
-275.873566
 20
-104.558479
 11
94.126434
 21
-104.558479
  0
LINE
  8
0
 10
89.126434
 20
-121.558479
 11
89.126434
 21
-87.558479
  0
LINE
  8
0
  6
CENTER
 10
81.626434
 20
-97.558479
 11
81.626434
 21
-111.558479
  0
LINE
  8
0
 10
70.126434
 20
-123.558479
 11
70.126434
 21
-87.558479
  0
LINE
  8
0
 10
70.126434
 20
-87.558479
 11
89.126434
 21
-87.558479
  0
LINE
  8
0
 10
70.126434
 20
-121.558479
 11
89.126434
 21
-121.558479
  0
LINE
  8
0
 10
79.126434
 20
-106.001854
 11
81.626457
 21
-107.445244
  0
LINE
  8
0
 10
81.626450
 20
-107.445251
 11
84.126450
 21
-106.001877
  0
LINE
  8
0
 10
84.126434
 20
-106.001854
 11
84.126434
 21
-103.115105
  0
LINE
  8
0
 10
84.126434
 20
-103.115089
 11
81.626442
 21
-101.671715
  0
LINE
  8
0
 10
81.626465
 20
-101.671799
 11
79.126465
 21
-103.115173
  0
LINE
  8
0
 10
79.126434
 20
-103.115112
 11
79.126434
 21
-106.001862
  0
LINE
  8
0
  6
CENTER
 10
73.126434
 20
-94.058479
 11
73.126434
 21
-102.058479
  0
LINE
  8
0
  6
CENTER
 10
69.126434
 20
-98.058479
 11
77.126434
 21
-98.058479
  0
LINE
  8
0
 10
70.126434
 20
-95.058479
 11
73.126434
 21
-95.058479
  0
LINE
  8
0
 10
70.126434
 20
-101.058479
 11
73.126434
 21
-101.058479
  0
LINE
  8
0
 10
72.023659
 20
-99.726982
 11
74.794937
 21
-96.955711
  0
LINE
  8
0
 10
71.457993
 20
-99.161293
 11
74.229279
 21
-96.390007
  0
LINE
  8
0
  6
CENTER
 10
-263.373566
 20
-97.558479
 11
-263.373566
 21
-111.558479
  0
LINE
  8
0
 10
-260.873535
 20
-106.001854
 11
-263.373535
 21
-107.445229
  0
LINE
  8
0
 10
-263.373505
 20
-107.445198
 11
-265.873505
 21
-106.001823
  0
LINE
  8
0
 10
-265.873566
 20
-106.001854
 11
-265.873566
 21
-103.115105
  0
LINE
  8
0
 10
-265.873535
 20
-103.115097
 11
-263.373535
 21
-101.671722
  0
LINE
  8
0
 10
-263.373505
 20
-101.671684
 11
-260.873505
 21
-103.115059
  0
LINE
  8
0
 10
-260.873566
 20
-103.115112
 11
-260.873566
 21
-106.001862
  0
LINE
  8
0
  6
CENTER
 10
-254.873566
 20
-94.058479
 11
-254.873566
 21
-102.058479
  0
LINE
  8
0
  6
CENTER
 10
-250.873566
 20
-98.058479
 11
-258.873566
 21
-98.058479
  0
LINE
  8
0
 10
-251.873566
 20
-95.058479
 11
-254.873566
 21
-95.058479
  0
LINE
  8
0
 10
-251.873566
 20
-101.058479
 11
-254.873566
 21
-101.058479
  0
LINE
  8
0
 10
-253.770752
 20
-99.726936
 11
-256.542023
 21
-96.955658
  0
LINE
  8
0
 10
-253.205078
 20
-99.161278
 11
-255.976364
 21
-96.389992
  0
LINE
  8
0
 10
-251.873566
 20
-123.558479
 11
70.126434
 21
-123.558479
  0
LINE
  8
0
 10
-251.873566
 20
-89.058479
 11
70.126434
 21
-89.058479
  0
LINE
  8
0
 10
-251.873566
 20
-98.208481
 11
70.126434
 21
-98.208481
  0
LINE
  8
0
 10
-251.873566
 20
-110.908478
 11
70.126434
 21
-110.908478
  0
LINE
  8
0
 10
-251.873566
 20
-96.908478
 11
70.126434
 21
-96.908478
  0
LINE
  8
0
 10
-251.873566
 20
-112.208481
 11
70.126434
 21
-112.208481
  0
LINE
  8
0
 10
-251.873566
 20
-100.958481
 11
70.126434
 21
-100.958481
  0
LINE
  8
0
 10
-251.873566
 20
-108.158478
 11
70.126434
 21
-108.158478
  0
LINE
  8
0
 10
-251.873566
 20
-120.058479
 11
39.654907
 21
-120.058479
  0
LINE
  8
0
 10
50.126434
 20
-123.558479
 11
50.126434
 21
-122.558479
  0
LINE
  8
0
 10
32.561737
 20
-122.558479
 11
50.126434
 21
-122.558479
  0
LINE
  8
0
 10
43.089020
 20
-119.058479
 11
70.126434
 21
-119.058479
  0
LINE
  8
0
  6
CENTER
 10
-190.873566
 20
-128.558472
 11
-190.873566
 21
-67.558479
  0
LINE
  8
0
  6
CENTER
 10
9.126434
 20
-128.558472
 11
9.126434
 21
-84.058479
  0
LINE
  8
0
 10
-238.873566
 20
-72.558479
 11
-193.373566
 21
-72.558479
  0
LINE
  8
0
 10
-238.873566
 20
-87.058479
 11
-238.873566
 21
-72.558479
  0
LINE
  8
0
 10
-142.873566
 20
-87.058479
 11
-142.873566
 21
-72.558479
  0
LINE
  8
0
 10
-238.873566
 20
-87.058479
 11
-142.873566
 21
-87.058479
  0
LINE
  8
0
  6
CENTER
 10
-214.873566
 20
-76.558479
 11
-206.873566
 21
-76.558479
  0
LINE
  8
0
  6
CENTER
 10
-210.873566
 20
-72.558479
 11
-210.873566
 21
-80.558479
  0
LINE
  8
0
  6
CENTER
 10
-166.873566
 20
-76.558479
 11
-174.873566
 21
-76.558479
  0
LINE
  8
0
  6
CENTER
 10
-170.873566
 20
-72.558479
 11
-170.873566
 21
-80.558479
  0
LINE
  8
0
 10
-188.373566
 20
-75.858482
 11
-188.373566
 21
-72.558479
  0
LINE
  8
0
 10
-193.373566
 20
-75.858482
 11
-193.373566
 21
-72.558479
  0
LINE
  8
0
 10
-192.873566
 20
-76.358482
 11
-188.873566
 21
-76.358482
  0
LINE
  8
0
 10
-188.373566
 20
-72.558479
 11
-142.873566
 21
-72.558479
  0
LINE
  8
0
 10
-251.873566
 20
-123.558479
 11
-251.873566
 21
-87.558479
  0
LINE
  8
0
 10
-270.873566
 20
-121.558479
 11
-270.873566
 21
-87.558479
  0
LINE
  8
0
 10
-251.873566
 20
-87.558479
 11
-270.873566
 21
-87.558479
  0
LINE
  8
0
 10
-251.873566
 20
-121.558479
 11
-270.873566
 21
-121.558479
  0
LINE
  8
0
 10
-266.873566
 20
-121.558479
 11
-266.873566
 21
-112.058479
  0
LINE
  8
0
  6
CENTER
 10
-263.873566
 20
-116.558479
 11
-273.873566
 21
-116.558479
  0
LINE
  8
0
 10
-266.873566
 20
-112.058479
 11
-270.873566
 21
-112.058479
  0
LINE
  8
0
 10
-268.026978
 20
-112.517136
 11
-270.873566
 21
-112.517136
  0
LINE
  8
0
 10
-268.026978
 20
-114.537773
 11
-270.873566
 21
-114.537773
  0
LINE
  8
0
 10
-268.026978
 20
-118.579216
 11
-270.873566
 21
-118.579216
  0
LINE
  8
0
 10
-268.026978
 20
-120.599930
 11
-270.873566
 21
-120.599930
  0
LINE
  8
0
 10
-266.873566
 20
-87.558479
 11
-266.873566
 21
-97.058479
  0
LINE
  8
0
  6
CENTER
 10
-263.873566
 20
-92.558479
 11
-273.873566
 21
-92.558479
  0
LINE
  8
0
 10
-266.873566
 20
-97.058479
 11
-270.873566
 21
-97.058479
  0
LINE
  8
0
 10
-268.026978
 20
-96.599823
 11
-270.873566
 21
-96.599823
  0
LINE
  8
0
 10
-268.026978
 20
-94.579185
 11
-270.873566
 21
-94.579185
  0
LINE
  8
0
 10
-268.026978
 20
-90.537743
 11
-270.873566
 21
-90.537743
  0
LINE
  8
0
 10
-268.026978
 20
-88.517029
 11
-270.873566
 21
-88.517029
  0
LINE
  8
0
 10
-267.473572
 20
-121.558479
 11
-267.473572
 21
-112.058479
  0
LINE
  8
0
 10
-267.473572
 20
-121.558479
 11
-268.026978
 21
-120.599930
  0
LINE
  8
0
 10
-267.762238
 20
-112.058479
 11
-268.027008
 21
-112.517036
  0
LINE
  8
0
 10
-268.026978
 20
-112.517029
 11
-268.026978
 21
-120.599930
  0
LINE
  8
0
 10
-267.473572
 20
-87.558479
 11
-267.473572
 21
-97.058479
  0
LINE
  8
0
 10
-268.026978
 20
-96.599930
 11
-268.026978
 21
-88.517029
  0
LINE
  8
0
 10
-267.762238
 20
-97.058472
 11
-268.026978
 21
-96.599922
  0
LINE
  8
0
 10
-267.473572
 20
-87.558472
 11
-268.027008
 21
-88.517029
  0
LINE
  8
0
 10
86.279846
 20
-96.599930
 11
86.279846
 21
-88.517029
  0
LINE
  8
0
 10
86.015053
 20
-97.058441
 11
86.279793
 21
-96.599899
  0
LINE
  8
0
 10
85.726433
 20
-87.558472
 11
86.279831
 21
-88.517021
  0
LINE
  8
0
 10
85.726440
 20
-87.558479
 11
85.726440
 21
-97.058479
  0
LINE
  8
0
 10
85.126434
 20
-121.558479
 11
85.126434
 21
-112.058479
  0
LINE
  8
0
  6
CENTER
 10
82.126434
 20
-116.558479
 11
92.126434
 21
-116.558479
  0
LINE
  8
0
 10
85.126434
 20
-112.058479
 11
89.126434
 21
-112.058479
  0
LINE
  8
0
 10
86.279846
 20
-112.517136
 11
89.126434
 21
-112.517136
  0
LINE
  8
0
 10
86.279846
 20
-114.537773
 11
89.126434
 21
-114.537773
  0
LINE
  8
0
 10
86.279846
 20
-118.579216
 11
89.126434
 21
-118.579216
  0
LINE
  8
0
 10
86.279846
 20
-120.599930
 11
89.126434
 21
-120.599930
  0
LINE
  8
0
 10
85.126434
 20
-87.558479
 11
85.126434
 21
-97.058479
  0
LINE
  8
0
  6
CENTER
 10
82.126434
 20
-92.558479
 11
92.126434
 21
-92.558479
  0
LINE
  8
0
 10
85.126434
 20
-97.058479
 11
89.126434
 21
-97.058479
  0
LINE
  8
0
 10
86.279846
 20
-96.599823
 11
89.126434
 21
-96.599823
  0
LINE
  8
0
 10
86.279846
 20
-94.579185
 11
89.126434
 21
-94.579185
  0
LINE
  8
0
 10
86.279846
 20
-90.537743
 11
89.126434
 21
-90.537743
  0
LINE
  8
0
 10
86.279846
 20
-88.517029
 11
89.126434
 21
-88.517029
  0
LINE
  8
0
 10
85.726440
 20
-121.558479
 11
85.726440
 21
-112.058479
  0
LINE
  8
0
 10
85.726433
 20
-121.558479
 11
86.279831
 21
-120.599930
  0
LINE
  8
0
 10
86.015045
 20
-112.058487
 11
86.279785
 21
-112.517029
  0
LINE
  8
0
 10
86.279846
 20
-112.517029
 11
86.279846
 21
-120.599930
  0
LINE
  8
0
  6
CENTER
 10
-275.873596
 20
65.441528
 11
94.126404
 21
65.441528
  0
LINE
  8
0
 10
-270.873596
 20
48.441528
 11
-270.873596
 21
82.441528
  0
LINE
  8
0
 10
-251.873596
 20
48.441528
 11
-251.873596
 21
82.441528
  0
LINE
  8
0
 10
-251.873596
 20
82.441528
 11
-270.873596
 21
82.441528
  0
LINE
  8
0
 10
-251.873596
 20
48.441528
 11
-270.873596
 21
48.441528
  0
LINE
  8
0
 10
-266.873596
 20
48.441528
 11
-266.873596
 21
57.941528
  0
LINE
  8
0
  6
CENTER
 10
-263.873596
 20
53.441528
 11
-273.873596
 21
53.441528
  0
LINE
  8
0
 10
-266.873596
 20
57.941528
 11
-270.873596
 21
57.941528
  0
LINE
  8
0
 10
-266.873596
 20
82.441528
 11
-266.873596
 21
72.941528
  0
LINE
  8
0
  6
CENTER
 10
-263.873596
 20
77.441528
 11
-273.873596
 21
77.441528
  0
LINE
  8
0
 10
-266.873596
 20
72.941528
 11
-270.873596
 21
72.941528
  0
LINE
  8
0
 10
89.126404
 20
48.441528
 11
89.126404
 21
82.441528
  0
LINE
  8
0
 10
70.126404
 20
48.441528
 11
70.126404
 21
82.441528
  0
LINE
  8
0
 10
70.126404
 20
82.441528
 11
89.126404
 21
82.441528
  0
LINE
  8
0
 10
70.126404
 20
48.441528
 11
89.126404
 21
48.441528
  0
LINE
  8
0
 10
-251.873596
 20
49.941528
 11
70.126404
 21
49.941528
  0
LINE
  8
0
 10
-251.873596
 20
80.941528
 11
70.126404
 21
80.941528
  0
LINE
  8
0
 10
-238.873596
 20
78.441528
 11
-238.873596
 21
52.441528
  0
LINE
  8
0
 10
-239.873596
 20
76.441528
 11
-239.873596
 21
54.441528
  0
LINE
  8
0
 10
-193.373596
 20
78.441528
 11
-193.373596
 21
72.941528
  0
LINE
  8
0
  6
CENTER
 10
9.126404
 20
83.941528
 11
9.126404
 21
46.941528
  0
LINE
  8
0
 10
-238.873596
 20
52.441528
 11
-142.873596
 21
52.441528
  0
LINE
  8
0
 10
-238.873596
 20
78.441528
 11
-142.873596
 21
78.441528
  0
LINE
  8
0
 10
-142.873596
 20
78.441528
 11
-142.873596
 21
52.441528
  0
LINE
  8
0
 10
-141.873596
 20
76.441528
 11
-141.873596
 21
54.441528
  0
LINE
  8
0
  6
CENTER
 10
-223.373596
 20
69.441528
 11
-223.373596
 21
61.441528
  0
LINE
  8
0
 10
-195.173599
 20
72.941528
 11
-195.173599
 21
57.941528
  0
LINE
  8
0
 10
-195.173599
 20
57.941528
 11
-186.573593
 21
57.941528
  0
LINE
  8
0
 10
-195.173599
 20
72.941528
 11
-186.573593
 21
72.941528
  0
LINE
  8
0
 10
-193.373596
 20
57.941528
 11
-193.373596
 21
52.441528
  0
LINE
  8
0
 10
-188.373596
 20
78.441528
 11
-188.373596
 21
72.941528
  0
LINE
  8
0
 10
-186.573593
 20
72.941528
 11
-186.573593
 21
57.941528
  0
LINE
  8
0
 10
-188.373596
 20
57.941528
 11
-188.373596
 21
52.441528
  0
LINE
  8
0
  6
CENTER
 10
-158.373596
 20
69.441528
 11
-158.373596
 21
61.441528
  0
LINE
  8
0
  6
CENTER
 10
-190.873596
 20
83.941528
 11
-190.873596
 21
46.941528
  0
LINE
  8
0
 10
-251.873596
 20
58.241531
 11
-239.873596
 21
58.241531
  0
LINE
  8
0
 10
-251.873596
 20
72.641525
 11
-239.873596
 21
72.641525
  0
LINE
  8
0
 10
-141.873596
 20
72.641525
 11
70.126404
 21
72.641525
  0
LINE
  8
0
 10
-141.873596
 20
58.241531
 11
70.126404
 21
58.241531
  0
LINE
  8
0
 10
-268.027008
 20
49.941528
 11
-270.873596
 21
49.941528
  0
LINE
  8
0
 10
-268.027008
 20
56.941528
 11
-270.873596
 21
56.941528
  0
LINE
  8
0
 10
-268.027008
 20
53.441528
 11
-270.873596
 21
53.441528
  0
LINE
  8
0
 10
-268.027008
 20
73.941528
 11
-270.873596
 21
73.941528
  0
LINE
  8
0
 10
-268.027008
 20
77.441528
 11
-270.873596
 21
77.441528
  0
LINE
  8
0
 10
-268.027008
 20
80.941528
 11
-270.873596
 21
80.941528
  0
LINE
  8
0
 10
-267.473602
 20
48.441528
 11
-267.473602
 21
57.941528
  0
LINE
  8
0
 10
-268.027008
 20
49.400047
 11
-268.027008
 21
57.483009
  0
LINE
  8
0
 10
-267.473572
 20
48.441532
 11
-268.026978
 21
49.400043
  0
LINE
  8
0
 10
-267.762268
 20
57.941521
 11
-268.026978
 21
57.482998
  0
LINE
  8
0
 10
-267.473602
 20
82.441528
 11
-267.473602
 21
72.941528
  0
LINE
  8
0
 10
-268.027008
 20
81.483009
 11
-268.027008
 21
73.400047
  0
LINE
  8
0
 10
-267.762299
 20
72.941536
 11
-268.027008
 21
73.400055
  0
LINE
  8
0
 10
-267.473602
 20
82.441536
 11
-268.027008
 21
81.483017
  0
LINE
  8
0
 10
86.279785
 20
81.483009
 11
86.279785
 21
73.400047
  0
LINE
  8
0
 10
86.015106
 20
72.941505
 11
86.279816
 21
73.400032
  0
LINE
  8
0
 10
85.726410
 20
82.441528
 11
85.726410
 21
72.941528
  0
LINE
  8
0
 10
85.726387
 20
82.441505
 11
86.279762
 21
81.482994
  0
LINE
  8
0
 10
85.126404
 20
48.441528
 11
85.126404
 21
57.941528
  0
LINE
  8
0
  6
CENTER
 10
82.126404
 20
53.441528
 11
92.126404
 21
53.441528
  0
LINE
  8
0
 10
85.126404
 20
57.941528
 11
89.126404
 21
57.941528
  0
LINE
  8
0
 10
85.126404
 20
82.441528
 11
85.126404
 21
72.941528
  0
LINE
  8
0
  6
CENTER
 10
82.126404
 20
77.441528
 11
92.126404
 21
77.441528
  0
LINE
  8
0
 10
85.126404
 20
72.941528
 11
89.126404
 21
72.941528
  0
LINE
  8
0
 10
86.279785
 20
49.941528
 11
89.126404
 21
49.941528
  0
LINE
  8
0
 10
86.279785
 20
56.941528
 11
89.126404
 21
56.941528
  0
LINE
  8
0
 10
86.279785
 20
53.441528
 11
89.126404
 21
53.441528
  0
LINE
  8
0
 10
86.279785
 20
73.941528
 11
89.126404
 21
73.941528
  0
LINE
  8
0
 10
86.279785
 20
77.441528
 11
89.126404
 21
77.441528
  0
LINE
  8
0
 10
86.279785
 20
80.941528
 11
89.126404
 21
80.941528
  0
LINE
  8
0
 10
85.726410
 20
48.441528
 11
85.726410
 21
57.941528
  0
LINE
  8
0
 10
86.279785
 20
49.400047
 11
86.279785
 21
57.483009
  0
LINE
  8
0
 10
85.726387
 20
48.441540
 11
86.279762
 21
49.400051
  0
LINE
  8
0
 10
86.015099
 20
57.941540
 11
86.279808
 21
57.483017
  0
LINE
  8
0
  6
CENTER
 10
207.126434
 20
-104.558510
 11
251.126434
 21
-104.558510
  0
LINE
  8
0
  6
CENTER
 10
229.126434
 20
-128.558502
 11
229.126434
 21
-67.558510
  0
LINE
  8
0
 10
246.126434
 20
-116.558510
 11
246.126434
 21
-92.558510
  0
LINE
  8
0
 10
212.126434
 20
-116.558510
 11
212.126434
 21
-92.558510
  0
LINE
  8
0
 10
217.126434
 20
-121.558510
 11
223.033401
 21
-121.558510
  0
LINE
  8
0
 10
216.126434
 20
-87.558510
 11
242.126434
 21
-87.558510
  0
LINE
  8
0
 10
221.126434
 20
-123.558510
 11
226.926437
 21
-123.558510
  0
LINE
  8
0
  6
CENTER
 10
238.626434
 20
-97.558510
 11
238.626434
 21
-111.558510
  0
LINE
  8
0
  6
CENTER
 10
217.126434
 20
-109.058510
 11
217.126434
 21
-124.058510
  0
LINE
  8
0
  6
CENTER
 10
209.626434
 20
-116.558510
 11
224.626434
 21
-116.558510
  0
LINE
  8
0
 10
213.626450
 20
-118.579231
 11
217.126465
 21
-120.599960
  0
LINE
  8
0
 10
217.126495
 20
-120.600060
 11
220.626495
 21
-118.579330
  0
LINE
  8
0
 10
220.626434
 20
-118.579231
 11
220.626434
 21
-114.537788
  0
LINE
  8
0
 10
220.626434
 20
-114.537788
 11
217.126450
 21
-112.517067
  0
LINE
  8
0
 10
217.126541
 20
-112.517258
 11
213.626541
 21
-114.537979
  0
LINE
  8
0
 10
213.626450
 20
-114.537804
 11
213.626450
 21
-118.579247
  0
LINE
  8
0
  6
CENTER
 10
241.126434
 20
-109.058510
 11
241.126434
 21
-124.058510
  0
LINE
  8
0
 10
237.626480
 20
-114.537910
 11
241.126480
 21
-112.517197
  0
LINE
  8
0
 10
237.626434
 20
-118.579231
 11
237.626434
 21
-114.537788
  0
LINE
  8
0
 10
241.126434
 20
-120.599991
 11
237.626434
 21
-118.579269
  0
LINE
  8
0
 10
244.626434
 20
-118.579315
 11
241.126450
 21
-120.600037
  0
LINE
  8
0
 10
244.626419
 20
-114.537804
 11
244.626419
 21
-118.579247
  0
LINE
  8
0
 10
241.126434
 20
-112.517097
 11
244.626434
 21
-114.537827
  0
LINE
  8
0
  6
CENTER
 10
248.626434
 20
-116.558510
 11
233.626434
 21
-116.558510
  0
LINE
  8
0
  6
CENTER
 10
217.126434
 20
-100.058510
 11
217.126434
 21
-85.058510
  0
LINE
  8
0
 10
220.626495
 20
-94.579376
 11
217.126480
 21
-96.600098
  0
LINE
  8
0
 10
220.626434
 20
-90.537788
 11
220.626434
 21
-94.579231
  0
LINE
  8
0
 10
217.126480
 20
-88.517036
 11
220.626465
 21
-90.537758
  0
LINE
  8
0
 10
213.626526
 20
-90.537903
 11
217.126541
 21
-88.517174
  0
LINE
  8
0
 10
213.626450
 20
-94.579216
 11
213.626450
 21
-90.537773
  0
LINE
  8
0
 10
217.126465
 20
-96.599930
 11
213.626465
 21
-94.579201
  0
LINE
  8
0
  6
CENTER
 10
209.626434
 20
-92.558510
 11
224.626434
 21
-92.558510
  0
LINE
  8
0
  6
CENTER
 10
241.126434
 20
-100.058510
 11
241.126434
 21
-85.058510
  0
LINE
  8
0
 10
237.626465
 20
-94.579247
 11
241.126450
 21
-96.599953
  0
LINE
  8
0
 10
237.626434
 20
-90.537788
 11
237.626434
 21
-94.579231
  0
LINE
  8
0
 10
241.126511
 20
-88.517120
 11
237.626495
 21
-90.537857
  0
LINE
  8
0
 10
244.626404
 20
-90.537766
 11
241.126404
 21
-88.517036
  0
LINE
  8
0
 10
244.626419
 20
-94.579216
 11
244.626419
 21
-90.537773
  0
LINE
  8
0
 10
241.126526
 20
-96.600060
 11
244.626511
 21
-94.579338
  0
LINE
  8
0
  6
CENTER
 10
248.626434
 20
-92.558510
 11
233.626434
 21
-92.558510
  0
LINE
  8
0
 10
212.126434
 20
-97.058510
 11
213.964157
 21
-97.058510
  0
LINE
  8
0
 10
221.626434
 20
-89.396233
 11
221.626434
 21
-87.558510
  0
LINE
  8
0
 10
246.126434
 20
-97.058510
 11
244.288712
 21
-97.058510
  0
LINE
  8
0
 10
236.626434
 20
-89.396233
 11
236.626434
 21
-87.558510
  0
LINE
  8
0
 10
212.126434
 20
-112.058510
 11
213.964157
 21
-112.058510
  0
LINE
  8
0
 10
221.626434
 20
-119.720787
 11
221.626434
 21
-121.558510
  0
LINE
  8
0
 10
246.126434
 20
-112.058510
 11
244.288712
 21
-112.058510
  0
LINE
  8
0
 10
236.626434
 20
-119.720787
 11
236.626434
 21
-121.558510
  0
LINE
  8
0
 10
216.126434
 20
-72.558510
 11
242.126434
 21
-72.558510
  0
LINE
  8
0
 10
231.326431
 20
-123.558510
 11
231.326431
 21
-122.558510
  0
LINE
  8
0
 10
226.926437
 20
-123.558510
 11
226.926437
 21
-122.558510
  0
LINE
  8
0
 10
231.326431
 20
-123.558510
 11
237.126434
 21
-123.558510
  0
LINE
  8
0
 10
221.126434
 20
-123.558510
 11
221.126434
 21
-121.558510
  0
LINE
  8
0
 10
237.126434
 20
-123.558510
 11
237.126434
 21
-121.558510
  0
LINE
  8
0
 10
232.876434
 20
-122.558510
 11
232.876434
 21
-121.058510
  0
LINE
  8
0
 10
225.376434
 20
-122.558510
 11
225.376434
 21
-121.058510
  0
LINE
  8
0
 10
225.376434
 20
-122.558510
 11
226.926437
 21
-122.558510
  0
LINE
  8
0
 10
231.326431
 20
-122.558510
 11
232.876434
 21
-122.558510
  0
LINE
  8
0
 10
227.376434
 20
-119.058510
 11
230.876434
 21
-119.058510
  0
LINE
  8
0
 10
235.219467
 20
-121.558510
 11
241.126434
 21
-121.558510
  0
LINE
  8
0
 10
242.126434
 20
-87.558510
 11
242.126434
 21
-72.558510
  0
LINE
  8
0
 10
216.126434
 20
-87.558510
 11
216.126434
 21
-72.558510
  0
LINE
  8
0
  6
CENTER
 10
213.126434
 20
-76.558510
 11
245.126434
 21
-76.558510
  0
LINE
  8
0
  6
CENTER
 10
223.626434
 20
-97.558510
 11
223.626434
 21
-111.558510
  0
LINE
  8
0
 10
-222.373520
 20
67.173546
 11
-194.505997
 21
115.441498
  0
LINE
  8
0
 10
-222.373520
 20
67.173546
 11
-221.079422
 21
72.003174
  0
LINE
  8
0
 10
-222.373535
 20
67.173546
 11
-218.837997
 21
70.709084
  0
LINE
  8
0
 10
-194.505997
 20
115.441498
 11
-133.666672
 21
115.441498
  0
LINE
  8
0
 10
79.194412
 20
-100.346115
 11
52.758915
 21
-54.558472
  0
LINE
  8
0
 10
79.194412
 20
-100.346115
 11
75.658875
 21
-96.810577
  0
LINE
  8
0
 10
79.194412
 20
-100.346115
 11
77.900322
 21
-95.516487
  0
LINE
  8
0
 10
2.758915
 20
-54.558472
 11
52.758915
 21
-54.558472
  0
LINE
  8
0
 10
-190.873566
 20
-128.558472
 11
-190.873566
 21
-157.058487
  0
LINE
  8
0
 10
9.126434
 20
-128.558472
 11
9.126434
 21
-157.058487
  0
LINE
  8
0
 10
-190.873566
 20
-154.558487
 11
9.126434
 21
-154.558487
  0
LINE
  8
0
 10
-190.873550
 20
-154.558487
 11
-186.043930
 21
-153.264389
  0
LINE
  8
0
 10
4.296804
 20
-155.852585
 11
9.126435
 21
-154.558487
  0
LINE
  8
0
 10
4.296807
 20
-153.264374
 11
9.126436
 21
-154.558472
  0
LINE
  8
0
 10
-190.873566
 20
-154.558487
 11
-186.043930
 21
-155.852570
  0
ARC
  8
0
 62
     5
 10
273.035400
 20
-235.045654
 40
2.211884
 50
0.000000
 51
90.000000
  0
ARC
  8
0
 62
     5
 10
291.283569
 20
-246.934647
 40
2.211899
 50
270.000000
 51
0.000000
  0
ARC
  8
0
 62
     5
 10
290.177551
 20
-236.151566
 40
3.317841
 50
0.000000
 51
90.000000
  0
ARC
  8
0
 62
     5
 10
310.361115
 20
-236.812775
 40
2.211890
 50
294.999969
 51
0.000000
  0
ARC
  8
0
 62
     5
 10
310.361115
 20
-235.045654
 40
2.211884
 50
0.000000
 51
90.000000
  0
ARC
  8
0
 62
     5
 10
327.503357
 20
-232.833755
 40
3.317840
 50
291.688385
 51
0.000000
  0
ARC
  8
0
 62
     5
 10
326.397308
 20
-232.083389
 40
1.105946
 50
291.688965
 51
0.000000
  0
CIRCLE
  8
0
 10
-170.873566
 20
-76.558479
 40
2.250000
  0
CIRCLE
  8
0
 10
-210.873566
 20
-76.558479
 40
2.250000
  0
ARC
  8
0
 10
-192.873566
 20
-75.858482
 40
0.500000
 50
180.000000
 51
270.000000
  0
ARC
  8
0
 10
-188.873566
 20
-75.858482
 40
0.500000
 50
270.000000
 51
0.000000
  0
CIRCLE
  8
0
 10
81.626434
 20
-104.558479
 40
4.864000
  0
CIRCLE
  8
0
 10
81.626434
 20
-104.558479
 40
4.283000
  0
CIRCLE
  8
0
 10
73.126434
 20
-98.058479
 40
2.000000
  0
ARC
  8
0
 10
73.126434
 20
-98.058479
 40
3.000000
 50
270.000000
 51
90.000000
  0
ARC
  8
0
 10
-254.873566
 20
-98.058479
 40
3.000000
 50
90.000000
 51
270.000000
  0
CIRCLE
  8
0
 10
-263.373566
 20
-104.558479
 40
4.864000
  0
CIRCLE
  8
0
 10
-263.373566
 20
-104.558479
 40
4.283000
  0
CIRCLE
  8
0
 10
-254.873566
 20
-98.058479
 40
2.000000
  0
ARC
  8
0
 10
69.325775
 20
-215.555267
 40
100.000000
 50
89.541260
 51
113.078621
  0
ARC
  8
0
 10
-142.873566
 20
-88.058479
 40
1.000000
 50
270.000000
 51
90.000000
  0
ARC
  8
0
 10
-238.873566
 20
-88.058479
 40
1.000000
 50
90.000000
 51
270.000000
  0
CIRCLE
  8
0
 10
-158.373596
 20
65.441528
 40
1.621000
  0
CIRCLE
  8
0
 10
-223.373596
 20
65.441528
 40
1.621000
  0
CIRCLE
  8
0
 10
-158.373596
 20
65.441528
 40
2.000000
  0
ARC
  8
0
 10
-238.873596
 20
76.441528
 40
1.000000
 50
90.000000
 51
180.000000
  0
ARC
  8
0
 10
-238.873596
 20
54.441528
 40
1.000000
 50
180.000000
 51
270.000000
  0
ARC
  8
0
 10
-142.873596
 20
76.441528
 40
1.000000
 50
0.000000
 51
90.000000
  0
ARC
  8
0
 10
-142.873596
 20
54.441528
 40
1.000000
 50
270.000000
 51
0.000000
  0
CIRCLE
  8
0
 10
-223.373596
 20
65.441528
 40
2.000000
  0
CIRCLE
  8
0
 10
223.626434
 20
-104.558510
 40
4.864000
  0
ARC
  8
0
 10
229.126434
 20
-124.199135
 40
6.640623
 50
5.535969
 51
174.464035
  0
CIRCLE
  8
0
 10
223.626434
 20
-104.558510
 40
4.283000
  0
CIRCLE
  8
0
 10
238.626434
 20
-104.558510
 40
4.864000
  0
CIRCLE
  8
0
 10
238.626434
 20
-104.558510
 40
4.283000
  0
CIRCLE
  8
0
 10
217.126434
 20
-116.558510
 40
5.000000
  0
CIRCLE
  8
0
 10
217.126434
 20
-116.558510
 40
2.000000
  0
CIRCLE
  8
0
 10
217.126434
 20
-116.558510
 40
1.621000
  0
CIRCLE
  8
0
 10
241.126434
 20
-116.558510
 40
5.000000
  0
CIRCLE
  8
0
 10
241.126434
 20
-116.558510
 40
2.000000
  0
CIRCLE
  8
0
 10
241.126434
 20
-116.558510
 40
1.621000
  0
CIRCLE
  8
0
 10
217.126434
 20
-92.558510
 40
5.000000
  0
CIRCLE
  8
0
 10
217.126434
 20
-92.558510
 40
2.000000
  0
CIRCLE
  8
0
 10
217.126434
 20
-92.558510
 40
1.621000
  0
CIRCLE
  8
0
 10
241.126434
 20
-92.558510
 40
5.000000
  0
CIRCLE
  8
0
 10
241.126434
 20
-92.558510
 40
2.000000
  0
CIRCLE
  8
0
 10
241.126434
 20
-92.558510
 40
1.621000
  0
CIRCLE
  8
0
 10
217.126434
 20
-92.558510
 40
1.621000
  0
ARC
  8
0
 10
217.126434
 20
-92.558510
 40
5.500000
 50
234.903198
 51
35.096798
  0
ARC
  8
0
 10
241.126434
 20
-92.558510
 40
5.500000
 50
144.903198
 51
305.096802
  0
ARC
  8
0
 10
217.126434
 20
-116.558510
 40
5.500004
 50
324.903137
 51
125.096794
  0
ARC
  8
0
 10
241.126434
 20
-116.558510
 40
5.500002
 50
54.903027
 51
215.096725
  0
ARC
  8
0
 10
227.376434
 20
-121.058510
 40
2.000000
 50
90.000000
 51
180.000000
  0
ARC
  8
0
 10
230.876434
 20
-121.058510
 40
2.000000
 50
0.000000
 51
90.000000
  0
TEXT
  8
0
 10
226.462494
 20
233.607468
 40
8.500000
  1
DATE : SEP ,1991
 50
0.000000
 41
1.052631
 51
0.000000
  7
STANDARD
  0
TEXT
  8
0
 10
-366.896790
 20
232.257462
 40
10.000000
  1
RODLESS CYLINDER
 50
0.000000
 41
0.937799
 51
0.000000
  7
STANDARD
  0
TEXT
  8
0
 10
-347.052124
 20
187.956390
 40
10.000000
  1
MODEL : ORCA 20xSt(200)
 50
0.000000
 41
1.052632
 51
0.000000
  7
STANDARD
  0
TEXT
  8
0
 10
-193.755997
 20
115.141487
 40
7.000000
  1
2-M4x0.7
 50
0.000000
 41
1.052632
 51
0.000000
  7
STANDARD
  0
TEXT
  8
0
 10
2.508924
 20
-54.858475
 40
7.000000
  1
6-Rc1/8
 50
0.000000
 41
1.052632
 51
0.000000
  7
STANDARD
  0
TEXT
  8
0
 10
-112.623566
 20
-152.858490
 40
7.000000
  1
STROKE
 50
0.000000
 41
1.052632
 51
0.000000
  7
STANDARD
  0
ENDSEC
  0
EOF
