  0
SECTION
  2
HEADER
  0
ENDSEC
  0
SECTION
  2
TABLES
  0
TABLE
  2
LTYPE
 70
     4
  0
LTYPE
  2
CONTINUOUS
 70
    64
  3
Solid line
 72
    65
 73
     0
 40
0.000000
  0
LTYPE
  2
DASHED
 70
    64
  3
__ __ __ __ __ __ __ __ __ __ __ __ __ __ __
 72
    65
 73
     2
 40
3.500000
 49
2.000000
 49
-1.500000
  0
LTYPE
  2
CENTER
 70
    64
  3
____ _ ____ _ ____ _ ____ _ ____ _ ____ _ ____
 72
    65
 73
     4
 40
17.500000
 49
13.000000
 49
-1.500000
 49
1.500000
 49
-1.500000
  0
LTYPE
  2
PHANTOM
 70
    64
  3
_____ _ _ _____ _ _ _____ _ _ _____ _ _ ____  
 72
    65
 73
     6
 40
15.500000
 49
8.000000
 49
-1.500000
 49
1.500000
 49
-1.500000
 49
1.500000
 49
-1.500000
  0
LTYPE
  2
DASHED1
 70
    64
  3
__ __ __ __ __ __ __ __ __ __ __ __ __ __ __
 72
    65
 73
     2
 40
1.500000
 49
1.000000
 49
-0.500000
  0
LTYPE
  2
DASHED2
 70
    64
  3
__ __ __ __ __ __ __ __ __ __ __ __ __ __ __
 72
    65
 73
     2
 40
3.500000
 49
2.500000
 49
-1.000000
  0
LTYPE
  2
DASHED3
 70
    64
  3
__ __ __ __ __ __ __ __ __ __ __ __ __ __ __
 72
    65
 73
     2
 40
6.000000
 49
4.000000
 49
-2.000000
  0
LTYPE
  2
DASHED4
 70
    64
  3
__ __ __ __ __ __ __ __ __ __ __ __ __ __ __
 72
    65
 73
     2
 40
12.000000
 49
10.000000
 49
-2.000000
  0
LTYPE
  2
DASHED5
 70
    64
  3
__ __ __ __ __ __ __ __ __ __ __ __ __ __ __
 72
    65
 73
     2
 40
17.000000
 49
15.000000
 49
-2.000000
  0
LTYPE
  2
DASHED6
 70
    64
  3
__ __ __ __ __ __ __ __ __ __ __ __ __ __ __
 72
    65
 73
     2
 40
29.000000
 49
27.000000
 49
-2.000000
  0
LTYPE
  2
PHANTOM1
 70
    64
  3
_____ _ _ _____ _ _ _____ _ _ _____ _ _ ____  
 72
    65
 73
     6
 40
31.000000
 49
25.000000
 49
-1.500000
 49
1.000000
 49
-1.000000
 49
1.000000
 49
-1.500000
  0
LTYPE
  2
PHANTOM2
 70
    64
  3
_____ _ _ _____ _ _ _____ _ _ _____ _ _ ____  
 72
    65
 73
     6
 40
36.000000
 49
27.000000
 49
-1.500000
 49
2.500000
 49
-1.000000
 49
2.500000
 49
-1.500000
  0
LTYPE
  2
PHANTOM3
 70
    64
  3
_____ _ _ _____ _ _ _____ _ _ _____ _ _ ____  
 72
    65
 73
     6
 40
78.000000
 49
64.000000
 49
-2.000000
 49
4.000000
 49
-2.000000
 49
4.000000
 49
-2.000000
  0
LTYPE
  2
CENTER1
 70
    64
  3
____ _ ____ _ ____ _ ____ _ ____ _ ____ _ ____
 72
    65
 73
     4
 40
19.000000
 49
14.000000
 49
-1.000000
 49
3.000000
 49
-1.000000
  0
LTYPE
  2
CENTER2
 70
    64
  3
____ _ ____ _ ____ _ ____ _ ____ _ ____ _ ____
 72
    65
 73
     4
 40
28.500000
 49
25.000000
 49
-1.000000
 49
1.500000
 49
-1.000000
  0
LTYPE
  2
CENTER3
 70
    64
  3
____ _ ____ _ ____ _ ____ _ ____ _ ____ _ ____
 72
    65
 73
     4
 40
31.500000
 49
27.000000
 49
-1.000000
 49
2.500000
 49
-1.000000
  0
LTYPE
  2
CENTER4
 70
    64
  3
____ _ ____ _ ____ _ ____ _ ____ _ ____ _ ____
 72
    65
 73
     4
 40
50.000000
 49
45.000000
 49
-1.000000
 49
3.000000
 49
-1.000000
  0
LTYPE
  2
CENTER5
 70
    64
  3
____ _ ____ _ ____ _ ____ _ ____ _ ____ _ ____
 72
    65
 73
     4
 40
100.000000
 49
92.000000
 49
-2.000000
 49
4.000000
 49
-2.000000
  0
LTYPE
  2
SBK1
 70
    64
  3
______ _ _ _ ______ _ _ _ ______ _ _ _ _____  
 72
    65
 73
     8
 40
60.500000
 49
45.000000
 49
-2.000000
 49
2.500000
 49
-2.000000
 49
2.500000
 49
-2.000000
 49
2.500000
 49
-2.000000
  0
LTYPE
  2
SBK2
 70
    64
  3
______ _ _ _ ______ _ _ _ ______ _ _ _ _____  
 72
    65
 73
     8
 40
84.000000
 49
64.000000
 49
-2.000000
 49
4.000000
 49
-2.000000
 49
4.000000
 49
-2.000000
 49
4.000000
 49
-2.000000
  0
LTYPE
  2
STCH
 70
    64
  3
__ __ __ __ __ __ __ __ __ __ __ __ __ __ __
 72
    65
 73
     2
 40
3.000000
 49
1.000000
 49
-2.000000
  0
LTYPE
  2
MTCH
 70
    64
  3
_____ _ _ _____ _ _ _____ _ _ _____ _ _ ____  
 72
    65
 73
     6
 40
80.000000
 49
66.000000
 49
-2.000000
 49
4.000000
 49
-2.000000
 49
4.000000
 49
-2.000000
  0
ENDTAB
  0
TABLE
  2
LAYER
 70
     1
  0
LAYER
  2
0
 70
     0
 62
     7
  6
CONTINUOUS
  0
ENDTAB
  0
TABLE
  2
STYLE
 70
     1
  0
STYLE
  2
STANDARD
 70
     0
 40
0.000000
 41
1.000000
 50
0.000000
 71
     0
 42
0.200000
  3
txt
  4
BIGFONT
  0
ENDTAB
  0
TABLE
  2
VIEW
 70
     0
  0
ENDTAB
  0
ENDSEC
  0
SECTION
  2
BLOCKS
  0
ENDSEC
  0
SECTION
  2
ENTITIES
  0
POINT
  8
0
 10
-270.873505
 20
65.441513
  0
POINT
  8
0
 10
129.126495
 20
65.441513
  0
POINT
  8
0
 10
129.126434
 20
-104.558479
  0
POINT
  8
0
 10
-270.873566
 20
-104.558479
  0
POINT
  8
0
 10
259.126404
 20
-104.558495
  0
POINT
  8
0
 10
279.126404
 20
-104.558495
  0
LINE
  8
0
 62
     3
 10
218.329163
 20
-225.956436
 11
370.873566
 21
-225.956436
  0
LINE
  8
0
 62
     3
 10
-218.329163
 20
225.956390
 11
-218.329163
 21
254.558487
  0
LINE
  8
0
 62
     3
 10
-370.873566
 20
225.956390
 11
-218.329163
 21
225.956390
  0
LINE
  8
0
 62
     3
 10
-370.873566
 20
254.558487
 11
370.873566
 21
254.558487
  0
LINE
  8
0
 62
     3
 10
-370.873566
 20
-254.558487
 11
370.873566
 21
-254.558487
  0
LINE
  8
0
 62
     3
 10
370.873566
 20
254.558487
 11
370.873566
 21
-254.558487
  0
LINE
  8
0
 62
     3
 10
-370.873566
 20
-254.558487
 11
-370.873566
 21
254.558487
  0
LINE
  8
0
 62
     3
 10
218.329163
 20
-225.956436
 11
218.329163
 21
-254.558487
  0
LINE
  8
0
 62
     3
 10
218.329163
 20
254.558487
 11
218.329163
 21
225.956390
  0
LINE
  8
0
 62
     3
 10
218.329163
 20
225.956390
 11
370.873566
 21
225.956390
  0
LINE
  8
0
 62
     5
 10
258.381622
 20
-232.833740
 11
258.381622
 21
-236.151566
  0
LINE
  8
0
 62
     5
 10
258.381622
 20
-236.151566
 11
270.823547
 21
-236.151566
  0
LINE
  8
0
 62
     5
 10
258.381622
 20
-249.146469
 11
275.247345
 21
-249.146469
  0
LINE
  8
0
 62
     5
 10
258.381622
 20
-245.828644
 11
270.823547
 21
-245.828644
  0
LINE
  8
0
 62
     5
 10
258.381622
 20
-232.833740
 11
273.035400
 21
-232.833740
  0
LINE
  8
0
 62
     5
 10
270.823547
 20
-236.151566
 11
270.823547
 21
-245.828644
  0
LINE
  8
0
 62
     5
 10
275.247345
 20
-235.045654
 11
275.247345
 21
-249.146469
  0
LINE
  8
0
 62
     5
 10
258.381622
 20
-245.828644
 11
258.381622
 21
-249.146469
  0
LINE
  8
0
 62
     5
 10
293.495392
 20
-236.151566
 11
293.495392
 21
-246.934647
  0
LINE
  8
0
 62
     5
 10
277.735657
 20
-232.833740
 11
277.735657
 21
-236.151566
  0
LINE
  8
0
 62
     5
 10
293.937836
 20
-232.584961
 11
295.513824
 21
-232.584961
  0
LINE
  8
0
 62
     5
 10
293.937836
 20
-230.373016
 11
295.513824
 21
-230.373016
  0
LINE
  8
0
 62
     5
 10
295.513824
 20
-230.373016
 11
295.513824
 21
-232.584961
  0
LINE
  8
0
 62
     5
 10
293.937836
 20
-230.373016
 11
293.937836
 21
-232.584961
  0
LINE
  8
0
 62
     5
 10
293.108276
 20
-230.373016
 11
293.108276
 21
-232.584961
  0
LINE
  8
0
 62
     5
 10
282.766052
 20
-230.373016
 11
286.200897
 21
-230.373016
  0
LINE
  8
0
 62
     5
 10
285.541260
 20
-232.833466
 11
286.200562
 21
-230.372711
  0
LINE
  8
0
 62
     5
 10
282.106689
 20
-232.833710
 11
282.766022
 21
-230.372986
  0
LINE
  8
0
 62
     5
 10
285.541565
 20
-232.833740
 11
290.177551
 21
-232.833740
  0
LINE
  8
0
 62
     5
 10
284.652557
 20
-236.151566
 11
289.071625
 21
-236.151566
  0
LINE
  8
0
 62
     5
 10
286.642853
 20
-249.146469
 11
291.283569
 21
-249.146469
  0
LINE
  8
0
 62
     5
 10
285.753693
 20
-245.828583
 11
286.642731
 21
-249.146347
  0
LINE
  8
0
 62
     5
 10
285.753754
 20
-245.828644
 11
289.071625
 21
-245.828644
  0
LINE
  8
0
 62
     5
 10
281.170746
 20
-249.146637
 11
284.652679
 21
-236.151733
  0
LINE
  8
0
 62
     5
 10
277.735657
 20
-236.151566
 11
281.217682
 21
-236.151566
  0
LINE
  8
0
 62
     5
 10
277.735413
 20
-249.146210
 11
281.217468
 21
-236.151337
  0
LINE
  8
0
 62
     5
 10
277.735657
 20
-249.146469
 11
281.170593
 21
-249.146469
  0
LINE
  8
0
 62
     5
 10
277.735657
 20
-232.833740
 11
282.106689
 21
-232.833740
  0
LINE
  8
0
 62
     5
 10
289.071625
 20
-236.151566
 11
289.071625
 21
-245.828644
  0
LINE
  8
0
 62
     5
 10
291.532288
 20
-230.373016
 11
293.108276
 21
-230.373016
  0
LINE
  8
0
 62
     5
 10
291.532288
 20
-232.584961
 11
293.108276
 21
-232.584961
  0
LINE
  8
0
 62
     5
 10
291.532288
 20
-230.373016
 11
291.532288
 21
-232.584961
  0
LINE
  8
0
 62
     5
 10
301.513550
 20
-230.373016
 11
305.937286
 21
-230.373016
  0
LINE
  8
0
 62
     5
 10
308.342316
 20
-240.195053
 11
311.296204
 21
-238.817642
  0
LINE
  8
0
 62
     5
 10
305.937286
 20
-242.734406
 11
305.937286
 21
-249.146469
  0
LINE
  8
0
 62
     5
 10
301.513550
 20
-243.379044
 11
301.513550
 21
-249.146469
  0
LINE
  8
0
 62
     5
 10
305.937286
 20
-232.833740
 11
310.361115
 21
-232.833740
  0
LINE
  8
0
 62
     5
 10
305.937286
 20
-230.373016
 11
305.937286
 21
-232.833740
  0
LINE
  8
0
 62
     5
 10
301.513550
 20
-230.373016
 11
301.513550
 21
-232.833740
  0
LINE
  8
0
 62
     5
 10
312.572998
 20
-235.045654
 11
312.572998
 21
-236.812775
  0
LINE
  8
0
 62
     5
 10
308.342377
 20
-240.195038
 11
312.573395
 21
-242.168030
  0
LINE
  8
0
 62
     5
 10
305.937256
 20
-242.734329
 11
312.573059
 21
-245.828613
  0
LINE
  8
0
 62
     5
 10
296.260284
 20
-242.167801
 11
296.260284
 21
-245.828644
  0
LINE
  8
0
 62
     5
 10
296.260742
 20
-242.168167
 11
309.162567
 21
-236.151932
  0
LINE
  8
0
 62
     5
 10
296.260254
 20
-245.828598
 11
301.513580
 21
-243.378937
  0
LINE
  8
0
 62
     5
 10
312.572998
 20
-242.167801
 11
312.572998
 21
-245.828644
  0
LINE
  8
0
 62
     5
 10
296.260284
 20
-232.833740
 11
296.260284
 21
-236.151566
  0
LINE
  8
0
 62
     5
 10
301.513550
 20
-249.146469
 11
305.937286
 21
-249.146469
  0
LINE
  8
0
 62
     5
 10
296.260284
 20
-236.151566
 11
309.162079
 21
-236.151566
  0
LINE
  8
0
 62
     5
 10
296.260284
 20
-232.833740
 11
301.513550
 21
-232.833740
  0
LINE
  8
0
 62
     5
 10
327.503998
 20
-236.404739
 11
328.730042
 21
-235.917068
  0
LINE
  8
0
 62
     5
 10
327.503357
 20
-236.404404
 11
327.503357
 21
-249.146469
  0
LINE
  8
0
 62
     5
 10
323.079498
 20
-249.146469
 11
327.503357
 21
-249.146469
  0
LINE
  8
0
 62
     5
 10
313.955292
 20
-241.792511
 11
323.079376
 21
-238.163742
  0
LINE
  8
0
 62
     5
 10
313.955536
 20
-238.221954
 11
326.806152
 21
-233.111084
  0
LINE
  8
0
 62
     5
 10
323.079498
 20
-238.163773
 11
323.079498
 21
-249.146469
  0
LINE
  8
0
 62
     5
 10
327.503357
 20
-231.368408
 11
327.503357
 21
-232.083389
  0
LINE
  8
0
 62
     5
 10
330.821106
 20
-231.368408
 11
330.821106
 21
-232.833755
  0
LINE
  8
0
 62
     5
 10
313.955444
 20
-238.221893
 11
313.955444
 21
-241.792496
  0
LINE
  8
0
 62
     5
 10
327.503357
 20
-231.368408
 11
330.821106
 21
-231.368408
  0
LINE
  8
0
  6
CENTER
 10
-275.873566
 20
-104.558479
 11
134.126434
 21
-104.558479
  0
LINE
  8
0
 10
129.126434
 20
-84.558479
 11
129.126434
 21
-124.558479
  0
LINE
  8
0
 10
106.126434
 20
-84.558479
 11
106.126434
 21
-126.558479
  0
LINE
  8
0
 10
106.126434
 20
-84.558479
 11
129.126434
 21
-84.558479
  0
LINE
  8
0
 10
106.126434
 20
-124.558479
 11
129.126434
 21
-124.558479
  0
LINE
  8
0
  6
CENTER
 10
120.126434
 20
-118.058479
 11
132.126434
 21
-118.058479
  0
LINE
  8
0
 10
123.126434
 20
-111.558479
 11
123.126434
 21
-124.558479
  0
LINE
  8
0
 10
123.126434
 20
-111.558479
 11
129.126434
 21
-111.558479
  0
LINE
  8
0
 10
123.126434
 20
-112.058479
 11
123.826447
 21
-112.058479
  0
LINE
  8
0
 10
123.126434
 20
-124.058479
 11
123.826447
 21
-124.058479
  0
LINE
  8
0
 10
124.623871
 20
-115.749100
 11
128.126434
 21
-115.749100
  0
LINE
  8
0
 10
124.623871
 20
-120.367889
 11
128.126434
 21
-120.367889
  0
LINE
  8
0
 10
124.623871
 20
-113.439697
 11
128.126434
 21
-113.439697
  0
LINE
  8
0
 10
123.826447
 20
-112.058479
 11
123.826447
 21
-124.058479
  0
LINE
  8
0
 10
123.826401
 20
-112.058479
 11
124.623848
 21
-113.439697
  0
LINE
  8
0
 10
123.826431
 20
-124.058464
 11
124.623878
 21
-122.677246
  0
LINE
  8
0
 10
124.623871
 20
-113.439697
 11
124.623871
 21
-122.677254
  0
LINE
  8
0
 10
124.623871
 20
-122.677261
 11
128.126434
 21
-122.677261
  0
LINE
  8
0
 10
128.126434
 20
-113.439697
 11
128.126434
 21
-122.677261
  0
LINE
  8
0
 10
124.623871
 20
-86.439697
 11
128.126434
 21
-86.439697
  0
LINE
  8
0
 10
128.126434
 20
-95.677261
 11
128.126434
 21
-86.439697
  0
LINE
  8
0
  6
CENTER
 10
120.126434
 20
-91.058479
 11
132.126434
 21
-91.058479
  0
LINE
  8
0
 10
123.126434
 20
-97.558479
 11
123.126434
 21
-84.558479
  0
LINE
  8
0
 10
123.126434
 20
-97.558479
 11
129.126434
 21
-97.558479
  0
LINE
  8
0
 10
123.126434
 20
-97.058479
 11
123.826447
 21
-97.058479
  0
LINE
  8
0
 10
123.126434
 20
-85.058479
 11
123.826447
 21
-85.058479
  0
LINE
  8
0
 10
124.623871
 20
-93.367859
 11
128.126434
 21
-93.367859
  0
LINE
  8
0
 10
124.623871
 20
-88.749069
 11
128.126434
 21
-88.749069
  0
LINE
  8
0
 10
124.623871
 20
-95.677261
 11
128.126434
 21
-95.677261
  0
LINE
  8
0
 10
123.826447
 20
-97.058479
 11
123.826447
 21
-85.058479
  0
LINE
  8
0
 10
123.826431
 20
-97.058472
 11
124.623886
 21
-95.677238
  0
LINE
  8
0
 10
123.826469
 20
-85.058472
 11
124.623917
 21
-86.439674
  0
LINE
  8
0
 10
124.623871
 20
-95.677261
 11
124.623871
 21
-86.439705
  0
LINE
  8
0
  6
CENTER
 10
120.626434
 20
-96.558479
 11
120.626434
 21
-112.558479
  0
LINE
  8
0
 10
118.126450
 20
-106.001831
 11
120.626450
 21
-107.445206
  0
LINE
  8
0
 10
120.626404
 20
-107.445229
 11
123.126404
 21
-106.001854
  0
LINE
  8
0
 10
123.126434
 20
-106.001862
 11
123.126434
 21
-103.115105
  0
LINE
  8
0
 10
123.126427
 20
-103.115120
 11
120.626404
 21
-101.671730
  0
LINE
  8
0
 10
120.626457
 20
-101.671791
 11
118.126465
 21
-103.115166
  0
LINE
  8
0
 10
118.126434
 20
-103.115105
 11
118.126434
 21
-106.001854
  0
LINE
  8
0
  6
CENTER
 10
111.126434
 20
-93.058479
 11
111.126434
 21
-103.058479
  0
LINE
  8
0
  6
CENTER
 10
106.126434
 20
-98.058479
 11
116.126434
 21
-98.058479
  0
LINE
  8
0
 10
109.388367
 20
-100.503708
 11
113.571671
 21
-96.320412
  0
LINE
  8
0
 10
108.681259
 20
-99.796600
 11
112.864563
 21
-95.613304
  0
LINE
  8
0
  6
CENTER
 10
-261.873566
 20
-118.058479
 11
-273.873566
 21
-118.058479
  0
LINE
  8
0
 10
-264.873566
 20
-111.558479
 11
-264.873566
 21
-124.558479
  0
LINE
  8
0
 10
-264.873566
 20
-111.558479
 11
-270.873566
 21
-111.558479
  0
LINE
  8
0
 10
-264.873566
 20
-112.058479
 11
-265.573547
 21
-112.058479
  0
LINE
  8
0
 10
-264.873566
 20
-124.058479
 11
-265.573547
 21
-124.058479
  0
LINE
  8
0
 10
-266.371002
 20
-115.749100
 11
-269.873566
 21
-115.749100
  0
LINE
  8
0
 10
-266.371002
 20
-120.367889
 11
-269.873566
 21
-120.367889
  0
LINE
  8
0
 10
-266.371002
 20
-113.439697
 11
-269.873566
 21
-113.439697
  0
LINE
  8
0
 10
-265.573547
 20
-112.058479
 11
-265.573547
 21
-124.058479
  0
LINE
  8
0
 10
-265.573517
 20
-112.058495
 11
-266.370972
 21
-113.439713
  0
LINE
  8
0
 10
-265.573578
 20
-124.058495
 11
-266.371033
 21
-122.677284
  0
LINE
  8
0
 10
-266.371002
 20
-113.439697
 11
-266.371002
 21
-122.677254
  0
LINE
  8
0
 10
-266.371002
 20
-122.677261
 11
-269.873566
 21
-122.677261
  0
LINE
  8
0
 10
-269.873566
 20
-113.439697
 11
-269.873566
 21
-122.677261
  0
LINE
  8
0
  6
CENTER
 10
-262.373566
 20
-96.558479
 11
-262.373566
 21
-112.558479
  0
LINE
  8
0
 10
-259.873505
 20
-106.001839
 11
-262.373505
 21
-107.445213
  0
LINE
  8
0
 10
-262.373505
 20
-107.445152
 11
-264.873505
 21
-106.001778
  0
LINE
  8
0
 10
-264.873535
 20
-106.001862
 11
-264.873535
 21
-103.115105
  0
LINE
  8
0
 10
-264.873566
 20
-103.115128
 11
-262.373566
 21
-101.671753
  0
LINE
  8
0
 10
-262.373535
 20
-101.671692
 11
-259.873535
 21
-103.115067
  0
LINE
  8
0
 10
-259.873596
 20
-103.115105
 11
-259.873596
 21
-106.001854
  0
LINE
  8
0
  6
CENTER
 10
-252.873566
 20
-93.058479
 11
-252.873566
 21
-103.058479
  0
LINE
  8
0
  6
CENTER
 10
-247.873566
 20
-98.058479
 11
-257.873566
 21
-98.058479
  0
LINE
  8
0
 10
-251.135483
 20
-100.503723
 11
-255.318802
 21
-96.320419
  0
LINE
  8
0
 10
-250.428375
 20
-99.796570
 11
-254.611664
 21
-95.613266
  0
LINE
  8
0
 10
-266.371002
 20
-95.677261
 11
-266.371002
 21
-86.439705
  0
LINE
  8
0
 10
-247.873566
 20
-84.558479
 11
-247.873566
 21
-126.558479
  0
LINE
  8
0
 10
-270.873566
 20
-84.558479
 11
-270.873566
 21
-124.558479
  0
LINE
  8
0
 10
-247.873566
 20
-84.558479
 11
-270.873566
 21
-84.558479
  0
LINE
  8
0
 10
-266.371002
 20
-86.439697
 11
-269.873566
 21
-86.439697
  0
LINE
  8
0
 10
-269.873566
 20
-95.677261
 11
-269.873566
 21
-86.439697
  0
LINE
  8
0
  6
CENTER
 10
-261.873566
 20
-91.058479
 11
-273.873566
 21
-91.058479
  0
LINE
  8
0
 10
-264.873566
 20
-97.558479
 11
-264.873566
 21
-84.558479
  0
LINE
  8
0
 10
-264.873566
 20
-97.558479
 11
-270.873566
 21
-97.558479
  0
LINE
  8
0
 10
-264.873566
 20
-97.058479
 11
-265.573547
 21
-97.058479
  0
LINE
  8
0
 10
-264.873566
 20
-85.058479
 11
-265.573547
 21
-85.058479
  0
LINE
  8
0
 10
-266.371002
 20
-93.367859
 11
-269.873566
 21
-93.367859
  0
LINE
  8
0
 10
-266.371002
 20
-88.749069
 11
-269.873566
 21
-88.749069
  0
LINE
  8
0
 10
-266.371002
 20
-95.677261
 11
-269.873566
 21
-95.677261
  0
LINE
  8
0
 10
-265.573547
 20
-97.058479
 11
-265.573547
 21
-85.058479
  0
LINE
  8
0
 10
-265.573517
 20
-97.058464
 11
-266.370972
 21
-95.677246
  0
LINE
  8
0
 10
-265.573517
 20
-85.058495
 11
-266.370972
 21
-86.439713
  0
LINE
  8
0
 10
-247.873566
 20
-124.558479
 11
-270.873566
 21
-124.558479
  0
LINE
  8
0
 10
-247.873566
 20
-126.558479
 11
106.126434
 21
-126.558479
  0
LINE
  8
0
 10
-247.873566
 20
-86.558479
 11
106.126434
 21
-86.558479
  0
LINE
  8
0
 10
86.126434
 20
-125.558479
 11
86.126434
 21
-126.558479
  0
LINE
  8
0
 10
72.844452
 20
-125.558479
 11
86.126434
 21
-125.558479
  0
LINE
  8
0
 10
79.977814
 20
-122.058479
 11
106.126434
 21
-122.058479
  0
LINE
  8
0
 10
-247.873566
 20
-108.158478
 11
106.126434
 21
-108.158478
  0
LINE
  8
0
 10
-247.873566
 20
-100.958481
 11
106.126434
 21
-100.958481
  0
LINE
  8
0
 10
-247.873566
 20
-95.958481
 11
106.126434
 21
-95.958481
  0
LINE
  8
0
 10
-247.873566
 20
-113.158478
 11
106.126434
 21
-113.158478
  0
LINE
  8
0
 10
-247.873566
 20
-94.058479
 11
106.126434
 21
-94.058479
  0
LINE
  8
0
 10
-247.873566
 20
-115.058479
 11
106.126434
 21
-115.058479
  0
LINE
  8
0
 10
-247.873566
 20
-122.558479
 11
78.822205
 21
-122.558479
  0
LINE
  8
0
  6
CENTER
 10
-170.873566
 20
-61.558479
 11
-170.873566
 21
-131.558472
  0
LINE
  8
0
  6
CENTER
 10
29.126434
 20
-81.558479
 11
29.126434
 21
-131.558472
  0
LINE
  8
0
 10
-230.873566
 20
-66.558479
 11
-173.873566
 21
-66.558479
  0
LINE
  8
0
 10
-110.873566
 20
-66.558479
 11
-110.873566
 21
-84.558479
  0
LINE
  8
0
 10
-230.873566
 20
-66.558479
 11
-230.873566
 21
-84.558479
  0
LINE
  8
0
 10
-230.873566
 20
-84.558479
 11
-110.873566
 21
-84.558479
  0
LINE
  8
0
  6
CENTER
 10
-195.873566
 20
-66.058479
 11
-195.873566
 21
-77.058479
  0
LINE
  8
0
  6
CENTER
 10
-201.373566
 20
-71.558479
 11
-190.373566
 21
-71.558479
  0
LINE
  8
0
  6
CENTER
 10
-145.873566
 20
-66.058479
 11
-145.873566
 21
-77.058479
  0
LINE
  8
0
  6
CENTER
 10
-140.373566
 20
-71.558479
 11
-151.373566
 21
-71.558479
  0
LINE
  8
0
 10
-167.873566
 20
-66.558479
 11
-110.873566
 21
-66.558479
  0
LINE
  8
0
 10
-173.873566
 20
-66.558479
 11
-173.873566
 21
-70.558479
  0
LINE
  8
0
 10
-167.873566
 20
-66.558479
 11
-167.873566
 21
-70.558479
  0
LINE
  8
0
 10
-172.873566
 20
-71.558479
 11
-168.873566
 21
-71.558479
  0
LINE
  8
0
  6
CENTER
 10
-275.873505
 20
65.441513
 11
134.126495
 21
65.441513
  0
LINE
  8
0
 10
-247.873505
 20
85.441505
 11
-247.873505
 21
45.441505
  0
LINE
  8
0
 10
-270.873505
 20
85.441505
 11
-270.873505
 21
45.441505
  0
LINE
  8
0
 10
-247.873505
 20
85.441505
 11
-270.873505
 21
85.441505
  0
LINE
  8
0
 10
-247.873505
 20
45.441505
 11
-270.873505
 21
45.441505
  0
LINE
  8
0
 10
-269.873505
 20
74.941505
 11
-269.873505
 21
82.941505
  0
LINE
  8
0
  6
CENTER
 10
-261.873505
 20
78.941505
 11
-273.873505
 21
78.941505
  0
LINE
  8
0
 10
-264.873505
 20
72.441505
 11
-264.873505
 21
85.441505
  0
LINE
  8
0
 10
-264.873505
 20
72.441505
 11
-270.873505
 21
72.441505
  0
LINE
  8
0
 10
-264.873505
 20
72.941505
 11
-265.573486
 21
72.941505
  0
LINE
  8
0
 10
-264.873505
 20
84.941505
 11
-265.573486
 21
84.941505
  0
LINE
  8
0
 10
-265.573486
 20
72.941505
 11
-265.573486
 21
84.941505
  0
LINE
  8
0
 10
-265.573425
 20
72.941513
 11
-266.370880
 21
74.322731
  0
LINE
  8
0
 10
-265.573395
 20
84.941452
 11
-266.370850
 21
83.560242
  0
LINE
  8
0
 10
-266.370941
 20
74.322723
 11
-266.370941
 21
83.560280
  0
LINE
  8
0
 10
-266.370941
 20
74.941505
 11
-269.873505
 21
74.941505
  0
LINE
  8
0
 10
-266.370941
 20
82.941505
 11
-269.873505
 21
82.941505
  0
LINE
  8
0
 10
-266.370941
 20
78.941505
 11
-269.873505
 21
78.941505
  0
LINE
  8
0
 10
-269.873505
 20
55.941521
 11
-269.873505
 21
47.941521
  0
LINE
  8
0
  6
CENTER
 10
-261.873505
 20
51.941521
 11
-273.873505
 21
51.941521
  0
LINE
  8
0
 10
-264.873505
 20
57.941521
 11
-265.573486
 21
57.941521
  0
LINE
  8
0
 10
-264.873505
 20
45.941521
 11
-265.573486
 21
45.941521
  0
LINE
  8
0
 10
-265.573486
 20
57.941521
 11
-265.573486
 21
45.941521
  0
LINE
  8
0
 10
-265.573395
 20
57.941521
 11
-266.370850
 21
56.560299
  0
LINE
  8
0
 10
-265.573395
 20
45.941555
 11
-266.370850
 21
47.322784
  0
LINE
  8
0
 10
-266.370941
 20
56.560303
 11
-266.370941
 21
47.322746
  0
LINE
  8
0
 10
-266.370941
 20
55.941521
 11
-269.873505
 21
55.941521
  0
LINE
  8
0
 10
-266.370941
 20
47.941521
 11
-269.873505
 21
47.941521
  0
LINE
  8
0
 10
-266.370941
 20
51.941521
 11
-269.873505
 21
51.941521
  0
LINE
  8
0
 10
-264.873505
 20
58.441521
 11
-270.873505
 21
58.441521
  0
LINE
  8
0
 10
-264.873505
 20
58.441521
 11
-264.873505
 21
45.441521
  0
LINE
  8
0
 10
123.126495
 20
58.441521
 11
123.126495
 21
45.441521
  0
LINE
  8
0
 10
106.126495
 20
85.441505
 11
106.126495
 21
45.441505
  0
LINE
  8
0
 10
129.126495
 20
85.441505
 11
129.126495
 21
45.441505
  0
LINE
  8
0
 10
106.126495
 20
85.441505
 11
129.126495
 21
85.441505
  0
LINE
  8
0
 10
106.126495
 20
45.441505
 11
129.126495
 21
45.441505
  0
LINE
  8
0
 10
128.126495
 20
74.941505
 11
128.126495
 21
82.941505
  0
LINE
  8
0
  6
CENTER
 10
120.126495
 20
78.941505
 11
132.126495
 21
78.941505
  0
LINE
  8
0
 10
123.126495
 20
72.441505
 11
123.126495
 21
85.441505
  0
LINE
  8
0
 10
123.126495
 20
72.441505
 11
129.126495
 21
72.441505
  0
LINE
  8
0
 10
123.126495
 20
72.941505
 11
123.826477
 21
72.941505
  0
LINE
  8
0
 10
123.126495
 20
84.941505
 11
123.826477
 21
84.941505
  0
LINE
  8
0
 10
123.826477
 20
72.941505
 11
123.826477
 21
84.941505
  0
LINE
  8
0
 10
123.826431
 20
72.941498
 11
124.623886
 21
74.322708
  0
LINE
  8
0
 10
123.826401
 20
84.941452
 11
124.623856
 21
83.560242
  0
LINE
  8
0
 10
124.623932
 20
74.322723
 11
124.623932
 21
83.560280
  0
LINE
  8
0
 10
124.623932
 20
74.941505
 11
128.126495
 21
74.941505
  0
LINE
  8
0
 10
124.623932
 20
82.941505
 11
128.126495
 21
82.941505
  0
LINE
  8
0
 10
124.623932
 20
78.941505
 11
128.126495
 21
78.941505
  0
LINE
  8
0
 10
128.126495
 20
55.941521
 11
128.126495
 21
47.941521
  0
LINE
  8
0
  6
CENTER
 10
120.126495
 20
51.941521
 11
132.126495
 21
51.941521
  0
LINE
  8
0
 10
123.126495
 20
57.941521
 11
123.826477
 21
57.941521
  0
LINE
  8
0
 10
123.126495
 20
45.941521
 11
123.826477
 21
45.941521
  0
LINE
  8
0
 10
123.826477
 20
57.941521
 11
123.826477
 21
45.941521
  0
LINE
  8
0
 10
123.826385
 20
57.941521
 11
124.623848
 21
56.560291
  0
LINE
  8
0
 10
123.826447
 20
45.941521
 11
124.623901
 21
47.322750
  0
LINE
  8
0
 10
124.623932
 20
56.560303
 11
124.623932
 21
47.322746
  0
LINE
  8
0
 10
124.623932
 20
55.941521
 11
128.126495
 21
55.941521
  0
LINE
  8
0
 10
124.623932
 20
47.941521
 11
128.126495
 21
47.941521
  0
LINE
  8
0
 10
124.623932
 20
51.941521
 11
128.126495
 21
51.941521
  0
LINE
  8
0
 10
123.126495
 20
58.441521
 11
129.126495
 21
58.441521
  0
LINE
  8
0
 10
-230.873505
 20
78.441513
 11
-230.873505
 21
52.441513
  0
LINE
  8
0
 10
-110.873505
 20
78.441513
 11
-110.873505
 21
52.441513
  0
LINE
  8
0
 10
-230.873505
 20
52.441513
 11
-110.873505
 21
52.441513
  0
LINE
  8
0
 10
-230.873505
 20
78.441513
 11
-110.873505
 21
78.441513
  0
LINE
  8
0
 10
-231.873505
 20
77.441513
 11
-231.873505
 21
53.441513
  0
LINE
  8
0
 10
-109.873505
 20
77.441513
 11
-109.873505
 21
53.441513
  0
LINE
  8
0
 10
-173.873505
 20
78.441513
 11
-173.873505
 21
72.941513
  0
LINE
  8
0
 10
-167.873505
 20
78.441513
 11
-167.873505
 21
72.941513
  0
LINE
  8
0
 10
-173.873505
 20
57.941513
 11
-173.873505
 21
52.441513
  0
LINE
  8
0
 10
-167.873505
 20
57.941513
 11
-167.873505
 21
52.441513
  0
LINE
  8
0
  6
CENTER
 10
29.126495
 20
88.441513
 11
29.126495
 21
42.441513
  0
LINE
  8
0
 10
-165.573502
 20
72.941513
 11
-165.573502
 21
57.941513
  0
LINE
  8
0
 10
-176.173508
 20
72.941513
 11
-176.173508
 21
57.941513
  0
LINE
  8
0
 10
-176.173508
 20
57.941513
 11
-165.573502
 21
57.941513
  0
LINE
  8
0
 10
-176.173508
 20
72.941513
 11
-165.573502
 21
72.941513
  0
LINE
  8
0
  6
CENTER
 10
-210.873505
 20
69.941513
 11
-210.873505
 21
60.941513
  0
LINE
  8
0
  6
CENTER
 10
-130.873505
 20
69.941513
 11
-130.873505
 21
60.941513
  0
LINE
  8
0
 10
-247.873505
 20
83.441513
 11
106.126495
 21
83.441513
  0
LINE
  8
0
 10
-247.873505
 20
47.441513
 11
106.126495
 21
47.441513
  0
LINE
  8
0
 10
-247.873505
 20
58.241512
 11
-231.873505
 21
58.241512
  0
LINE
  8
0
 10
-247.873505
 20
72.641510
 11
-231.873505
 21
72.641510
  0
LINE
  8
0
 10
-109.873505
 20
72.641510
 11
106.126495
 21
72.641510
  0
LINE
  8
0
 10
-109.873505
 20
58.241512
 11
106.126495
 21
58.241512
  0
LINE
  8
0
  6
CENTER
 10
-170.873505
 20
88.441513
 11
-170.873505
 21
42.441513
  0
LINE
  8
0
  6
CENTER
 10
259.126404
 20
-61.558495
 11
259.126404
 21
-131.558487
  0
LINE
  8
0
  6
CENTER
 10
234.126404
 20
-104.558495
 11
284.126404
 21
-104.558495
  0
LINE
  8
0
 10
239.126404
 20
-91.058495
 11
239.126404
 21
-118.058495
  0
LINE
  8
0
 10
279.126404
 20
-91.058495
 11
279.126404
 21
-118.058495
  0
LINE
  8
0
 10
250.126404
 20
-126.558495
 11
256.926422
 21
-126.558495
  0
LINE
  8
0
 10
246.126404
 20
-66.558495
 11
272.126404
 21
-66.558495
  0
LINE
  8
0
 10
245.626404
 20
-124.558495
 11
252.574829
 21
-124.558495
  0
LINE
  8
0
 10
245.626404
 20
-84.558495
 11
272.626404
 21
-84.558495
  0
LINE
  8
0
  6
CENTER
 10
245.626404
 20
-109.558495
 11
245.626404
 21
-126.558495
  0
LINE
  8
0
  6
CENTER
 10
237.126404
 20
-118.058495
 11
254.126404
 21
-118.058495
  0
LINE
  8
0
 10
241.626450
 20
-120.367928
 11
245.626450
 21
-122.677330
  0
LINE
  8
0
 10
245.626450
 20
-122.677353
 11
249.626450
 21
-120.367958
  0
LINE
  8
0
 10
249.626404
 20
-120.367897
 11
249.626404
 21
-115.749100
  0
LINE
  8
0
 10
249.626419
 20
-115.749107
 11
245.626419
 21
-113.439705
  0
LINE
  8
0
 10
245.626465
 20
-113.439796
 11
241.626480
 21
-115.749191
  0
LINE
  8
0
 10
241.626404
 20
-115.749115
 11
241.626404
 21
-120.367905
  0
LINE
  8
0
  6
CENTER
 10
245.626404
 20
-99.558495
 11
245.626404
 21
-82.558495
  0
LINE
  8
0
  6
CENTER
 10
237.126404
 20
-91.058495
 11
254.126404
 21
-91.058495
  0
LINE
  8
0
 10
241.626404
 20
-88.749023
 11
245.626404
 21
-86.439621
  0
LINE
  8
0
 10
245.626389
 20
-86.439674
 11
249.626389
 21
-88.749077
  0
LINE
  8
0
 10
249.626404
 20
-88.749092
 11
249.626404
 21
-93.367889
  0
LINE
  8
0
 10
249.626404
 20
-93.367882
 11
245.626419
 21
-95.677269
  0
LINE
  8
0
 10
245.626419
 20
-95.677292
 11
241.626419
 21
-93.367905
  0
LINE
  8
0
 10
241.626404
 20
-93.367874
 11
241.626404
 21
-88.749084
  0
LINE
  8
0
  6
CENTER
 10
272.626404
 20
-109.558495
 11
272.626404
 21
-126.558495
  0
LINE
  8
0
  6
CENTER
 10
281.126404
 20
-118.058495
 11
264.126404
 21
-118.058495
  0
LINE
  8
0
 10
276.626343
 20
-120.367844
 11
272.626343
 21
-122.677246
  0
LINE
  8
0
 10
272.626343
 20
-122.677277
 11
268.626373
 21
-120.367889
  0
LINE
  8
0
 10
268.626404
 20
-120.367897
 11
268.626404
 21
-115.749100
  0
LINE
  8
0
 10
268.626404
 20
-115.749069
 11
272.626373
 21
-113.439674
  0
LINE
  8
0
 10
272.626404
 20
-113.439735
 11
276.626404
 21
-115.749130
  0
LINE
  8
0
 10
276.626404
 20
-115.749115
 11
276.626404
 21
-120.367905
  0
LINE
  8
0
  6
CENTER
 10
272.626404
 20
-99.558495
 11
272.626404
 21
-82.558495
  0
LINE
  8
0
  6
CENTER
 10
281.126404
 20
-91.058495
 11
264.126404
 21
-91.058495
  0
LINE
  8
0
 10
276.626373
 20
-88.749077
 11
272.626404
 21
-86.439690
  0
LINE
  8
0
 10
272.626404
 20
-86.439667
 11
268.626434
 21
-88.749054
  0
LINE
  8
0
 10
268.626404
 20
-88.749092
 11
268.626404
 21
-93.367889
  0
LINE
  8
0
 10
268.626434
 20
-93.367889
 11
272.626434
 21
-95.677277
  0
LINE
  8
0
 10
272.626465
 20
-95.677345
 11
276.626465
 21
-93.367958
  0
LINE
  8
0
 10
276.626404
 20
-93.367874
 11
276.626404
 21
-88.749084
  0
LINE
  8
0
 10
252.126404
 20
-124.558495
 11
252.126404
 21
-118.058495
  0
LINE
  8
0
 10
266.126404
 20
-84.558495
 11
266.126404
 21
-91.058495
  0
LINE
  8
0
 10
239.126404
 20
-97.558495
 11
245.626404
 21
-97.558495
  0
LINE
  8
0
 10
239.126404
 20
-111.558495
 11
245.626404
 21
-111.558495
  0
LINE
  8
0
 10
272.626404
 20
-97.558495
 11
279.126404
 21
-97.558495
  0
LINE
  8
0
 10
272.626404
 20
-111.558495
 11
279.126404
 21
-111.558495
  0
LINE
  8
0
 10
252.126404
 20
-91.058495
 11
252.126404
 21
-84.558495
  0
LINE
  8
0
 10
266.126404
 20
-118.058495
 11
266.126404
 21
-124.558495
  0
LINE
  8
0
  6
CENTER
 10
269.126404
 20
-97.058495
 11
269.126404
 21
-112.058495
  0
LINE
  8
0
  6
CENTER
 10
253.126404
 20
-97.058495
 11
253.126404
 21
-112.058495
  0
LINE
  8
0
 10
246.126404
 20
-66.558495
 11
246.126404
 21
-84.558495
  0
LINE
  8
0
 10
272.126404
 20
-66.558495
 11
272.126404
 21
-84.558495
  0
LINE
  8
0
  6
CENTER
 10
243.126404
 20
-71.558495
 11
275.126404
 21
-71.558495
  0
LINE
  8
0
 10
261.326385
 20
-125.558495
 11
261.326385
 21
-126.558495
  0
LINE
  8
0
 10
256.926422
 20
-125.558495
 11
256.926422
 21
-126.558495
  0
LINE
  8
0
 10
261.326385
 20
-126.558495
 11
268.126404
 21
-126.558495
  0
LINE
  8
0
 10
268.126404
 20
-124.558495
 11
268.126404
 21
-126.558495
  0
LINE
  8
0
 10
250.126404
 20
-124.558495
 11
250.126404
 21
-126.558495
  0
LINE
  8
0
 10
265.677979
 20
-124.558495
 11
272.626404
 21
-124.558495
  0
LINE
  8
0
 10
255.376404
 20
-125.558495
 11
256.926422
 21
-125.558495
  0
LINE
  8
0
 10
261.326385
 20
-125.558495
 11
262.876404
 21
-125.558495
  0
LINE
  8
0
 10
255.376404
 20
-124.058495
 11
255.376404
 21
-125.558495
  0
LINE
  8
0
 10
262.876404
 20
-124.058495
 11
262.876404
 21
-125.558495
  0
LINE
  8
0
 10
257.376404
 20
-122.058495
 11
260.876404
 21
-122.058495
  0
LINE
  8
0
 10
-209.623611
 20
67.606606
 11
-187.779587
 21
105.441544
  0
LINE
  8
0
 10
-209.623596
 20
67.606606
 11
-208.329514
 21
72.436234
  0
LINE
  8
0
 10
-209.623627
 20
67.606613
 11
-206.088089
 21
71.142151
  0
LINE
  8
0
 10
-187.779587
 20
105.441544
 11
-128.333328
 21
105.441544
  0
LINE
  8
0
 10
118.194405
 20
-100.346100
 11
91.758919
 21
-54.558464
  0
LINE
  8
0
 10
118.194412
 20
-100.346107
 11
116.900314
 21
-95.516472
  0
LINE
  8
0
 10
118.194397
 20
-100.346092
 11
114.658859
 21
-96.810555
  0
LINE
  8
0
 10
40.641895
 20
-54.558464
 11
91.758919
 21
-54.558464
  0
LINE
  8
0
 10
-170.873566
 20
-131.558472
 11
-170.873566
 21
-167.058472
  0
LINE
  8
0
 10
29.126434
 20
-131.558472
 11
29.126434
 21
-167.058472
  0
LINE
  8
0
 10
-170.873566
 20
-164.558472
 11
29.126434
 21
-164.558472
  0
LINE
  8
0
 10
-170.873550
 20
-164.558456
 11
-166.043930
 21
-163.264359
  0
LINE
  8
0
 10
24.296803
 20
-165.852554
 11
29.126432
 21
-164.558456
  0
LINE
  8
0
 10
24.296806
 20
-163.264359
 11
29.126436
 21
-164.558456
  0
LINE
  8
0
 10
-170.873566
 20
-164.558472
 11
-166.043930
 21
-165.852554
  0
ARC
  8
0
 62
     5
 10
273.035400
 20
-235.045654
 40
2.211884
 50
0.000000
 51
90.000000
  0
ARC
  8
0
 62
     5
 10
291.283569
 20
-246.934647
 40
2.211899
 50
270.000000
 51
0.000000
  0
ARC
  8
0
 62
     5
 10
290.177551
 20
-236.151566
 40
3.317841
 50
0.000000
 51
90.000000
  0
ARC
  8
0
 62
     5
 10
310.361115
 20
-236.812775
 40
2.211890
 50
294.999969
 51
0.000000
  0
ARC
  8
0
 62
     5
 10
310.361115
 20
-235.045654
 40
2.211884
 50
0.000000
 51
90.000000
  0
ARC
  8
0
 62
     5
 10
327.503357
 20
-232.833755
 40
3.317840
 50
291.688385
 51
0.000000
  0
ARC
  8
0
 62
     5
 10
326.397308
 20
-232.083389
 40
1.105946
 50
291.688965
 51
0.000000
  0
ARC
  8
0
 10
-110.873566
 20
-85.558479
 40
1.000000
 50
270.000000
 51
90.000000
  0
ARC
  8
0
 10
-168.873566
 20
-70.558479
 40
1.000000
 50
270.000000
 51
0.000000
  0
ARC
  8
0
 10
-172.873566
 20
-70.558479
 40
1.000000
 50
180.000000
 51
270.000000
  0
CIRCLE
  8
0
 10
-195.873566
 20
-71.558479
 40
2.750000
  0
CIRCLE
  8
0
 10
-145.873566
 20
-71.558479
 40
2.750000
  0
CIRCLE
  8
0
 10
120.626434
 20
-104.558479
 40
4.864000
  0
CIRCLE
  8
0
 10
120.626434
 20
-104.558479
 40
4.283000
  0
CIRCLE
  8
0
 10
111.126434
 20
-98.058479
 40
3.000000
  0
CIRCLE
  8
0
 10
-262.373566
 20
-104.558479
 40
4.864000
  0
CIRCLE
  8
0
 10
-262.373566
 20
-104.558479
 40
4.283000
  0
CIRCLE
  8
0
 10
-252.873566
 20
-98.058479
 40
3.000000
  0
ARC
  8
0
 10
107.195526
 20
-186.550308
 40
70.000000
 50
90.875114
 51
121.015724
  0
ARC
  8
0
 10
-230.873566
 20
-85.558479
 40
1.000000
 50
90.000000
 51
270.000000
  0
CIRCLE
  8
0
 10
-130.873505
 20
65.441513
 40
2.067000
  0
CIRCLE
  8
0
 10
-210.873505
 20
65.441513
 40
2.500000
  0
CIRCLE
  8
0
 10
-210.873505
 20
65.441513
 40
2.067000
  0
CIRCLE
  8
0
 10
-130.873505
 20
65.441513
 40
2.500000
  0
ARC
  8
0
 10
-110.873505
 20
77.441513
 40
1.000000
 50
0.000000
 51
90.000000
  0
ARC
  8
0
 10
-110.873505
 20
53.441513
 40
1.000000
 50
270.000000
 51
0.000000
  0
ARC
  8
0
 10
-230.873505
 20
53.441513
 40
1.000000
 50
180.000000
 51
270.000000
  0
ARC
  8
0
 10
-230.873505
 20
77.441513
 40
1.000000
 50
90.000000
 51
180.000000
  0
ARC
  8
0
 10
260.876404
 20
-124.058495
 40
2.000000
 50
0.000000
 51
90.000000
  0
ARC
  8
0
 10
257.376404
 20
-124.058495
 40
2.000000
 50
90.000000
 51
180.000000
  0
ARC
  8
0
 10
259.126404
 20
-127.077728
 40
7.019231
 50
4.242217
 51
175.757782
  0
CIRCLE
  8
0
 10
245.626404
 20
-118.058495
 40
4.000000
  0
CIRCLE
  8
0
 10
245.626404
 20
-118.058495
 40
6.000000
  0
CIRCLE
  8
0
 10
245.626404
 20
-118.058495
 40
2.500000
  0
CIRCLE
  8
0
 10
245.626404
 20
-118.058495
 40
2.067000
  0
CIRCLE
  8
0
 10
245.626404
 20
-91.058495
 40
2.067000
  0
CIRCLE
  8
0
 10
245.626404
 20
-91.058495
 40
4.000000
  0
CIRCLE
  8
0
 10
245.626404
 20
-91.058495
 40
6.000000
  0
CIRCLE
  8
0
 10
245.626404
 20
-91.058495
 40
2.500000
  0
CIRCLE
  8
0
 10
272.626404
 20
-118.058495
 40
2.067000
  0
CIRCLE
  8
0
 10
272.626404
 20
-118.058495
 40
4.000000
  0
CIRCLE
  8
0
 10
272.626404
 20
-118.058495
 40
6.000000
  0
CIRCLE
  8
0
 10
272.626404
 20
-118.058495
 40
2.500000
  0
CIRCLE
  8
0
 10
272.626404
 20
-91.058495
 40
2.067000
  0
CIRCLE
  8
0
 10
272.626404
 20
-91.058495
 40
4.000000
  0
CIRCLE
  8
0
 10
272.626404
 20
-91.058495
 40
6.000000
  0
CIRCLE
  8
0
 10
272.626404
 20
-91.058495
 40
2.500000
  0
ARC
  8
0
 10
245.626404
 20
-91.058495
 40
6.500000
 50
90.000000
 51
179.999939
  0
ARC
  8
0
 10
245.626404
 20
-118.058495
 40
6.500000
 50
180.000000
 51
270.000000
  0
ARC
  8
0
 10
272.626404
 20
-118.058495
 40
6.500000
 50
270.000000
 51
0.000000
  0
ARC
  8
0
 10
272.626404
 20
-91.058495
 40
6.500000
 50
0.000000
 51
90.000000
  0
ARC
  8
0
 10
272.626404
 20
-91.058495
 40
6.500000
 50
180.000000
 51
270.000000
  0
ARC
  8
0
 10
245.626404
 20
-91.058495
 40
6.500000
 50
270.000000
 51
0.000000
  0
ARC
  8
0
 10
245.626404
 20
-118.058495
 40
6.500000
 50
0.000000
 51
90.000000
  0
ARC
  8
0
 10
272.626404
 20
-118.058495
 40
6.500000
 50
90.000000
 51
179.999939
  0
CIRCLE
  8
0
 10
269.126404
 20
-104.558495
 40
4.864000
  0
CIRCLE
  8
0
 10
269.126404
 20
-104.558495
 40
4.283000
  0
CIRCLE
  8
0
 10
253.126404
 20
-104.558495
 40
4.283000
  0
CIRCLE
  8
0
 10
253.126404
 20
-104.558495
 40
4.864000
  0
TEXT
  8
0
 10
226.462494
 20
233.607468
 40
8.500000
  1
DATE : SEP ,1991
 50
0.000000
 41
1.052631
 51
0.000000
  7
STANDARD
  0
TEXT
  8
0
 10
-366.896790
 20
232.257462
 40
10.000000
  1
RODLESS CYLINDER
 50
0.000000
 41
0.937799
 51
0.000000
  7
STANDARD
  0
TEXT
  8
0
 10
-347.052124
 20
187.956390
 40
10.000000
  1
MODEL : ORCA 25xSt(200)
 50
0.000000
 41
1.052632
 51
0.000000
  7
STANDARD
  0
TEXT
  8
0
 10
-187.029572
 20
105.141533
 40
7.000000
  1
2-M5x0.8
 50
0.000000
 41
1.052632
 51
0.000000
  7
STANDARD
  0
TEXT
  8
0
 10
40.508911
 20
-54.858467
 40
7.000000
  1
6-Rc1/8
 50
0.000000
 41
1.052632
 51
0.000000
  7
STANDARD
  0
TEXT
  8
0
 10
-92.623566
 20
-162.858475
 40
7.000000
  1
STROKE
 50
0.000000
 41
1.052632
 51
0.000000
  7
STANDARD
  0
ENDSEC
  0
EOF
