  0
SECTION
  2
HEADER
  0
ENDSEC
  0
SECTION
  2
TABLES
  0
TABLE
  2
LTYPE
 70
     4
  0
LTYPE
  2
CONTINUOUS
 70
    64
  3
Solid line
 72
    65
 73
     0
 40
0.000000
  0
LTYPE
  2
DASHED
 70
    64
  3
__ __ __ __ __ __ __ __ __ __ __ __ __ __ __
 72
    65
 73
     2
 40
3.500000
 49
2.000000
 49
-1.500000
  0
LTYPE
  2
CENTER
 70
    64
  3
____ _ ____ _ ____ _ ____ _ ____ _ ____ _ ____
 72
    65
 73
     4
 40
17.500000
 49
13.000000
 49
-1.500000
 49
1.500000
 49
-1.500000
  0
LTYPE
  2
PHANTOM
 70
    64
  3
_____ _ _ _____ _ _ _____ _ _ _____ _ _ ____  
 72
    65
 73
     6
 40
15.500000
 49
8.000000
 49
-1.500000
 49
1.500000
 49
-1.500000
 49
1.500000
 49
-1.500000
  0
LTYPE
  2
DASHED1
 70
    64
  3
__ __ __ __ __ __ __ __ __ __ __ __ __ __ __
 72
    65
 73
     2
 40
1.500000
 49
1.000000
 49
-0.500000
  0
LTYPE
  2
DASHED2
 70
    64
  3
__ __ __ __ __ __ __ __ __ __ __ __ __ __ __
 72
    65
 73
     2
 40
3.500000
 49
2.500000
 49
-1.000000
  0
LTYPE
  2
DASHED3
 70
    64
  3
__ __ __ __ __ __ __ __ __ __ __ __ __ __ __
 72
    65
 73
     2
 40
6.000000
 49
4.000000
 49
-2.000000
  0
LTYPE
  2
DASHED4
 70
    64
  3
__ __ __ __ __ __ __ __ __ __ __ __ __ __ __
 72
    65
 73
     2
 40
12.000000
 49
10.000000
 49
-2.000000
  0
LTYPE
  2
DASHED5
 70
    64
  3
__ __ __ __ __ __ __ __ __ __ __ __ __ __ __
 72
    65
 73
     2
 40
17.000000
 49
15.000000
 49
-2.000000
  0
LTYPE
  2
DASHED6
 70
    64
  3
__ __ __ __ __ __ __ __ __ __ __ __ __ __ __
 72
    65
 73
     2
 40
29.000000
 49
27.000000
 49
-2.000000
  0
LTYPE
  2
PHANTOM1
 70
    64
  3
_____ _ _ _____ _ _ _____ _ _ _____ _ _ ____  
 72
    65
 73
     6
 40
31.000000
 49
25.000000
 49
-1.500000
 49
1.000000
 49
-1.000000
 49
1.000000
 49
-1.500000
  0
LTYPE
  2
PHANTOM2
 70
    64
  3
_____ _ _ _____ _ _ _____ _ _ _____ _ _ ____  
 72
    65
 73
     6
 40
36.000000
 49
27.000000
 49
-1.500000
 49
2.500000
 49
-1.000000
 49
2.500000
 49
-1.500000
  0
LTYPE
  2
PHANTOM3
 70
    64
  3
_____ _ _ _____ _ _ _____ _ _ _____ _ _ ____  
 72
    65
 73
     6
 40
78.000000
 49
64.000000
 49
-2.000000
 49
4.000000
 49
-2.000000
 49
4.000000
 49
-2.000000
  0
LTYPE
  2
CENTER1
 70
    64
  3
____ _ ____ _ ____ _ ____ _ ____ _ ____ _ ____
 72
    65
 73
     4
 40
19.000000
 49
14.000000
 49
-1.000000
 49
3.000000
 49
-1.000000
  0
LTYPE
  2
CENTER2
 70
    64
  3
____ _ ____ _ ____ _ ____ _ ____ _ ____ _ ____
 72
    65
 73
     4
 40
28.500000
 49
25.000000
 49
-1.000000
 49
1.500000
 49
-1.000000
  0
LTYPE
  2
CENTER3
 70
    64
  3
____ _ ____ _ ____ _ ____ _ ____ _ ____ _ ____
 72
    65
 73
     4
 40
31.500000
 49
27.000000
 49
-1.000000
 49
2.500000
 49
-1.000000
  0
LTYPE
  2
CENTER4
 70
    64
  3
____ _ ____ _ ____ _ ____ _ ____ _ ____ _ ____
 72
    65
 73
     4
 40
50.000000
 49
45.000000
 49
-1.000000
 49
3.000000
 49
-1.000000
  0
LTYPE
  2
CENTER5
 70
    64
  3
____ _ ____ _ ____ _ ____ _ ____ _ ____ _ ____
 72
    65
 73
     4
 40
100.000000
 49
92.000000
 49
-2.000000
 49
4.000000
 49
-2.000000
  0
LTYPE
  2
SBK1
 70
    64
  3
______ _ _ _ ______ _ _ _ ______ _ _ _ _____  
 72
    65
 73
     8
 40
60.500000
 49
45.000000
 49
-2.000000
 49
2.500000
 49
-2.000000
 49
2.500000
 49
-2.000000
 49
2.500000
 49
-2.000000
  0
LTYPE
  2
SBK2
 70
    64
  3
______ _ _ _ ______ _ _ _ ______ _ _ _ _____  
 72
    65
 73
     8
 40
84.000000
 49
64.000000
 49
-2.000000
 49
4.000000
 49
-2.000000
 49
4.000000
 49
-2.000000
 49
4.000000
 49
-2.000000
  0
LTYPE
  2
STCH
 70
    64
  3
__ __ __ __ __ __ __ __ __ __ __ __ __ __ __
 72
    65
 73
     2
 40
3.000000
 49
1.000000
 49
-2.000000
  0
LTYPE
  2
MTCH
 70
    64
  3
_____ _ _ _____ _ _ _____ _ _ _____ _ _ ____  
 72
    65
 73
     6
 40
80.000000
 49
66.000000
 49
-2.000000
 49
4.000000
 49
-2.000000
 49
4.000000
 49
-2.000000
  0
ENDTAB
  0
TABLE
  2
LAYER
 70
     1
  0
LAYER
  2
0
 70
     0
 62
     7
  6
CONTINUOUS
  0
ENDTAB
  0
TABLE
  2
STYLE
 70
     1
  0
STYLE
  2
STANDARD
 70
     0
 40
0.000000
 41
1.000000
 50
0.000000
 71
     0
 42
0.200000
  3
txt
  4
BIGFONT
  0
ENDTAB
  0
TABLE
  2
VIEW
 70
     0
  0
ENDTAB
  0
ENDSEC
  0
SECTION
  2
BLOCKS
  0
ENDSEC
  0
SECTION
  2
ENTITIES
  0
POINT
  8
0
 10
-365.000000
 20
90.000000
  0
POINT
  8
0
 10
185.000000
 20
90.000000
  0
POINT
  8
0
 10
-365.000000
 20
-150.000031
  0
POINT
  8
0
 10
185.000031
 20
-150.000031
  0
POINT
  8
0
 10
355.000000
 20
-150.000000
  0
POINT
  8
0
 10
381.000000
 20
-150.000000
  0
LINE
  8
0
 62
     3
 10
-524.494446
 20
-360.000092
 11
-524.494446
 21
360.000092
  0
LINE
  8
0
 62
     3
 10
524.494446
 20
360.000092
 11
524.494446
 21
-360.000092
  0
LINE
  8
0
 62
     3
 10
-524.494446
 20
-360.000092
 11
524.494446
 21
-360.000092
  0
LINE
  8
0
 62
     3
 10
-524.494446
 20
360.000092
 11
524.494446
 21
360.000092
  0
LINE
  8
0
 62
     3
 10
-524.494446
 20
319.550598
 11
-224.494446
 21
319.550598
  0
LINE
  8
0
 62
     3
 10
-224.494446
 20
319.550598
 11
-224.494446
 21
360.000092
  0
LINE
  8
0
 62
     3
 10
308.764069
 20
-319.550690
 11
524.494446
 21
-319.550690
  0
LINE
  8
0
 62
     5
 10
365.406830
 20
-329.276672
 11
386.130402
 21
-329.276672
  0
LINE
  8
0
 62
     5
 10
365.406830
 20
-347.654236
 11
383.002350
 21
-347.654236
  0
LINE
  8
0
 62
     5
 10
365.406830
 20
-352.346344
 11
389.258545
 21
-352.346344
  0
LINE
  8
0
 62
     5
 10
365.406830
 20
-333.968781
 11
383.002350
 21
-333.968781
  0
LINE
  8
0
 62
     5
 10
365.406830
 20
-329.276672
 11
365.406830
 21
-333.968781
  0
LINE
  8
0
 62
     5
 10
389.258545
 20
-332.404785
 11
389.258545
 21
-352.346344
  0
LINE
  8
0
 62
     5
 10
383.002350
 20
-333.968781
 11
383.002350
 21
-347.654236
  0
LINE
  8
0
 62
     5
 10
392.777557
 20
-329.276672
 11
392.777557
 21
-333.968781
  0
LINE
  8
0
 62
     5
 10
415.065186
 20
-333.968781
 11
415.065186
 21
-349.218353
  0
LINE
  8
0
 62
     5
 10
408.809052
 20
-333.968781
 11
408.809052
 21
-347.654236
  0
LINE
  8
0
 62
     5
 10
365.406830
 20
-347.654236
 11
365.406830
 21
-352.346344
  0
LINE
  8
0
 62
     5
 10
392.777557
 20
-329.276672
 11
398.959137
 21
-329.276672
  0
LINE
  8
0
 62
     5
 10
392.777557
 20
-352.346344
 11
397.635284
 21
-352.346344
  0
LINE
  8
0
 62
     5
 10
392.777435
 20
-352.346161
 11
397.701843
 21
-333.968719
  0
LINE
  8
0
 62
     5
 10
392.777557
 20
-333.968781
 11
397.701874
 21
-333.968781
  0
LINE
  8
0
 62
     5
 10
397.635559
 20
-352.346558
 11
402.559723
 21
-333.969055
  0
LINE
  8
0
 62
     5
 10
404.116852
 20
-347.654236
 11
408.809052
 21
-347.654236
  0
LINE
  8
0
 62
     5
 10
404.116730
 20
-347.654144
 11
405.373871
 21
-352.346191
  0
LINE
  8
0
 62
     5
 10
405.374237
 20
-352.346344
 11
411.937195
 21
-352.346344
  0
LINE
  8
0
 62
     5
 10
402.559540
 20
-333.968781
 11
408.809052
 21
-333.968781
  0
LINE
  8
0
 62
     5
 10
403.816772
 20
-329.276672
 11
410.373047
 21
-329.276672
  0
LINE
  8
0
 62
     5
 10
398.959198
 20
-329.276703
 11
399.891571
 21
-325.796783
  0
LINE
  8
0
 62
     5
 10
403.816467
 20
-329.276459
 11
404.748840
 21
-325.796417
  0
LINE
  8
0
 62
     5
 10
418.975342
 20
-329.276672
 11
426.404572
 21
-329.276672
  0
LINE
  8
0
 62
     5
 10
418.975342
 20
-333.968781
 11
437.221191
 21
-333.968781
  0
LINE
  8
0
 62
     5
 10
426.404572
 20
-352.346344
 11
432.660645
 21
-352.346344
  0
LINE
  8
0
 62
     5
 10
418.975342
 20
-329.276672
 11
418.975342
 21
-333.968781
  0
LINE
  8
0
 62
     5
 10
442.045044
 20
-342.477020
 11
442.045044
 21
-347.654236
  0
LINE
  8
0
 62
     5
 10
418.975037
 20
-347.654053
 11
426.404388
 21
-344.189636
  0
LINE
  8
0
 62
     5
 10
418.975769
 20
-342.477356
 11
437.221558
 21
-333.969116
  0
LINE
  8
0
 62
     5
 10
418.975342
 20
-342.477020
 11
418.975342
 21
-347.654236
  0
LINE
  8
0
 62
     5
 10
432.660492
 20
-343.278107
 11
442.044983
 21
-347.654083
  0
LINE
  8
0
 62
     5
 10
436.062103
 20
-339.687286
 11
442.045654
 21
-342.477448
  0
LINE
  8
0
 62
     5
 10
442.045044
 20
-332.404785
 11
442.045044
 21
-334.903870
  0
LINE
  8
0
 62
     5
 10
426.404572
 20
-325.796722
 11
426.404572
 21
-329.276672
  0
LINE
  8
0
 62
     5
 10
432.660645
 20
-325.796722
 11
432.660645
 21
-329.276672
  0
LINE
  8
0
 62
     5
 10
432.660645
 20
-329.276672
 11
438.916931
 21
-329.276672
  0
LINE
  8
0
 62
     5
 10
426.404572
 20
-344.189972
 11
426.404572
 21
-352.346344
  0
LINE
  8
0
 62
     5
 10
432.660645
 20
-343.278320
 11
432.660645
 21
-352.346344
  0
LINE
  8
0
 62
     5
 10
436.062073
 20
-339.687256
 11
440.239532
 21
-337.739288
  0
LINE
  8
0
 62
     5
 10
463.159668
 20
-327.204376
 11
467.851685
 21
-327.204376
  0
LINE
  8
0
 62
     5
 10
444.000122
 20
-336.896667
 11
444.000122
 21
-341.946259
  0
LINE
  8
0
 62
     5
 10
467.851685
 20
-327.204376
 11
467.851685
 21
-329.276672
  0
LINE
  8
0
 62
     5
 10
463.159668
 20
-327.204376
 11
463.159668
 21
-328.215485
  0
LINE
  8
0
 62
     5
 10
456.903442
 20
-336.814453
 11
456.903442
 21
-352.346344
  0
LINE
  8
0
 62
     5
 10
444.000275
 20
-336.896881
 11
462.173828
 21
-329.669067
  0
LINE
  8
0
 62
     5
 10
444.000092
 20
-341.946411
 11
456.903412
 21
-336.814545
  0
LINE
  8
0
 62
     5
 10
456.903442
 20
-352.346344
 11
463.159668
 21
-352.346344
  0
LINE
  8
0
 62
     5
 10
463.159668
 20
-334.326324
 11
463.159668
 21
-352.346344
  0
LINE
  8
0
 62
     5
 10
463.160126
 20
-334.326630
 11
464.894257
 21
-333.636902
  0
LINE
  8
0
 62
     5
 10
399.891602
 20
-325.796722
 11
404.749207
 21
-325.796722
  0
LINE
  8
0
 62
     5
 10
412.523682
 20
-325.796722
 11
414.517731
 21
-325.796722
  0
LINE
  8
0
 62
     5
 10
426.404572
 20
-325.796722
 11
432.660645
 21
-325.796722
  0
LINE
  8
0
 62
     5
 10
412.523682
 20
-328.924835
 11
414.517731
 21
-328.924835
  0
LINE
  8
0
 62
     5
 10
412.523682
 20
-325.796722
 11
412.523682
 21
-328.924835
  0
LINE
  8
0
 62
     5
 10
414.517731
 20
-325.796722
 11
414.517731
 21
-328.924835
  0
LINE
  8
0
 62
     5
 10
415.690887
 20
-325.796722
 11
415.690887
 21
-328.924835
  0
LINE
  8
0
 62
     5
 10
417.919678
 20
-325.796722
 11
417.919678
 21
-328.924835
  0
LINE
  8
0
 62
     5
 10
415.690887
 20
-325.796722
 11
417.919678
 21
-325.796722
  0
LINE
  8
0
 62
     5
 10
415.690887
 20
-328.924835
 11
417.919678
 21
-328.924835
  0
LINE
  8
0
 62
     3
 10
308.764069
 20
319.550598
 11
524.494446
 21
319.550598
  0
LINE
  8
0
 62
     3
 10
308.764069
 20
360.000092
 11
308.764069
 21
319.550598
  0
LINE
  8
0
 62
     3
 10
308.764069
 20
-319.550690
 11
308.764069
 21
-360.000092
  0
LINE
  8
0
 10
-338.000000
 20
-180.000000
 11
158.000031
 21
-180.000000
  0
LINE
  8
0
 10
-365.000000
 20
-124.000000
 11
-365.000000
 21
-176.000000
  0
LINE
  8
0
 10
-338.000000
 20
-124.000000
 11
-338.000000
 21
-180.000000
  0
LINE
  8
0
 10
-365.000000
 20
-124.000000
 11
-338.000000
 21
-124.000000
  0
LINE
  8
0
 10
-365.000000
 20
-176.000000
 11
-338.000000
 21
-176.000000
  0
LINE
  8
0
  6
CENTER
 10
-354.500000
 20
-140.000000
 11
-354.500000
 21
-160.000000
  0
LINE
  8
0
  6
CENTER
 10
-370.000000
 20
-168.000000
 11
-354.000000
 21
-168.000000
  0
LINE
  8
0
 10
-359.000000
 20
-160.000000
 11
-359.000000
 21
-176.000000
  0
LINE
  8
0
 10
-365.000000
 20
-160.000000
 11
-359.000000
 21
-160.000000
  0
LINE
  8
0
 10
-346.096039
 20
-143.802948
 11
-341.197083
 21
-138.904007
  0
LINE
  8
0
 10
-346.803101
 20
-143.095886
 11
-341.904114
 21
-138.196915
  0
LINE
  8
0
  6
CENTER
 10
-350.000000
 20
-141.000000
 11
-338.000000
 21
-141.000000
  0
LINE
  8
0
  6
CENTER
 10
-344.000000
 20
-135.000000
 11
-344.000000
 21
-147.000000
  0
LINE
  8
0
  6
CENTER
 10
164.000031
 20
-134.999954
 11
164.000031
 21
-146.999954
  0
LINE
  8
0
  6
CENTER
 10
170.000031
 20
-141.000000
 11
158.000031
 21
-141.000000
  0
LINE
  8
0
 10
185.000031
 20
-123.999954
 11
185.000031
 21
-175.999954
  0
LINE
  8
0
 10
158.000031
 20
-123.999954
 11
158.000031
 21
-179.999954
  0
LINE
  8
0
 10
185.000031
 20
-124.000000
 11
158.000031
 21
-124.000000
  0
LINE
  8
0
 10
185.000031
 20
-176.000000
 11
158.000031
 21
-176.000000
  0
LINE
  8
0
 10
166.803070
 20
-138.903992
 11
161.904083
 21
-143.802994
  0
LINE
  8
0
 10
166.095993
 20
-138.196945
 11
161.197006
 21
-143.095917
  0
LINE
  8
0
  6
CENTER
 10
-370.000000
 20
-132.000000
 11
-354.000000
 21
-132.000000
  0
LINE
  8
0
 10
-359.000000
 20
-124.000000
 11
-359.000000
 21
-140.000000
  0
LINE
  8
0
 10
-365.000000
 20
-140.000000
 11
-359.000000
 21
-140.000000
  0
LINE
  8
0
 10
-360.508148
 20
-137.773560
 11
-365.000000
 21
-137.773560
  0
LINE
  8
0
 10
-360.508148
 20
-129.113281
 11
-365.000000
 21
-129.113281
  0
LINE
  8
0
 10
-360.508148
 20
-134.886780
 11
-365.000000
 21
-134.886780
  0
LINE
  8
0
 10
-360.508148
 20
-126.226562
 11
-365.000000
 21
-126.226562
  0
LINE
  8
0
  6
CENTER
 10
60.000000
 20
-121.999969
 11
60.000000
 21
-184.999969
  0
LINE
  8
0
 10
-322.000000
 20
-121.000000
 11
-158.000015
 21
-121.000000
  0
LINE
  8
0
 10
-320.000000
 20
-90.000000
 11
-160.000000
 21
-90.000000
  0
LINE
  8
0
 10
-320.000000
 20
-96.000000
 11
-244.500000
 21
-96.000000
  0
LINE
  8
0
 10
-320.000000
 20
-90.000000
 11
-320.000000
 21
-121.000000
  0
LINE
  8
0
 10
-160.000000
 20
-89.999985
 11
-160.000000
 21
-120.999985
  0
LINE
  8
0
 10
-244.500000
 20
-95.999985
 11
-244.500000
 21
-104.999985
  0
LINE
  8
0
 10
-235.500000
 20
-95.999985
 11
-235.500000
 21
-104.999985
  0
LINE
  8
0
 10
-235.500000
 20
-96.000000
 11
-160.000000
 21
-96.000000
  0
LINE
  8
0
  6
CENTER
 10
-249.500000
 20
-101.500000
 11
-230.500000
 21
-101.500000
  0
LINE
  8
0
  6
CENTER
 10
-310.000000
 20
-104.000000
 11
-290.000000
 21
-104.000000
  0
LINE
  8
0
  6
CENTER
 10
-300.000000
 20
-94.000000
 11
-300.000000
 21
-114.000000
  0
LINE
  8
0
  6
CENTER
 10
-270.000000
 20
-96.499985
 11
-270.000000
 21
-111.499985
  0
LINE
  8
0
  6
CENTER
 10
-277.500000
 20
-104.000000
 11
-262.500000
 21
-104.000000
  0
LINE
  8
0
 10
-302.500061
 20
-105.443405
 11
-300.000061
 21
-106.886787
  0
LINE
  8
0
 10
-300.000031
 20
-106.886719
 11
-297.500000
 21
-105.443329
  0
LINE
  8
0
 10
-297.500000
 20
-105.443390
 11
-297.500000
 21
-102.556625
  0
LINE
  8
0
 10
-297.500061
 20
-102.556648
 11
-300.000061
 21
-101.113266
  0
LINE
  8
0
 10
-300.000031
 20
-101.113152
 11
-302.500061
 21
-102.556541
  0
LINE
  8
0
 10
-302.500000
 20
-102.556610
 11
-302.500000
 21
-105.443375
  0
LINE
  8
0
  6
CENTER
 10
-170.000000
 20
-104.000000
 11
-190.000000
 21
-104.000000
  0
LINE
  8
0
  6
CENTER
 10
-180.000000
 20
-93.999985
 11
-180.000000
 21
-113.999985
  0
LINE
  8
0
  6
CENTER
 10
-210.000000
 20
-96.499985
 11
-210.000000
 21
-111.499985
  0
LINE
  8
0
  6
CENTER
 10
-202.500000
 20
-104.000000
 11
-217.500000
 21
-104.000000
  0
LINE
  8
0
 10
-177.500000
 20
-105.443344
 11
-180.000015
 21
-106.886726
  0
LINE
  8
0
 10
-180.000000
 20
-106.886787
 11
-182.500015
 21
-105.443405
  0
LINE
  8
0
 10
-182.500015
 20
-105.443375
 11
-182.500015
 21
-102.556610
  0
LINE
  8
0
 10
-182.499954
 20
-102.556648
 11
-179.999939
 21
-101.113258
  0
LINE
  8
0
 10
-180.000000
 20
-101.113228
 11
-177.500000
 21
-102.556610
  0
LINE
  8
0
 10
-177.500015
 20
-102.556595
 11
-177.500015
 21
-105.443359
  0
LINE
  8
0
 10
128.000000
 20
-177.999954
 11
128.000000
 21
-179.999954
  0
LINE
  8
0
 10
111.902039
 20
-178.000000
 11
128.000000
 21
-178.000000
  0
LINE
  8
0
 10
122.188812
 20
-173.699997
 11
158.000031
 21
-173.699997
  0
LINE
  8
0
 10
-338.000000
 20
-137.500000
 11
158.000031
 21
-137.500000
  0
LINE
  8
0
 10
-338.000000
 20
-162.500000
 11
158.000031
 21
-162.500000
  0
LINE
  8
0
 10
-338.000000
 20
-140.500000
 11
158.000031
 21
-140.500000
  0
LINE
  8
0
 10
-338.000000
 20
-159.500000
 11
158.000031
 21
-159.500000
  0
LINE
  8
0
 10
-338.000000
 20
-156.500000
 11
158.000031
 21
-156.500000
  0
LINE
  8
0
 10
-338.000000
 20
-143.500000
 11
158.000031
 21
-143.500000
  0
LINE
  8
0
  6
CENTER
 10
-240.000000
 20
-84.999985
 11
-240.000000
 21
-184.999985
  0
LINE
  8
0
  6
CENTER
 10
-369.999969
 20
-150.000031
 11
190.000031
 21
-150.000031
  0
LINE
  8
0
 10
-338.000000
 20
-174.000031
 11
121.352936
 21
-174.000031
  0
LINE
  8
0
 10
-338.000000
 20
-126.000023
 11
158.000031
 21
-126.000023
  0
LINE
  8
0
 10
-357.500000
 20
-151.732040
 11
-354.500000
 21
-153.464081
  0
LINE
  8
0
 10
-354.500000
 20
-153.464111
 11
-351.500000
 21
-151.732056
  0
LINE
  8
0
 10
-351.500000
 20
-151.732056
 11
-351.500000
 21
-148.267944
  0
LINE
  8
0
 10
-351.500000
 20
-148.267929
 11
-354.500000
 21
-146.535889
  0
LINE
  8
0
 10
-354.500031
 20
-146.535919
 11
-357.500031
 21
-148.267975
  0
LINE
  8
0
 10
-357.500000
 20
-148.267944
 11
-357.500000
 21
-151.732056
  0
LINE
  8
0
  6
CENTER
 10
174.500031
 20
-139.999954
 11
174.500031
 21
-159.999954
  0
LINE
  8
0
 10
177.500061
 20
-151.732056
 11
174.500046
 21
-153.464111
  0
LINE
  8
0
 10
174.500046
 20
-153.464096
 11
171.500046
 21
-151.732040
  0
LINE
  8
0
 10
171.500031
 20
-151.732010
 11
171.500031
 21
-148.267899
  0
LINE
  8
0
 10
171.500061
 20
-148.267929
 11
174.500076
 21
-146.535873
  0
LINE
  8
0
 10
174.500031
 20
-146.535889
 11
177.500046
 21
-148.267944
  0
LINE
  8
0
 10
177.500031
 20
-148.267899
 11
177.500031
 21
-151.732010
  0
LINE
  8
0
 10
-359.799988
 20
-125.000000
 11
-359.799988
 21
-139.000000
  0
LINE
  8
0
 10
-359.799988
 20
-125.000000
 11
-359.000000
 21
-125.000000
  0
LINE
  8
0
 10
-359.799988
 20
-139.000000
 11
-359.000000
 21
-139.000000
  0
LINE
  8
0
 10
-359.799988
 20
-139.000000
 11
-360.508087
 21
-137.773560
  0
LINE
  8
0
 10
-359.800018
 20
-124.999992
 11
-360.508179
 21
-126.226540
  0
LINE
  8
0
 10
-360.508148
 20
-126.226562
 11
-360.508148
 21
-137.773437
  0
LINE
  8
0
 10
-360.508148
 20
-173.773483
 11
-360.508148
 21
-162.226608
  0
LINE
  8
0
 10
-359.799988
 20
-161.000061
 11
-360.508057
 21
-162.226486
  0
LINE
  8
0
 10
-359.800018
 20
-175.000061
 11
-360.508179
 21
-173.773499
  0
LINE
  8
0
 10
-360.508148
 20
-162.226486
 11
-365.000000
 21
-162.226486
  0
LINE
  8
0
 10
-360.508148
 20
-170.886765
 11
-365.000000
 21
-170.886765
  0
LINE
  8
0
 10
-360.508148
 20
-165.113266
 11
-365.000000
 21
-165.113266
  0
LINE
  8
0
 10
-360.508148
 20
-173.773483
 11
-365.000000
 21
-173.773483
  0
LINE
  8
0
 10
-359.799988
 20
-175.000046
 11
-359.799988
 21
-161.000046
  0
LINE
  8
0
 10
-359.799988
 20
-175.000046
 11
-359.000000
 21
-175.000046
  0
LINE
  8
0
 10
-359.799988
 20
-161.000046
 11
-359.000000
 21
-161.000046
  0
LINE
  8
0
 10
179.800079
 20
-175.000000
 11
179.800079
 21
-161.000000
  0
LINE
  8
0
 10
180.508209
 20
-173.773483
 11
185.000031
 21
-173.773483
  0
LINE
  8
0
 10
179.800079
 20
-175.000046
 11
179.000031
 21
-175.000046
  0
LINE
  8
0
  6
CENTER
 10
190.000031
 20
-168.000000
 11
174.000031
 21
-168.000000
  0
LINE
  8
0
 10
179.000031
 20
-159.999954
 11
179.000031
 21
-175.999954
  0
LINE
  8
0
 10
185.000031
 20
-160.000000
 11
179.000031
 21
-160.000000
  0
LINE
  8
0
  6
CENTER
 10
190.000031
 20
-132.000000
 11
174.000031
 21
-132.000000
  0
LINE
  8
0
 10
179.000031
 20
-123.999954
 11
179.000031
 21
-139.999954
  0
LINE
  8
0
 10
185.000031
 20
-140.000000
 11
179.000031
 21
-140.000000
  0
LINE
  8
0
 10
180.508209
 20
-137.773560
 11
185.000031
 21
-137.773560
  0
LINE
  8
0
 10
180.508209
 20
-129.113281
 11
185.000031
 21
-129.113281
  0
LINE
  8
0
 10
180.508209
 20
-134.886780
 11
185.000031
 21
-134.886780
  0
LINE
  8
0
 10
180.508209
 20
-126.226562
 11
185.000031
 21
-126.226562
  0
LINE
  8
0
 10
179.800079
 20
-161.000046
 11
179.000031
 21
-161.000046
  0
LINE
  8
0
 10
179.800079
 20
-124.999954
 11
179.800079
 21
-138.999954
  0
LINE
  8
0
 10
179.800079
 20
-125.000000
 11
179.000031
 21
-125.000000
  0
LINE
  8
0
 10
179.800079
 20
-139.000000
 11
179.000031
 21
-139.000000
  0
LINE
  8
0
 10
179.800125
 20
-138.999985
 11
180.508209
 21
-137.773529
  0
LINE
  8
0
 10
179.800095
 20
-124.999969
 11
180.508209
 21
-126.226524
  0
LINE
  8
0
 10
180.508209
 20
-126.226517
 11
180.508209
 21
-137.773392
  0
LINE
  8
0
 10
180.508209
 20
-173.773437
 11
180.508209
 21
-162.226562
  0
LINE
  8
0
 10
179.800049
 20
-161.000015
 11
180.508133
 21
-162.226456
  0
LINE
  8
0
 10
179.800079
 20
-175.000000
 11
180.508224
 21
-173.773422
  0
LINE
  8
0
 10
180.508209
 20
-162.226486
 11
185.000031
 21
-162.226486
  0
LINE
  8
0
 10
180.508209
 20
-170.886765
 11
185.000031
 21
-170.886765
  0
LINE
  8
0
 10
180.508209
 20
-165.113266
 11
185.000031
 21
-165.113266
  0
LINE
  8
0
  6
CENTER
 10
-370.000000
 20
90.000000
 11
190.000000
 21
90.000000
  0
LINE
  8
0
  6
CENTER
 10
-370.000000
 20
108.000000
 11
-354.000000
 21
108.000000
  0
LINE
  8
0
 10
-359.000000
 20
116.000000
 11
-359.000000
 21
100.000000
  0
LINE
  8
0
 10
-365.000000
 20
100.000000
 11
-359.000000
 21
100.000000
  0
LINE
  8
0
 10
-295.000031
 20
70.500015
 11
-295.000031
 21
76.500015
  0
LINE
  8
0
 10
-305.000031
 20
70.500015
 11
-305.000031
 21
76.500015
  0
LINE
  8
0
 10
-305.000000
 20
70.500000
 11
-295.000000
 21
70.500000
  0
LINE
  8
0
 10
-338.000000
 20
116.000000
 11
-338.000000
 21
64.000000
  0
LINE
  8
0
 10
-365.000000
 20
116.000000
 11
-365.000000
 21
64.000000
  0
LINE
  8
0
 10
-365.000000
 20
64.000000
 11
-338.000000
 21
64.000000
  0
LINE
  8
0
 10
-365.000000
 20
116.000000
 11
-338.000000
 21
116.000000
  0
LINE
  8
0
 10
-184.999985
 20
108.500000
 11
-184.999985
 21
103.500000
  0
LINE
  8
0
 10
-185.000000
 20
108.499992
 11
-175.000000
 21
108.499992
  0
LINE
  8
0
 10
-174.999985
 20
108.500000
 11
-174.999985
 21
103.500000
  0
LINE
  8
0
 10
-338.000000
 20
66.000000
 11
158.000000
 21
66.000000
  0
LINE
  8
0
 10
-338.000000
 20
114.000000
 11
158.000000
 21
114.000000
  0
LINE
  8
0
  6
CENTER
 10
-370.000000
 20
72.000000
 11
-354.000000
 21
72.000000
  0
LINE
  8
0
 10
-359.000000
 20
64.000000
 11
-359.000000
 21
80.000000
  0
LINE
  8
0
 10
-365.000000
 20
80.000000
 11
-359.000000
 21
80.000000
  0
LINE
  8
0
 10
-365.000000
 20
67.000031
 11
-360.508209
 21
67.000031
  0
LINE
  8
0
 10
-360.508209
 20
72.000000
 11
-365.000000
 21
72.000000
  0
LINE
  8
0
 10
-365.000000
 20
77.000031
 11
-360.508209
 21
77.000031
  0
LINE
  8
0
 10
158.000000
 20
116.000008
 11
158.000000
 21
64.000008
  0
LINE
  8
0
 10
185.000000
 20
116.000008
 11
185.000000
 21
64.000008
  0
LINE
  8
0
 10
185.000000
 20
64.000000
 11
158.000000
 21
64.000000
  0
LINE
  8
0
 10
185.000000
 20
116.000000
 11
158.000000
 21
116.000000
  0
LINE
  8
0
  6
CENTER
 10
60.000000
 20
119.000008
 11
60.000000
 21
61.000008
  0
LINE
  8
0
 10
-320.000000
 20
103.500000
 11
-320.000000
 21
76.500000
  0
LINE
  8
0
 10
-160.000000
 20
103.500000
 11
-160.000000
 21
76.500000
  0
LINE
  8
0
 10
-320.000000
 20
103.500000
 11
-160.000000
 21
103.500000
  0
LINE
  8
0
 10
-320.000000
 20
76.500000
 11
-160.000000
 21
76.500000
  0
LINE
  8
0
 10
-320.000000
 20
81.000000
 11
-160.000000
 21
81.000000
  0
LINE
  8
0
 10
-320.000000
 20
99.000000
 11
-160.000000
 21
99.000000
  0
LINE
  8
0
  6
CENTER
 10
-300.000000
 20
119.000000
 11
-300.000000
 21
61.000000
  0
LINE
  8
0
  6
CENTER
 10
-285.000000
 20
96.000000
 11
-285.000000
 21
84.000000
  0
LINE
  8
0
  6
CENTER
 10
-270.000000
 20
108.500000
 11
-270.000000
 21
71.500000
  0
LINE
  8
0
 10
-244.500000
 20
103.500000
 11
-244.500000
 21
99.000000
  0
LINE
  8
0
 10
-244.500000
 20
81.000000
 11
-244.500000
 21
76.500000
  0
LINE
  8
0
 10
-235.500000
 20
103.500000
 11
-235.500000
 21
99.000000
  0
LINE
  8
0
 10
-184.999969
 20
70.500015
 11
-184.999969
 21
76.500015
  0
LINE
  8
0
 10
-174.999969
 20
70.500015
 11
-174.999969
 21
76.500015
  0
LINE
  8
0
 10
-175.000000
 20
70.500000
 11
-185.000000
 21
70.500000
  0
LINE
  8
0
 10
-235.500000
 20
81.000000
 11
-235.500000
 21
76.500000
  0
LINE
  8
0
  6
CENTER
 10
-180.000000
 20
119.000000
 11
-180.000000
 21
61.000000
  0
LINE
  8
0
  6
CENTER
 10
-195.000000
 20
96.000000
 11
-195.000000
 21
84.000000
  0
LINE
  8
0
  6
CENTER
 10
-210.000000
 20
108.500000
 11
-210.000000
 21
71.500000
  0
LINE
  8
0
 10
-318.500000
 20
107.000000
 11
-305.000000
 21
107.000000
  0
LINE
  8
0
 10
-318.500000
 20
73.000000
 11
-305.000031
 21
73.000000
  0
LINE
  8
0
 10
-324.500000
 20
101.000000
 11
-324.500000
 21
79.000000
  0
LINE
  8
0
 10
-155.500000
 20
101.000000
 11
-155.500000
 21
79.000000
  0
LINE
  8
0
 10
-295.000000
 20
107.000000
 11
-184.999985
 21
107.000000
  0
LINE
  8
0
 10
-295.000031
 20
73.000000
 11
-184.999969
 21
73.000000
  0
LINE
  8
0
 10
-174.999985
 20
107.000000
 11
-161.500000
 21
107.000000
  0
LINE
  8
0
 10
-174.999969
 20
73.000000
 11
-161.500000
 21
73.000000
  0
LINE
  8
0
 10
-327.000000
 20
98.500000
 11
-327.000000
 21
81.500000
  0
LINE
  8
0
 10
-338.000000
 20
81.500000
 11
-327.000000
 21
81.500000
  0
LINE
  8
0
 10
-338.000000
 20
98.500000
 11
-327.000000
 21
98.500000
  0
LINE
  8
0
 10
158.000000
 20
98.500000
 11
-153.000000
 21
98.500000
  0
LINE
  8
0
 10
-153.000000
 20
98.500000
 11
-153.000000
 21
81.500000
  0
LINE
  8
0
 10
158.000000
 20
81.500000
 11
-153.000000
 21
81.500000
  0
LINE
  8
0
  6
CENTER
 10
-240.000000
 20
119.000000
 11
-240.000000
 21
61.000000
  0
LINE
  8
0
 10
-180.000000
 20
103.500000
 11
-180.000000
 21
108.499992
  0
LINE
  8
0
 10
-295.000000
 20
108.500000
 11
-295.000000
 21
103.500000
  0
LINE
  8
0
 10
-300.000000
 20
103.500000
 11
-300.000000
 21
108.499992
  0
LINE
  8
0
 10
-305.000000
 20
108.500000
 11
-305.000000
 21
103.500000
  0
LINE
  8
0
 10
-295.000000
 20
108.499992
 11
-305.000000
 21
108.499992
  0
LINE
  8
0
 10
-176.750000
 20
110.999992
 11
-183.250000
 21
110.999992
  0
LINE
  8
0
 10
-184.500000
 20
109.749992
 11
-184.500000
 21
108.499992
  0
LINE
  8
0
 10
-175.500000
 20
109.749992
 11
-175.500000
 21
108.499992
  0
LINE
  8
0
 10
-304.500000
 20
109.749992
 11
-304.500000
 21
108.499992
  0
LINE
  8
0
 10
-296.750000
 20
110.999992
 11
-303.250000
 21
110.999992
  0
LINE
  8
0
 10
-295.500000
 20
109.749992
 11
-295.500000
 21
108.499992
  0
LINE
  8
0
 10
-359.799988
 20
65.000198
 11
-359.799988
 21
79.000038
  0
LINE
  8
0
 10
-360.508209
 20
66.226837
 11
-360.508209
 21
77.773399
  0
LINE
  8
0
 10
-358.999939
 20
79.000038
 11
-359.799988
 21
79.000038
  0
LINE
  8
0
 10
-358.999939
 20
65.000198
 11
-359.799988
 21
65.000198
  0
LINE
  8
0
 10
-359.799988
 20
65.000198
 11
-360.508209
 21
66.226830
  0
LINE
  8
0
 10
-359.799988
 20
79.000031
 11
-360.508209
 21
77.773392
  0
LINE
  8
0
 10
-359.799988
 20
100.999962
 11
-360.508179
 21
102.226608
  0
LINE
  8
0
 10
-358.999939
 20
100.999962
 11
-359.799988
 21
100.999962
  0
LINE
  8
0
 10
-358.999939
 20
114.999802
 11
-359.799988
 21
114.999802
  0
LINE
  8
0
 10
-365.000000
 20
112.999969
 11
-360.508209
 21
112.999969
  0
LINE
  8
0
 10
-359.799988
 20
114.999802
 11
-360.508209
 21
113.773163
  0
LINE
  8
0
 10
-365.000000
 20
102.999969
 11
-360.508209
 21
102.999969
  0
LINE
  8
0
 10
-359.799988
 20
114.999802
 11
-359.799988
 21
100.999962
  0
LINE
  8
0
 10
-360.508209
 20
113.773163
 11
-360.508209
 21
102.226601
  0
LINE
  8
0
 10
-360.508209
 20
108.000000
 11
-365.000000
 21
108.000000
  0
LINE
  8
0
 10
180.508179
 20
108.000000
 11
185.000000
 21
108.000000
  0
LINE
  8
0
  6
CENTER
 10
190.000000
 20
108.000000
 11
174.000000
 21
108.000000
  0
LINE
  8
0
 10
179.000000
 20
116.000000
 11
179.000000
 21
100.000000
  0
LINE
  8
0
 10
185.000000
 20
100.000000
 11
179.000000
 21
100.000000
  0
LINE
  8
0
 10
179.799988
 20
114.999802
 11
179.799988
 21
100.999962
  0
LINE
  8
0
 10
185.000000
 20
102.999969
 11
180.508179
 21
102.999969
  0
LINE
  8
0
 10
180.508179
 20
113.773163
 11
180.508179
 21
102.226601
  0
LINE
  8
0
  6
CENTER
 10
190.000000
 20
72.000000
 11
174.000000
 21
72.000000
  0
LINE
  8
0
 10
179.000000
 20
64.000000
 11
179.000000
 21
80.000000
  0
LINE
  8
0
 10
185.000000
 20
80.000000
 11
179.000000
 21
80.000000
  0
LINE
  8
0
 10
185.000000
 20
67.000031
 11
180.508179
 21
67.000031
  0
LINE
  8
0
 10
180.508179
 20
72.000000
 11
185.000000
 21
72.000000
  0
LINE
  8
0
 10
185.000000
 20
77.000031
 11
180.508179
 21
77.000031
  0
LINE
  8
0
 10
179.799988
 20
65.000198
 11
179.799988
 21
79.000038
  0
LINE
  8
0
 10
180.508179
 20
66.226837
 11
180.508179
 21
77.773399
  0
LINE
  8
0
 10
178.999939
 20
79.000038
 11
179.799988
 21
79.000038
  0
LINE
  8
0
 10
178.999939
 20
65.000198
 11
179.799988
 21
65.000198
  0
LINE
  8
0
 10
179.800003
 20
65.000206
 11
180.508209
 21
66.226860
  0
LINE
  8
0
 10
179.799988
 20
79.000031
 11
180.508163
 21
77.773399
  0
LINE
  8
0
 10
179.800003
 20
100.999947
 11
180.508194
 21
102.226601
  0
LINE
  8
0
 10
178.999939
 20
100.999962
 11
179.799988
 21
100.999962
  0
LINE
  8
0
 10
178.999939
 20
114.999802
 11
179.799988
 21
114.999802
  0
LINE
  8
0
 10
185.000000
 20
112.999969
 11
180.508179
 21
112.999969
  0
LINE
  8
0
 10
179.800003
 20
114.999817
 11
180.508194
 21
113.773178
  0
LINE
  8
0
 10
373.499969
 20
-98.226456
 11
373.499969
 21
-109.773483
  0
LINE
  8
0
  6
CENTER
 10
324.000000
 20
-150.000000
 11
386.000000
 21
-150.000000
  0
LINE
  8
0
  6
CENTER
 10
355.000000
 20
-85.000000
 11
355.000000
 21
-185.000000
  0
LINE
  8
0
 10
336.999939
 20
-124.000000
 11
372.999939
 21
-124.000000
  0
LINE
  8
0
 10
337.000061
 20
-176.000000
 11
344.000061
 21
-176.000000
  0
LINE
  8
0
 10
342.000061
 20
-180.000000
 11
351.750061
 21
-180.000000
  0
LINE
  8
0
 10
329.000000
 20
-132.000061
 11
329.000000
 21
-168.000061
  0
LINE
  8
0
 10
381.000000
 20
-131.999939
 11
381.000000
 21
-167.999939
  0
LINE
  8
0
  6
CENTER
 10
373.000000
 20
-119.999954
 11
373.000000
 21
-143.999954
  0
LINE
  8
0
  6
CENTER
 10
384.999969
 20
-132.000031
 11
360.999969
 21
-132.000031
  0
LINE
  8
0
 10
365.000000
 20
-123.999969
 11
365.000000
 21
-131.999969
  0
LINE
  8
0
 10
380.999969
 20
-140.000031
 11
372.999969
 21
-140.000031
  0
LINE
  8
0
  6
CENTER
 10
324.999969
 20
-132.000000
 11
348.999969
 21
-132.000000
  0
LINE
  8
0
  6
CENTER
 10
337.000000
 20
-120.000046
 11
337.000000
 21
-144.000046
  0
LINE
  8
0
 10
331.999969
 20
-134.886734
 11
336.999969
 21
-137.773483
  0
LINE
  8
0
 10
336.999969
 20
-137.773666
 11
341.999969
 21
-134.886917
  0
LINE
  8
0
 10
341.999969
 20
-134.886810
 11
341.999969
 21
-129.113312
  0
LINE
  8
0
 10
342.000000
 20
-129.113251
 11
337.000000
 21
-126.226501
  0
LINE
  8
0
 10
337.000061
 20
-126.226768
 11
332.000061
 21
-129.113525
  0
LINE
  8
0
 10
331.999969
 20
-129.113312
 11
331.999969
 21
-134.886810
  0
LINE
  8
0
 10
328.999969
 20
-140.000000
 11
336.999969
 21
-140.000000
  0
LINE
  8
0
 10
345.000000
 20
-124.000031
 11
345.000000
 21
-132.000031
  0
LINE
  8
0
  6
CENTER
 10
336.999969
 20
-180.000046
 11
336.999969
 21
-156.000046
  0
LINE
  8
0
  6
CENTER
 10
325.000031
 20
-168.000000
 11
349.000031
 21
-168.000000
  0
LINE
  8
0
 10
342.000061
 20
-165.113129
 11
337.000061
 21
-162.226379
  0
LINE
  8
0
 10
337.000336
 20
-162.227036
 11
332.000366
 21
-165.113785
  0
LINE
  8
0
 10
332.000000
 20
-165.113281
 11
332.000000
 21
-170.886780
  0
LINE
  8
0
 10
332.000061
 20
-170.886673
 11
337.000061
 21
-173.773422
  0
LINE
  8
0
 10
337.000427
 20
-173.774139
 11
342.000427
 21
-170.887390
  0
LINE
  8
0
 10
342.000000
 20
-170.886749
 11
342.000000
 21
-165.113251
  0
LINE
  8
0
 10
344.999969
 20
-174.254608
 11
344.999969
 21
-168.000031
  0
LINE
  8
0
 10
329.000031
 20
-160.000000
 11
337.000031
 21
-160.000000
  0
LINE
  8
0
  6
CENTER
 10
385.000031
 20
-168.000031
 11
361.000031
 21
-168.000031
  0
LINE
  8
0
  6
CENTER
 10
372.999969
 20
-179.999954
 11
372.999969
 21
-155.999954
  0
LINE
  8
0
 10
377.999969
 20
-165.113281
 11
372.999969
 21
-162.226532
  0
LINE
  8
0
 10
373.000244
 20
-162.226776
 11
368.000244
 21
-165.113525
  0
LINE
  8
0
 10
368.000000
 20
-165.113190
 11
368.000000
 21
-170.886688
  0
LINE
  8
0
 10
367.999969
 20
-170.886780
 11
372.999969
 21
-173.773529
  0
LINE
  8
0
 10
373.000275
 20
-173.773849
 11
378.000275
 21
-170.887100
  0
LINE
  8
0
 10
378.000000
 20
-170.886688
 11
378.000000
 21
-165.113190
  0
LINE
  8
0
 10
381.000031
 20
-160.000031
 11
373.000031
 21
-160.000031
  0
LINE
  8
0
 10
364.999969
 20
-174.254456
 11
364.999969
 21
-167.999969
  0
LINE
  8
0
 10
372.999969
 20
-137.773590
 11
367.999908
 21
-134.886810
  0
LINE
  8
0
 10
368.000000
 20
-134.886749
 11
368.000000
 21
-129.113251
  0
LINE
  8
0
 10
367.999725
 20
-129.113037
 11
372.999725
 21
-126.226295
  0
LINE
  8
0
 10
372.999908
 20
-126.226585
 11
377.999908
 21
-129.113327
  0
LINE
  8
0
 10
378.000000
 20
-129.113190
 11
378.000000
 21
-134.886688
  0
LINE
  8
0
 10
377.999725
 20
-134.886612
 11
372.999725
 21
-137.773361
  0
LINE
  8
0
 10
368.000000
 20
-175.999969
 11
368.000000
 21
-179.999969
  0
LINE
  8
0
 10
342.000000
 20
-176.000031
 11
342.000000
 21
-180.000031
  0
LINE
  8
0
 10
360.250000
 20
-173.699982
 11
360.250000
 21
-177.999985
  0
LINE
  8
0
 10
349.750000
 20
-173.700012
 11
349.750000
 21
-178.000015
  0
LINE
  8
0
 10
358.250000
 20
-177.999985
 11
358.250000
 21
-179.999985
  0
LINE
  8
0
 10
351.750000
 20
-178.000000
 11
351.750000
 21
-180.000000
  0
LINE
  8
0
 10
358.250061
 20
-180.000000
 11
368.000061
 21
-180.000000
  0
LINE
  8
0
 10
358.250061
 20
-178.000000
 11
360.250061
 21
-178.000000
  0
LINE
  8
0
 10
349.750061
 20
-178.000000
 11
351.750061
 21
-178.000000
  0
LINE
  8
0
 10
349.750061
 20
-173.699997
 11
360.250061
 21
-173.699997
  0
LINE
  8
0
 10
366.000061
 20
-176.000000
 11
373.000061
 21
-176.000000
  0
LINE
  8
0
 10
345.999847
 20
-90.000000
 11
363.999847
 21
-90.000000
  0
LINE
  8
0
 10
364.000000
 20
-89.999985
 11
364.000000
 21
-120.999985
  0
LINE
  8
0
 10
346.000000
 20
-90.000015
 11
346.000000
 21
-121.000015
  0
LINE
  8
0
 10
340.999939
 20
-121.000000
 11
368.999939
 21
-121.000000
  0
LINE
  8
0
 10
341.499878
 20
-96.000000
 11
345.999878
 21
-96.000000
  0
LINE
  8
0
 10
368.500000
 20
-95.999969
 11
368.500000
 21
-120.999969
  0
LINE
  8
0
 10
341.500000
 20
-96.000031
 11
341.500000
 21
-121.000031
  0
LINE
  8
0
 10
363.999878
 20
-96.000000
 11
368.499878
 21
-96.000000
  0
LINE
  8
0
 10
335.499908
 20
-109.000000
 11
341.499908
 21
-109.000000
  0
LINE
  8
0
 10
335.499878
 20
-99.000000
 11
341.499878
 21
-99.000000
  0
LINE
  8
0
 10
335.500000
 20
-99.000046
 11
335.500000
 21
-109.000046
  0
LINE
  8
0
  6
CENTER
 10
344.000000
 20
-140.000031
 11
344.000000
 21
-160.000031
  0
LINE
  8
0
  6
CENTER
 10
366.000000
 20
-139.999969
 11
366.000000
 21
-159.999969
  0
LINE
  8
0
 10
373.499847
 20
-98.226494
 11
368.499878
 21
-98.226494
  0
LINE
  8
0
 10
373.499847
 20
-101.113243
 11
368.499878
 21
-101.113243
  0
LINE
  8
0
 10
373.499878
 20
-106.886742
 11
368.499908
 21
-106.886742
  0
LINE
  8
0
 10
373.499878
 20
-109.773521
 11
368.499908
 21
-109.773521
  0
LINE
  8
0
  6
CENTER
 10
330.499878
 20
-104.000000
 11
381.499847
 21
-104.000000
  0
LINE
  8
0
 10
375.999969
 20
-100.749954
 11
375.999969
 21
-107.249954
  0
LINE
  8
0
 10
373.499878
 20
-108.500000
 11
374.749878
 21
-108.500000
  0
LINE
  8
0
 10
373.499847
 20
-99.500000
 11
374.749847
 21
-99.500000
  0
LINE
  8
0
 10
-283.500061
 20
92.598091
 11
-250.359024
 21
150.000015
  0
LINE
  8
0
 10
-283.500061
 20
92.598091
 11
-281.947144
 21
98.393646
  0
LINE
  8
0
 10
-283.500092
 20
92.598091
 11
-279.257446
 21
96.840736
  0
LINE
  8
0
 10
-250.359024
 20
150.000015
 11
-189.583328
 21
150.000015
  0
LINE
  8
0
 10
171.210846
 20
-144.302887
 11
128.312088
 21
-70.000031
  0
LINE
  8
0
 10
171.210861
 20
-144.302887
 11
169.657944
 21
-138.507339
  0
LINE
  8
0
 10
171.210846
 20
-144.302887
 11
166.968201
 21
-140.060242
  0
LINE
  8
0
 10
55.901054
 20
-70.000031
 11
128.312088
 21
-70.000031
  0
LINE
  8
0
 10
-240.000000
 20
-184.999985
 11
-240.000000
 21
-234.000000
  0
LINE
  8
0
 10
60.000000
 20
-184.999969
 11
60.000000
 21
-234.000000
  0
LINE
  8
0
 10
-240.000000
 20
-230.000000
 11
60.000000
 21
-230.000000
  0
LINE
  8
0
 10
-239.999985
 20
-229.999985
 11
-234.204422
 21
-228.447067
  0
LINE
  8
0
 10
54.204441
 20
-231.552902
 11
59.999996
 21
-229.999985
  0
LINE
  8
0
 10
54.204449
 20
-228.447067
 11
60.000004
 21
-229.999985
  0
LINE
  8
0
 10
-240.000000
 20
-230.000000
 11
-234.204437
 21
-231.552917
  0
ARC
  8
0
 62
     5
 10
386.130402
 20
-332.404785
 40
3.128082
 50
0.000000
 51
90.000000
  0
ARC
  8
0
 62
     5
 10
411.937195
 20
-349.218353
 40
3.128082
 50
270.000000
 51
0.000000
  0
ARC
  8
0
 62
     5
 10
410.373047
 20
-333.968781
 40
4.692139
 50
0.000000
 51
90.000000
  0
ARC
  8
0
 62
     5
 10
438.916931
 20
-332.404785
 40
3.128082
 50
0.000000
 51
90.000000
  0
ARC
  8
0
 62
     5
 10
438.916931
 20
-334.903870
 40
3.128100
 50
294.999969
 51
0.000000
  0
ARC
  8
0
 62
     5
 10
463.159668
 20
-329.276672
 40
4.692149
 50
291.688202
 51
0.000000
  0
ARC
  8
0
 62
     5
 10
461.595520
 20
-328.215485
 40
1.564059
 50
291.688049
 51
0.000000
  0
ARC
  8
0
 10
155.552826
 20
-267.970032
 40
100.000008
 50
88.597725
 51
118.393761
  0
CIRCLE
  8
0
 10
-344.000000
 20
-141.000000
 40
3.500000
  0
CIRCLE
  8
0
 10
164.000031
 20
-140.999954
 40
3.500000
  0
CIRCLE
  8
0
 10
-354.500000
 20
-150.000000
 40
6.578500
  0
CIRCLE
  8
0
 10
-354.500000
 20
-150.000000
 40
5.722500
  0
ARC
  8
0
 10
-240.000000
 20
-104.999985
 40
4.500000
 50
180.000000
 51
0.000000
  0
CIRCLE
  8
0
 10
-300.000000
 20
-104.000000
 40
5.000000
  0
CIRCLE
  8
0
 10
-270.000000
 20
-103.999992
 40
3.500000
  0
CIRCLE
  8
0
 10
-180.000000
 20
-103.999985
 40
5.000000
  0
CIRCLE
  8
0
 10
-210.000000
 20
-103.999985
 40
3.500000
  0
ARC
  8
0
 10
-240.000000
 20
-101.499985
 40
6.000000
 50
41.409630
 51
138.590378
  0
ARC
  8
0
 10
-240.000000
 20
-101.499985
 40
6.000001
 50
221.810303
 51
318.189697
  0
ARC
  8
0
 10
-240.000000
 20
-101.499985
 40
8.000003
 50
43.432518
 51
136.567474
  0
ARC
  8
0
 10
-158.000015
 20
-123.499992
 40
2.500008
 50
270.000000
 51
90.000000
  0
ARC
  8
0
 10
-322.000000
 20
-123.500008
 40
2.500008
 50
90.000000
 51
270.000000
  0
CIRCLE
  8
0
 10
174.500031
 20
-149.999954
 40
5.722500
  0
CIRCLE
  8
0
 10
174.500031
 20
-149.999954
 40
6.578500
  0
ARC
  8
0
 10
-324.500000
 20
81.500000
 40
2.500000
 50
180.000000
 51
270.000000
  0
ARC
  8
0
 10
-161.500000
 20
101.000000
 40
6.000000
 50
0.000000
 51
90.000000
  0
ARC
  8
0
 10
-324.500000
 20
98.500000
 40
2.500000
 50
90.000000
 51
180.000000
  0
ARC
  8
0
 10
-161.500000
 20
79.000000
 40
6.000000
 50
270.000000
 51
0.000000
  0
ARC
  8
0
 10
-155.500000
 20
98.500000
 40
2.500000
 50
0.000000
 51
90.000000
  0
ARC
  8
0
 10
-155.500000
 20
81.500000
 40
2.500000
 50
270.000000
 51
0.000000
  0
CIRCLE
  8
0
 10
-285.000000
 20
90.000000
 40
3.000000
  0
CIRCLE
  8
0
 10
-285.000000
 20
90.000000
 40
2.458500
  0
CIRCLE
  8
0
 10
-195.000000
 20
90.000000
 40
2.458500
  0
CIRCLE
  8
0
 10
-195.000000
 20
90.000000
 40
3.000000
  0
ARC
  8
0
 10
-318.500000
 20
79.000000
 40
6.000000
 50
180.000000
 51
270.000000
  0
ARC
  8
0
 10
-318.500000
 20
101.000000
 40
6.000000
 50
90.000000
 51
180.000000
  0
ARC
  8
0
 10
-183.250000
 20
109.749992
 40
1.250000
 50
90.000000
 51
180.000000
  0
ARC
  8
0
 10
-176.750000
 20
109.749992
 40
1.250000
 50
0.000000
 51
90.000000
  0
ARC
  8
0
 10
-303.250000
 20
109.749992
 40
1.250000
 50
90.000000
 51
180.000000
  0
ARC
  8
0
 10
-296.750000
 20
109.749992
 40
1.250000
 50
0.000000
 51
90.000000
  0
CIRCLE
  8
0
 10
344.000000
 20
-150.000031
 40
5.722500
  0
CIRCLE
  8
0
 10
366.000000
 20
-149.999969
 40
5.722500
  0
CIRCLE
  8
0
 10
366.000000
 20
-149.999969
 40
6.578500
  0
ARC
  8
0
 10
337.000031
 20
-168.000046
 40
8.000000
 50
180.000000
 51
270.000000
  0
ARC
  8
0
 10
336.999969
 20
-132.000046
 40
8.000000
 50
90.000000
 51
180.000000
  0
ARC
  8
0
 10
372.999969
 20
-131.999954
 40
8.000000
 50
0.000000
 51
90.000000
  0
ARC
  8
0
 10
373.000031
 20
-167.999954
 40
8.000000
 50
270.000000
 51
0.000000
  0
CIRCLE
  8
0
 10
372.999969
 20
-131.999954
 40
7.000000
  0
CIRCLE
  8
0
 10
372.999969
 20
-131.999954
 40
3.000000
  0
CIRCLE
  8
0
 10
372.999969
 20
-131.999954
 40
2.458500
  0
ARC
  8
0
 10
372.999969
 20
-131.999954
 40
8.000000
 50
180.000000
 51
270.000000
  0
CIRCLE
  8
0
 10
336.999969
 20
-132.000046
 40
2.458500
  0
ARC
  8
0
 10
336.999969
 20
-132.000046
 40
8.000000
 50
270.000000
 51
0.000000
  0
CIRCLE
  8
0
 10
336.999969
 20
-132.000046
 40
7.000000
  0
CIRCLE
  8
0
 10
336.999969
 20
-132.000046
 40
3.000000
  0
CIRCLE
  8
0
 10
337.000031
 20
-168.000046
 40
2.458500
  0
ARC
  8
0
 10
337.000031
 20
-168.000046
 40
8.000000
 50
0.000000
 51
90.000000
  0
CIRCLE
  8
0
 10
337.000031
 20
-168.000046
 40
7.000000
  0
CIRCLE
  8
0
 10
337.000031
 20
-168.000046
 40
3.000000
  0
CIRCLE
  8
0
 10
373.000031
 20
-167.999954
 40
2.458500
  0
ARC
  8
0
 10
373.000031
 20
-167.999954
 40
8.000000
 50
90.000000
 51
180.000000
  0
CIRCLE
  8
0
 10
373.000031
 20
-167.999954
 40
7.000000
  0
CIRCLE
  8
0
 10
373.000031
 20
-167.999954
 40
3.000000
  0
ARC
  8
0
 10
355.000061
 20
-181.142853
 40
12.142856
 50
25.057596
 51
154.942398
  0
ARC
  8
0
 10
340.999939
 20
-124.000031
 40
3.000000
 50
90.000000
 51
180.000000
  0
ARC
  8
0
 10
368.999939
 20
-123.999969
 40
3.000000
 50
0.000000
 51
90.000000
  0
CIRCLE
  8
0
 10
344.000000
 20
-150.000031
 40
6.578500
  0
ARC
  8
0
 10
374.749878
 20
-107.249954
 40
1.250000
 50
270.000000
 51
0.000000
  0
ARC
  8
0
 10
374.749847
 20
-100.749954
 40
1.250000
 50
0.000000
 51
90.000000
  0
TEXT
  8
0
 10
320.176178
 20
329.975403
 40
12.000000
  1
DATE : MAY ,1991
 50
0.000000
 41
1.052631
 51
0.000000
  7
STANDARD
  0
TEXT
  8
0
 10
-488.244446
 20
328.175323
 40
14.000000
  1
RODLESS CYLINDER
 50
0.000000
 41
1.052632
 51
0.000000
  7
STANDARD
  0
TEXT
  8
0
 10
-483.244446
 20
257.950592
 40
14.000000
  1
MODEL : ORCA 32xST(300)
 50
0.000000
 41
1.052632
 51
0.000000
  7
STANDARD
  0
TEXT
  8
0
 10
-251.537613
 20
149.500015
 40
10.000000
  1
2-M6x1
 50
0.000000
 41
1.052632
 51
0.000000
  7
STANDARD
  0
TEXT
  8
0
 10
55.133518
 20
-70.500015
 40
10.000000
  1
6-Rc1/4
 50
0.000000
 41
1.052632
 51
0.000000
  7
STANDARD
  0
TEXT
  8
0
 10
-121.178566
 20
-228.000000
 40
10.000000
  1
STROKE
 50
0.000000
 41
1.052632
 51
0.000000
  7
STANDARD
  0
ENDSEC
  0
EOF
