  0
SECTION
  2
HEADER
  0
ENDSEC
  0
SECTION
  2
TABLES
  0
TABLE
  2
LTYPE
 70
     4
  0
LTYPE
  2
CONTINUOUS
 70
    64
  3
Solid line
 72
    65
 73
     0
 40
0.000000
  0
LTYPE
  2
DASHED
 70
    64
  3
__ __ __ __ __ __ __ __ __ __ __ __ __ __ __
 72
    65
 73
     2
 40
3.500000
 49
2.000000
 49
-1.500000
  0
LTYPE
  2
CENTER
 70
    64
  3
____ _ ____ _ ____ _ ____ _ ____ _ ____ _ ____
 72
    65
 73
     4
 40
17.500000
 49
13.000000
 49
-1.500000
 49
1.500000
 49
-1.500000
  0
LTYPE
  2
PHANTOM
 70
    64
  3
_____ _ _ _____ _ _ _____ _ _ _____ _ _ ____  
 72
    65
 73
     6
 40
15.500000
 49
8.000000
 49
-1.500000
 49
1.500000
 49
-1.500000
 49
1.500000
 49
-1.500000
  0
LTYPE
  2
DASHED1
 70
    64
  3
__ __ __ __ __ __ __ __ __ __ __ __ __ __ __
 72
    65
 73
     2
 40
1.500000
 49
1.000000
 49
-0.500000
  0
LTYPE
  2
DASHED2
 70
    64
  3
__ __ __ __ __ __ __ __ __ __ __ __ __ __ __
 72
    65
 73
     2
 40
3.500000
 49
2.500000
 49
-1.000000
  0
LTYPE
  2
DASHED3
 70
    64
  3
__ __ __ __ __ __ __ __ __ __ __ __ __ __ __
 72
    65
 73
     2
 40
6.000000
 49
4.000000
 49
-2.000000
  0
LTYPE
  2
DASHED4
 70
    64
  3
__ __ __ __ __ __ __ __ __ __ __ __ __ __ __
 72
    65
 73
     2
 40
12.000000
 49
10.000000
 49
-2.000000
  0
LTYPE
  2
DASHED5
 70
    64
  3
__ __ __ __ __ __ __ __ __ __ __ __ __ __ __
 72
    65
 73
     2
 40
17.000000
 49
15.000000
 49
-2.000000
  0
LTYPE
  2
DASHED6
 70
    64
  3
__ __ __ __ __ __ __ __ __ __ __ __ __ __ __
 72
    65
 73
     2
 40
29.000000
 49
27.000000
 49
-2.000000
  0
LTYPE
  2
PHANTOM1
 70
    64
  3
_____ _ _ _____ _ _ _____ _ _ _____ _ _ ____  
 72
    65
 73
     6
 40
31.000000
 49
25.000000
 49
-1.500000
 49
1.000000
 49
-1.000000
 49
1.000000
 49
-1.500000
  0
LTYPE
  2
PHANTOM2
 70
    64
  3
_____ _ _ _____ _ _ _____ _ _ _____ _ _ ____  
 72
    65
 73
     6
 40
36.000000
 49
27.000000
 49
-1.500000
 49
2.500000
 49
-1.000000
 49
2.500000
 49
-1.500000
  0
LTYPE
  2
PHANTOM3
 70
    64
  3
_____ _ _ _____ _ _ _____ _ _ _____ _ _ ____  
 72
    65
 73
     6
 40
78.000000
 49
64.000000
 49
-2.000000
 49
4.000000
 49
-2.000000
 49
4.000000
 49
-2.000000
  0
LTYPE
  2
CENTER1
 70
    64
  3
____ _ ____ _ ____ _ ____ _ ____ _ ____ _ ____
 72
    65
 73
     4
 40
19.000000
 49
14.000000
 49
-1.000000
 49
3.000000
 49
-1.000000
  0
LTYPE
  2
CENTER2
 70
    64
  3
____ _ ____ _ ____ _ ____ _ ____ _ ____ _ ____
 72
    65
 73
     4
 40
28.500000
 49
25.000000
 49
-1.000000
 49
1.500000
 49
-1.000000
  0
LTYPE
  2
CENTER3
 70
    64
  3
____ _ ____ _ ____ _ ____ _ ____ _ ____ _ ____
 72
    65
 73
     4
 40
31.500000
 49
27.000000
 49
-1.000000
 49
2.500000
 49
-1.000000
  0
LTYPE
  2
CENTER4
 70
    64
  3
____ _ ____ _ ____ _ ____ _ ____ _ ____ _ ____
 72
    65
 73
     4
 40
50.000000
 49
45.000000
 49
-1.000000
 49
3.000000
 49
-1.000000
  0
LTYPE
  2
CENTER5
 70
    64
  3
____ _ ____ _ ____ _ ____ _ ____ _ ____ _ ____
 72
    65
 73
     4
 40
100.000000
 49
92.000000
 49
-2.000000
 49
4.000000
 49
-2.000000
  0
LTYPE
  2
SBK1
 70
    64
  3
______ _ _ _ ______ _ _ _ ______ _ _ _ _____  
 72
    65
 73
     8
 40
60.500000
 49
45.000000
 49
-2.000000
 49
2.500000
 49
-2.000000
 49
2.500000
 49
-2.000000
 49
2.500000
 49
-2.000000
  0
LTYPE
  2
SBK2
 70
    64
  3
______ _ _ _ ______ _ _ _ ______ _ _ _ _____  
 72
    65
 73
     8
 40
84.000000
 49
64.000000
 49
-2.000000
 49
4.000000
 49
-2.000000
 49
4.000000
 49
-2.000000
 49
4.000000
 49
-2.000000
  0
LTYPE
  2
STCH
 70
    64
  3
__ __ __ __ __ __ __ __ __ __ __ __ __ __ __
 72
    65
 73
     2
 40
3.000000
 49
1.000000
 49
-2.000000
  0
LTYPE
  2
MTCH
 70
    64
  3
_____ _ _ _____ _ _ _____ _ _ _____ _ _ ____  
 72
    65
 73
     6
 40
80.000000
 49
66.000000
 49
-2.000000
 49
4.000000
 49
-2.000000
 49
4.000000
 49
-2.000000
  0
ENDTAB
  0
TABLE
  2
LAYER
 70
     1
  0
LAYER
  2
0
 70
     0
 62
     7
  6
CONTINUOUS
  0
ENDTAB
  0
TABLE
  2
STYLE
 70
     1
  0
STYLE
  2
STANDARD
 70
     0
 40
0.000000
 41
1.000000
 50
0.000000
 71
     0
 42
0.200000
  3
txt
  4
BIGFONT
  0
ENDTAB
  0
TABLE
  2
VIEW
 70
     0
  0
ENDTAB
  0
ENDSEC
  0
SECTION
  2
BLOCKS
  0
ENDSEC
  0
SECTION
  2
ENTITIES
  0
POINT
  8
0
 10
-390.000000
 20
110.000000
  0
POINT
  8
0
 10
210.000031
 20
110.000000
  0
POINT
  8
0
 10
209.999969
 20
-149.999969
  0
POINT
  8
0
 10
-390.000000
 20
-149.999969
  0
POINT
  8
0
 10
359.999969
 20
-149.999954
  0
POINT
  8
0
 10
389.999969
 20
-149.999954
  0
LINE
  8
0
 62
     3
 10
-524.494446
 20
-360.000092
 11
-524.494446
 21
360.000092
  0
LINE
  8
0
 62
     3
 10
524.494446
 20
360.000092
 11
524.494446
 21
-360.000092
  0
LINE
  8
0
 62
     3
 10
-524.494446
 20
-360.000092
 11
524.494446
 21
-360.000092
  0
LINE
  8
0
 62
     3
 10
-524.494446
 20
360.000092
 11
524.494446
 21
360.000092
  0
LINE
  8
0
 62
     3
 10
-524.494446
 20
319.550598
 11
-224.494446
 21
319.550598
  0
LINE
  8
0
 62
     3
 10
-224.494446
 20
319.550598
 11
-224.494446
 21
360.000092
  0
LINE
  8
0
 62
     3
 10
308.764069
 20
-319.550690
 11
524.494446
 21
-319.550690
  0
LINE
  8
0
 62
     5
 10
365.406830
 20
-329.276672
 11
386.130402
 21
-329.276672
  0
LINE
  8
0
 62
     5
 10
365.406830
 20
-347.654236
 11
383.002350
 21
-347.654236
  0
LINE
  8
0
 62
     5
 10
365.406830
 20
-352.346344
 11
389.258545
 21
-352.346344
  0
LINE
  8
0
 62
     5
 10
365.406830
 20
-333.968781
 11
383.002350
 21
-333.968781
  0
LINE
  8
0
 62
     5
 10
365.406830
 20
-329.276672
 11
365.406830
 21
-333.968781
  0
LINE
  8
0
 62
     5
 10
389.258545
 20
-332.404785
 11
389.258545
 21
-352.346344
  0
LINE
  8
0
 62
     5
 10
383.002350
 20
-333.968781
 11
383.002350
 21
-347.654236
  0
LINE
  8
0
 62
     5
 10
392.777557
 20
-329.276672
 11
392.777557
 21
-333.968781
  0
LINE
  8
0
 62
     5
 10
415.065186
 20
-333.968781
 11
415.065186
 21
-349.218353
  0
LINE
  8
0
 62
     5
 10
408.809052
 20
-333.968781
 11
408.809052
 21
-347.654236
  0
LINE
  8
0
 62
     5
 10
365.406830
 20
-347.654236
 11
365.406830
 21
-352.346344
  0
LINE
  8
0
 62
     5
 10
392.777557
 20
-329.276672
 11
398.959137
 21
-329.276672
  0
LINE
  8
0
 62
     5
 10
392.777557
 20
-352.346344
 11
397.635284
 21
-352.346344
  0
LINE
  8
0
 62
     5
 10
392.777435
 20
-352.346161
 11
397.701843
 21
-333.968719
  0
LINE
  8
0
 62
     5
 10
392.777557
 20
-333.968781
 11
397.701874
 21
-333.968781
  0
LINE
  8
0
 62
     5
 10
397.635559
 20
-352.346558
 11
402.559723
 21
-333.969055
  0
LINE
  8
0
 62
     5
 10
404.116852
 20
-347.654236
 11
408.809052
 21
-347.654236
  0
LINE
  8
0
 62
     5
 10
404.116730
 20
-347.654144
 11
405.373871
 21
-352.346191
  0
LINE
  8
0
 62
     5
 10
405.374237
 20
-352.346344
 11
411.937195
 21
-352.346344
  0
LINE
  8
0
 62
     5
 10
402.559540
 20
-333.968781
 11
408.809052
 21
-333.968781
  0
LINE
  8
0
 62
     5
 10
403.816772
 20
-329.276672
 11
410.373047
 21
-329.276672
  0
LINE
  8
0
 62
     5
 10
398.959198
 20
-329.276703
 11
399.891571
 21
-325.796783
  0
LINE
  8
0
 62
     5
 10
403.816467
 20
-329.276459
 11
404.748840
 21
-325.796417
  0
LINE
  8
0
 62
     5
 10
418.975342
 20
-329.276672
 11
426.404572
 21
-329.276672
  0
LINE
  8
0
 62
     5
 10
418.975342
 20
-333.968781
 11
437.221191
 21
-333.968781
  0
LINE
  8
0
 62
     5
 10
426.404572
 20
-352.346344
 11
432.660645
 21
-352.346344
  0
LINE
  8
0
 62
     5
 10
418.975342
 20
-329.276672
 11
418.975342
 21
-333.968781
  0
LINE
  8
0
 62
     5
 10
442.045044
 20
-342.477020
 11
442.045044
 21
-347.654236
  0
LINE
  8
0
 62
     5
 10
418.975037
 20
-347.654053
 11
426.404388
 21
-344.189636
  0
LINE
  8
0
 62
     5
 10
418.975769
 20
-342.477356
 11
437.221558
 21
-333.969116
  0
LINE
  8
0
 62
     5
 10
418.975342
 20
-342.477020
 11
418.975342
 21
-347.654236
  0
LINE
  8
0
 62
     5
 10
432.660492
 20
-343.278107
 11
442.044983
 21
-347.654083
  0
LINE
  8
0
 62
     5
 10
436.062103
 20
-339.687286
 11
442.045654
 21
-342.477448
  0
LINE
  8
0
 62
     5
 10
442.045044
 20
-332.404785
 11
442.045044
 21
-334.903870
  0
LINE
  8
0
 62
     5
 10
426.404572
 20
-325.796722
 11
426.404572
 21
-329.276672
  0
LINE
  8
0
 62
     5
 10
432.660645
 20
-325.796722
 11
432.660645
 21
-329.276672
  0
LINE
  8
0
 62
     5
 10
432.660645
 20
-329.276672
 11
438.916931
 21
-329.276672
  0
LINE
  8
0
 62
     5
 10
426.404572
 20
-344.189972
 11
426.404572
 21
-352.346344
  0
LINE
  8
0
 62
     5
 10
432.660645
 20
-343.278320
 11
432.660645
 21
-352.346344
  0
LINE
  8
0
 62
     5
 10
436.062073
 20
-339.687256
 11
440.239532
 21
-337.739288
  0
LINE
  8
0
 62
     5
 10
463.159668
 20
-327.204376
 11
467.851685
 21
-327.204376
  0
LINE
  8
0
 62
     5
 10
444.000122
 20
-336.896667
 11
444.000122
 21
-341.946259
  0
LINE
  8
0
 62
     5
 10
467.851685
 20
-327.204376
 11
467.851685
 21
-329.276672
  0
LINE
  8
0
 62
     5
 10
463.159668
 20
-327.204376
 11
463.159668
 21
-328.215485
  0
LINE
  8
0
 62
     5
 10
456.903442
 20
-336.814453
 11
456.903442
 21
-352.346344
  0
LINE
  8
0
 62
     5
 10
444.000275
 20
-336.896881
 11
462.173828
 21
-329.669067
  0
LINE
  8
0
 62
     5
 10
444.000092
 20
-341.946411
 11
456.903412
 21
-336.814545
  0
LINE
  8
0
 62
     5
 10
456.903442
 20
-352.346344
 11
463.159668
 21
-352.346344
  0
LINE
  8
0
 62
     5
 10
463.159668
 20
-334.326324
 11
463.159668
 21
-352.346344
  0
LINE
  8
0
 62
     5
 10
463.160126
 20
-334.326630
 11
464.894257
 21
-333.636902
  0
LINE
  8
0
 62
     5
 10
399.891602
 20
-325.796722
 11
404.749207
 21
-325.796722
  0
LINE
  8
0
 62
     5
 10
412.523682
 20
-325.796722
 11
414.517731
 21
-325.796722
  0
LINE
  8
0
 62
     5
 10
426.404572
 20
-325.796722
 11
432.660645
 21
-325.796722
  0
LINE
  8
0
 62
     5
 10
412.523682
 20
-328.924835
 11
414.517731
 21
-328.924835
  0
LINE
  8
0
 62
     5
 10
412.523682
 20
-325.796722
 11
412.523682
 21
-328.924835
  0
LINE
  8
0
 62
     5
 10
414.517731
 20
-325.796722
 11
414.517731
 21
-328.924835
  0
LINE
  8
0
 62
     5
 10
415.690887
 20
-325.796722
 11
415.690887
 21
-328.924835
  0
LINE
  8
0
 62
     5
 10
417.919678
 20
-325.796722
 11
417.919678
 21
-328.924835
  0
LINE
  8
0
 62
     5
 10
415.690887
 20
-325.796722
 11
417.919678
 21
-325.796722
  0
LINE
  8
0
 62
     5
 10
415.690887
 20
-328.924835
 11
417.919678
 21
-328.924835
  0
LINE
  8
0
 62
     3
 10
308.764069
 20
319.550598
 11
524.494446
 21
319.550598
  0
LINE
  8
0
 62
     3
 10
308.764069
 20
360.000092
 11
308.764069
 21
319.550598
  0
LINE
  8
0
 62
     3
 10
308.764069
 20
-319.550690
 11
308.764069
 21
-360.000092
  0
LINE
  8
0
 10
179.999969
 20
-119.999969
 11
179.999969
 21
-184.999969
  0
LINE
  8
0
 10
179.999969
 20
-180.000000
 11
209.999969
 21
-180.000000
  0
LINE
  8
0
 10
179.999969
 20
-120.000000
 11
209.999969
 21
-120.000000
  0
LINE
  8
0
 10
209.999969
 20
-119.999969
 11
209.999969
 21
-179.999969
  0
LINE
  8
0
  6
CENTER
 10
180.499969
 20
-141.000000
 11
192.499969
 21
-141.000000
  0
LINE
  8
0
  6
CENTER
 10
186.499969
 20
-134.999969
 11
186.499969
 21
-146.999969
  0
LINE
  8
0
 10
184.761978
 20
-143.445221
 11
188.945267
 21
-139.261932
  0
LINE
  8
0
 10
184.054825
 20
-142.738159
 11
188.238129
 21
-138.554871
  0
LINE
  8
0
  6
CENTER
 10
-378.000000
 20
-136.000000
 11
-378.000000
 21
-164.000000
  0
LINE
  8
0
  6
CENTER
 10
-360.500000
 20
-141.000000
 11
-372.500000
 21
-141.000000
  0
LINE
  8
0
  6
CENTER
 10
-366.500000
 20
-135.000000
 11
-366.500000
 21
-147.000000
  0
LINE
  8
0
 10
-364.054779
 20
-139.261902
 11
-368.238098
 21
-143.445206
  0
LINE
  8
0
 10
-364.761902
 20
-138.554855
 11
-368.945221
 21
-142.738144
  0
LINE
  8
0
 10
-384.000000
 20
-163.970428
 11
-384.000000
 21
-180.000000
  0
LINE
  8
0
  6
CENTER
 10
-379.000000
 20
-171.000000
 11
-395.000000
 21
-171.000000
  0
LINE
  8
0
 10
-384.000000
 20
-180.000000
 11
-384.000000
 21
-162.000000
  0
LINE
  8
0
 10
-384.000000
 20
-162.000000
 11
-390.000000
 21
-162.000000
  0
LINE
  8
0
 10
-385.508148
 20
-165.226562
 11
-390.000000
 21
-165.226562
  0
LINE
  8
0
 10
-385.508148
 20
-173.886780
 11
-390.000000
 21
-173.886780
  0
LINE
  8
0
 10
-385.508148
 20
-176.773560
 11
-390.000000
 21
-176.773560
  0
LINE
  8
0
 10
-385.508148
 20
-168.113251
 11
-390.000000
 21
-168.113251
  0
LINE
  8
0
 10
-360.000000
 20
-185.000000
 11
179.999969
 21
-185.000000
  0
LINE
  8
0
 10
133.367462
 20
-183.000000
 11
149.999969
 21
-183.000000
  0
LINE
  8
0
 10
141.858978
 20
-178.699997
 11
179.999969
 21
-178.699997
  0
LINE
  8
0
 10
149.999969
 20
-182.999969
 11
149.999969
 21
-184.999969
  0
LINE
  8
0
 10
-360.000000
 20
-154.000000
 11
179.999969
 21
-154.000000
  0
LINE
  8
0
 10
-360.000000
 20
-146.000000
 11
179.999969
 21
-146.000000
  0
LINE
  8
0
 10
-360.000000
 20
-160.000000
 11
179.999969
 21
-160.000000
  0
LINE
  8
0
 10
-360.000000
 20
-140.000000
 11
179.999969
 21
-140.000000
  0
LINE
  8
0
 10
-360.000000
 20
-163.000000
 11
179.999969
 21
-163.000000
  0
LINE
  8
0
 10
-360.000000
 20
-137.000000
 11
179.999969
 21
-137.000000
  0
LINE
  8
0
 10
-390.000000
 20
-120.000000
 11
-390.000000
 21
-180.000000
  0
LINE
  8
0
 10
-360.000000
 20
-120.000000
 11
-390.000000
 21
-120.000000
  0
LINE
  8
0
 10
-360.000000
 20
-180.000000
 11
-390.000000
 21
-180.000000
  0
LINE
  8
0
 10
-384.000000
 20
-138.000000
 11
-390.000000
 21
-138.000000
  0
LINE
  8
0
 10
-384.000000
 20
-120.000000
 11
-384.000000
 21
-138.000000
  0
LINE
  8
0
  6
CENTER
 10
-379.000000
 20
-129.000000
 11
-395.000000
 21
-129.000000
  0
LINE
  8
0
 10
-360.000000
 20
-120.000000
 11
-360.000000
 21
-185.000000
  0
LINE
  8
0
  6
CENTER
 10
-240.000000
 20
-83.999954
 11
-240.000000
 21
-190.000000
  0
LINE
  8
0
  6
CENTER
 10
60.000000
 20
-116.999985
 11
60.000000
 21
-189.999985
  0
LINE
  8
0
 10
-337.000000
 20
-115.999954
 11
-143.000000
 21
-115.999954
  0
LINE
  8
0
 10
-329.000000
 20
-88.999954
 11
-151.000000
 21
-88.999954
  0
LINE
  8
0
 10
-335.000000
 20
-92.999954
 11
-245.000000
 21
-92.999954
  0
LINE
  8
0
 10
-335.000000
 20
-92.999954
 11
-335.000000
 21
-115.999954
  0
LINE
  8
0
 10
-145.000000
 20
-92.999939
 11
-145.000000
 21
-115.999939
  0
LINE
  8
0
 10
-329.000000
 20
-88.999954
 11
-329.000000
 21
-92.999954
  0
LINE
  8
0
 10
-151.000000
 20
-88.999939
 11
-151.000000
 21
-92.999939
  0
LINE
  8
0
  6
CENTER
 10
-275.000000
 20
-100.999954
 11
-260.000000
 21
-100.999954
  0
LINE
  8
0
  6
CENTER
 10
-267.500000
 20
-93.499954
 11
-267.500000
 21
-108.499954
  0
LINE
  8
0
  6
CENTER
 10
-304.000000
 20
-100.999954
 11
-286.000000
 21
-100.999954
  0
LINE
  8
0
  6
CENTER
 10
-295.000000
 20
-91.999954
 11
-295.000000
 21
-109.999954
  0
LINE
  8
0
 10
-297.500031
 20
-102.443336
 11
-295.000031
 21
-103.886711
  0
LINE
  8
0
 10
-295.000061
 20
-103.886726
 11
-292.500061
 21
-102.443352
  0
LINE
  8
0
 10
-292.499969
 20
-102.443344
 11
-292.499969
 21
-99.556595
  0
LINE
  8
0
 10
-292.500000
 20
-99.556572
 11
-295.000000
 21
-98.113197
  0
LINE
  8
0
 10
-295.000061
 20
-98.113159
 11
-297.500061
 21
-99.556534
  0
LINE
  8
0
 10
-297.499969
 20
-99.556564
 11
-297.499969
 21
-102.443314
  0
LINE
  8
0
  6
CENTER
 10
-205.000000
 20
-100.999954
 11
-220.000000
 21
-100.999954
  0
LINE
  8
0
  6
CENTER
 10
-212.500000
 20
-93.499939
 11
-212.500000
 21
-108.499939
  0
LINE
  8
0
  6
CENTER
 10
-176.000000
 20
-100.999954
 11
-194.000000
 21
-100.999954
  0
LINE
  8
0
  6
CENTER
 10
-185.000000
 20
-91.999939
 11
-185.000000
 21
-109.999939
  0
LINE
  8
0
 10
-182.499985
 20
-102.443283
 11
-184.999969
 21
-103.886658
  0
LINE
  8
0
 10
-184.999908
 20
-103.886650
 11
-187.499908
 21
-102.443275
  0
LINE
  8
0
 10
-187.500031
 20
-102.443329
 11
-187.500031
 21
-99.556580
  0
LINE
  8
0
 10
-187.500046
 20
-99.556564
 11
-185.000046
 21
-98.113190
  0
LINE
  8
0
 10
-184.999893
 20
-98.113113
 11
-182.499893
 21
-99.556488
  0
LINE
  8
0
 10
-182.500031
 20
-99.556549
 11
-182.500031
 21
-102.443298
  0
LINE
  8
0
 10
-245.000000
 20
-92.999954
 11
-245.000000
 21
-100.999954
  0
LINE
  8
0
 10
-235.000000
 20
-92.999939
 11
-235.000000
 21
-100.999939
  0
LINE
  8
0
 10
-235.000000
 20
-92.999954
 11
-145.000000
 21
-92.999954
  0
LINE
  8
0
  6
CENTER
 10
-249.000000
 20
-98.999954
 11
-231.000000
 21
-98.999954
  0
LINE
  8
0
  6
CENTER
 10
-394.999969
 20
-149.999969
 11
215.000031
 21
-149.999969
  0
LINE
  8
0
 10
-360.000000
 20
-178.999969
 11
141.195770
 21
-178.999969
  0
LINE
  8
0
 10
-381.000031
 20
-151.732025
 11
-378.000031
 21
-153.464081
  0
LINE
  8
0
 10
-378.000031
 20
-153.464081
 11
-375.000031
 21
-151.732025
  0
LINE
  8
0
 10
-375.000000
 20
-151.732025
 11
-375.000000
 21
-148.267914
  0
LINE
  8
0
 10
-375.000031
 20
-148.267914
 11
-378.000031
 21
-146.535873
  0
LINE
  8
0
 10
-378.000061
 20
-146.535889
 11
-381.000061
 21
-148.267944
  0
LINE
  8
0
 10
-381.000000
 20
-148.267914
 11
-381.000000
 21
-151.732025
  0
LINE
  8
0
  6
CENTER
 10
197.999969
 20
-135.999969
 11
197.999969
 21
-163.999969
  0
LINE
  8
0
 10
201.000000
 20
-151.732025
 11
198.000000
 21
-153.464081
  0
LINE
  8
0
 10
198.000000
 20
-153.464066
 11
194.999985
 21
-151.732010
  0
LINE
  8
0
 10
194.999969
 20
-151.731995
 11
194.999969
 21
-148.267883
  0
LINE
  8
0
 10
195.000000
 20
-148.267944
 11
198.000015
 21
-146.535889
  0
LINE
  8
0
 10
197.999985
 20
-146.535858
 11
201.000000
 21
-148.267914
  0
LINE
  8
0
 10
200.999969
 20
-148.267883
 11
200.999969
 21
-151.731995
  0
LINE
  8
0
 10
-360.000000
 20
-121.999969
 11
179.999969
 21
-121.999969
  0
LINE
  8
0
 10
-384.799988
 20
-178.000000
 11
-384.799988
 21
-164.000000
  0
LINE
  8
0
 10
-384.000000
 20
-164.000000
 11
-384.799988
 21
-164.000000
  0
LINE
  8
0
 10
-384.000000
 20
-178.000000
 11
-384.799988
 21
-178.000000
  0
LINE
  8
0
 10
-384.799988
 20
-178.000015
 11
-385.508087
 21
-176.773575
  0
LINE
  8
0
 10
-384.800018
 20
-164.000000
 11
-385.508179
 21
-165.226578
  0
LINE
  8
0
 10
-385.508148
 20
-165.226562
 11
-385.508148
 21
-176.773437
  0
LINE
  8
0
 10
-385.508148
 20
-134.773376
 11
-385.508148
 21
-123.226501
  0
LINE
  8
0
 10
-385.508148
 20
-134.773376
 11
-390.000000
 21
-134.773376
  0
LINE
  8
0
 10
-385.508148
 20
-126.113159
 11
-390.000000
 21
-126.113159
  0
LINE
  8
0
 10
-385.508148
 20
-123.226379
 11
-390.000000
 21
-123.226379
  0
LINE
  8
0
 10
-385.508148
 20
-131.886688
 11
-390.000000
 21
-131.886688
  0
LINE
  8
0
 10
-384.799988
 20
-121.999939
 11
-384.799988
 21
-135.999939
  0
LINE
  8
0
 10
-384.000000
 20
-135.999939
 11
-384.799988
 21
-135.999939
  0
LINE
  8
0
 10
-384.000000
 20
-121.999939
 11
-384.799988
 21
-121.999939
  0
LINE
  8
0
 10
-384.800018
 20
-121.999916
 11
-385.508087
 21
-123.226349
  0
LINE
  8
0
 10
-384.800018
 20
-135.999954
 11
-385.508179
 21
-134.773376
  0
LINE
  8
0
 10
203.999969
 20
-163.970398
 11
203.999969
 21
-179.999969
  0
LINE
  8
0
  6
CENTER
 10
198.999969
 20
-171.000000
 11
214.999969
 21
-171.000000
  0
LINE
  8
0
 10
203.999969
 20
-179.999969
 11
203.999969
 21
-161.999969
  0
LINE
  8
0
 10
203.999969
 20
-162.000000
 11
209.999969
 21
-162.000000
  0
LINE
  8
0
 10
205.508087
 20
-165.226562
 11
209.999969
 21
-165.226562
  0
LINE
  8
0
 10
205.508087
 20
-173.886780
 11
209.999969
 21
-173.886780
  0
LINE
  8
0
 10
205.508087
 20
-176.773560
 11
209.999969
 21
-176.773560
  0
LINE
  8
0
 10
205.508087
 20
-168.113251
 11
209.999969
 21
-168.113251
  0
LINE
  8
0
 10
204.799942
 20
-121.999916
 11
205.508072
 21
-123.226364
  0
LINE
  8
0
 10
204.799911
 20
-135.999954
 11
205.508118
 21
-134.773361
  0
LINE
  8
0
 10
203.999969
 20
-135.999939
 11
204.799896
 21
-135.999939
  0
LINE
  8
0
 10
203.999969
 20
-138.000000
 11
209.999969
 21
-138.000000
  0
LINE
  8
0
 10
203.999969
 20
-119.999969
 11
203.999969
 21
-137.999969
  0
LINE
  8
0
  6
CENTER
 10
198.999969
 20
-129.000000
 11
214.999969
 21
-129.000000
  0
LINE
  8
0
 10
203.999969
 20
-121.999939
 11
204.799896
 21
-121.999939
  0
LINE
  8
0
 10
204.799896
 20
-177.999969
 11
204.799896
 21
-163.999969
  0
LINE
  8
0
 10
203.999969
 20
-164.000000
 11
204.799896
 21
-164.000000
  0
LINE
  8
0
 10
203.999969
 20
-178.000000
 11
204.799896
 21
-178.000000
  0
LINE
  8
0
 10
204.799911
 20
-178.000000
 11
205.508041
 21
-176.773544
  0
LINE
  8
0
 10
204.799881
 20
-163.999969
 11
205.508087
 21
-165.226562
  0
LINE
  8
0
 10
205.508087
 20
-165.226532
 11
205.508087
 21
-176.773407
  0
LINE
  8
0
 10
205.508087
 20
-134.773346
 11
205.508087
 21
-123.226471
  0
LINE
  8
0
 10
205.508087
 20
-134.773376
 11
209.999969
 21
-134.773376
  0
LINE
  8
0
 10
205.508087
 20
-126.113159
 11
209.999969
 21
-126.113159
  0
LINE
  8
0
 10
205.508087
 20
-123.226379
 11
209.999969
 21
-123.226379
  0
LINE
  8
0
 10
205.508087
 20
-131.886688
 11
209.999969
 21
-131.886688
  0
LINE
  8
0
 10
204.799896
 20
-121.999908
 11
204.799896
 21
-135.999908
  0
LINE
  8
0
  6
CENTER
 10
-295.000000
 20
85.000008
 11
-295.000000
 21
137.000000
  0
LINE
  8
0
 10
-290.000000
 20
90.000008
 11
-290.000000
 21
96.000008
  0
LINE
  8
0
 10
-300.000000
 20
90.000008
 11
-300.000000
 21
96.000008
  0
LINE
  8
0
 10
-299.999939
 20
90.000000
 11
-289.999939
 21
90.000000
  0
LINE
  8
0
 10
-300.000000
 20
129.000000
 11
-290.000000
 21
129.000000
  0
LINE
  8
0
 10
-390.000000
 20
140.000000
 11
-390.000000
 21
80.000000
  0
LINE
  8
0
  6
CENTER
 10
-395.000000
 20
110.000000
 11
215.000031
 21
110.000000
  0
LINE
  8
0
 10
-360.000000
 20
140.000000
 11
-360.000000
 21
80.000000
  0
LINE
  8
0
 10
-360.000000
 20
80.000000
 11
-390.000000
 21
80.000000
  0
LINE
  8
0
 10
-360.000000
 20
140.000000
 11
-390.000000
 21
140.000000
  0
LINE
  8
0
 10
-384.000000
 20
140.000000
 11
-384.000000
 21
122.000000
  0
LINE
  8
0
 10
-384.000000
 20
122.000000
 11
-390.000000
 21
122.000000
  0
LINE
  8
0
  6
CENTER
 10
-240.000000
 20
144.000000
 11
-240.000000
 21
69.999992
  0
LINE
  8
0
  6
CENTER
 10
60.000000
 20
142.999969
 11
60.000000
 21
69.999977
  0
LINE
  8
0
 10
-384.000000
 20
98.000000
 11
-390.000000
 21
98.000000
  0
LINE
  8
0
 10
-384.000000
 20
80.000000
 11
-384.000000
 21
98.000000
  0
LINE
  8
0
  6
CENTER
 10
-379.000000
 20
89.000000
 11
-395.000000
 21
89.000000
  0
LINE
  8
0
 10
-390.000000
 20
93.999954
 11
-385.508209
 21
93.999954
  0
LINE
  8
0
 10
-390.000000
 20
83.999954
 11
-385.508209
 21
83.999954
  0
LINE
  8
0
 10
-390.000000
 20
88.999954
 11
-385.508209
 21
88.999954
  0
LINE
  8
0
 10
210.000031
 20
139.999969
 11
210.000031
 21
79.999969
  0
LINE
  8
0
 10
180.000031
 20
139.999969
 11
180.000031
 21
79.999969
  0
LINE
  8
0
 10
180.000031
 20
80.000000
 11
210.000031
 21
80.000000
  0
LINE
  8
0
 10
180.000031
 20
140.000000
 11
210.000031
 21
140.000000
  0
LINE
  8
0
 10
-360.000000
 20
81.000000
 11
180.000031
 21
81.000000
  0
LINE
  8
0
 10
-360.000000
 20
139.000000
 11
180.000031
 21
139.000000
  0
LINE
  8
0
 10
-335.000000
 20
123.999985
 11
-335.000000
 21
95.999985
  0
LINE
  8
0
 10
-145.000000
 20
123.999969
 11
-145.000000
 21
95.999969
  0
LINE
  8
0
 10
-335.000000
 20
123.999985
 11
-145.000000
 21
123.999985
  0
LINE
  8
0
 10
-335.000000
 20
118.999985
 11
-145.000000
 21
118.999985
  0
LINE
  8
0
 10
-335.000000
 20
100.999985
 11
-145.000000
 21
100.999985
  0
LINE
  8
0
 10
-335.000000
 20
95.999985
 11
-145.000000
 21
95.999985
  0
LINE
  8
0
 10
-151.000000
 20
118.999969
 11
-151.000000
 21
100.999969
  0
LINE
  8
0
 10
-329.000000
 20
118.999985
 11
-329.000000
 21
100.999985
  0
LINE
  8
0
 10
-340.000000
 20
120.999985
 11
-340.000000
 21
98.999985
  0
LINE
  8
0
 10
-140.000000
 20
120.999969
 11
-140.000000
 21
98.999969
  0
LINE
  8
0
 10
-335.000000
 20
125.999985
 11
-300.000000
 21
125.999985
  0
LINE
  8
0
 10
-335.000000
 20
93.999985
 11
-300.000000
 21
93.999985
  0
LINE
  8
0
 10
-235.000000
 20
123.999977
 11
-235.000000
 21
118.999977
  0
LINE
  8
0
 10
-245.000000
 20
123.999977
 11
-245.000000
 21
118.999977
  0
LINE
  8
0
 10
-245.000000
 20
100.999977
 11
-245.000000
 21
95.999977
  0
LINE
  8
0
 10
-235.000000
 20
100.999977
 11
-235.000000
 21
95.999977
  0
LINE
  8
0
  6
CENTER
 10
-212.500000
 20
128.999969
 11
-212.500000
 21
90.999977
  0
LINE
  8
0
  6
CENTER
 10
-267.500000
 20
128.999969
 11
-267.500000
 21
90.999977
  0
LINE
  8
0
  6
CENTER
 10
-285.000000
 20
115.999992
 11
-285.000000
 21
103.999992
  0
LINE
  8
0
 10
-290.000000
 20
93.999985
 11
-190.000000
 21
93.999985
  0
LINE
  8
0
 10
-290.000000
 20
125.999985
 11
-190.000000
 21
125.999985
  0
LINE
  8
0
 10
-295.000000
 20
129.000000
 11
-295.000000
 21
123.999977
  0
LINE
  8
0
 10
-290.000000
 20
129.000000
 11
-290.000000
 21
123.999977
  0
LINE
  8
0
 10
-300.000000
 20
129.000000
 11
-300.000000
 21
123.999977
  0
LINE
  8
0
 10
-190.000000
 20
90.000008
 11
-190.000000
 21
96.000008
  0
LINE
  8
0
 10
-180.000000
 20
90.000008
 11
-180.000000
 21
96.000008
  0
LINE
  8
0
 10
-180.000000
 20
129.000000
 11
-190.000000
 21
129.000000
  0
LINE
  8
0
 10
-190.000000
 20
129.000000
 11
-190.000000
 21
123.999977
  0
LINE
  8
0
 10
-180.000000
 20
129.000000
 11
-180.000000
 21
123.999977
  0
LINE
  8
0
 10
-180.000061
 20
90.000000
 11
-190.000061
 21
90.000000
  0
LINE
  8
0
 10
-185.000000
 20
129.000000
 11
-185.000000
 21
123.999977
  0
LINE
  8
0
  6
CENTER
 10
-185.000000
 20
85.000008
 11
-185.000000
 21
137.000000
  0
LINE
  8
0
  6
CENTER
 10
-195.000000
 20
115.999992
 11
-195.000000
 21
103.999992
  0
LINE
  8
0
 10
-180.000000
 20
93.999985
 11
-145.000000
 21
93.999985
  0
LINE
  8
0
 10
-180.000000
 20
125.999985
 11
-145.000000
 21
125.999985
  0
LINE
  8
0
 10
-345.000000
 20
119.000000
 11
-345.000000
 21
101.000000
  0
LINE
  8
0
 10
-360.000000
 20
101.000000
 11
-345.000000
 21
101.000000
  0
LINE
  8
0
 10
-360.000000
 20
119.000000
 11
-345.000000
 21
119.000000
  0
LINE
  8
0
 10
-343.000000
 20
99.000000
 11
-340.000000
 21
99.000000
  0
LINE
  8
0
 10
-343.000000
 20
121.000000
 11
-340.000000
 21
121.000000
  0
LINE
  8
0
 10
-135.000000
 20
118.999985
 11
-135.000000
 21
100.999985
  0
LINE
  8
0
 10
180.000031
 20
101.000000
 11
-135.000000
 21
101.000000
  0
LINE
  8
0
 10
180.000031
 20
119.000000
 11
-135.000000
 21
119.000000
  0
LINE
  8
0
 10
-137.000000
 20
99.000000
 11
-140.000000
 21
99.000000
  0
LINE
  8
0
 10
-137.000000
 20
121.000000
 11
-140.000000
 21
121.000000
  0
LINE
  8
0
 10
-180.500000
 20
129.000000
 11
-180.500000
 21
130.250000
  0
LINE
  8
0
 10
-189.500000
 20
129.000000
 11
-189.500000
 21
130.250000
  0
LINE
  8
0
 10
-188.250000
 20
131.500000
 11
-181.750000
 21
131.500000
  0
LINE
  8
0
 10
-299.500000
 20
129.000000
 11
-299.500000
 21
130.250000
  0
LINE
  8
0
 10
-298.250000
 20
131.500000
 11
-291.750000
 21
131.500000
  0
LINE
  8
0
 10
-290.500000
 20
129.000000
 11
-290.500000
 21
130.250000
  0
LINE
  8
0
 10
-384.799988
 20
82.000053
 11
-384.799988
 21
96.000145
  0
LINE
  8
0
 10
-384.000122
 20
96.000145
 11
-384.799988
 21
96.000145
  0
LINE
  8
0
 10
-384.000061
 20
82.000053
 11
-384.799988
 21
82.000053
  0
LINE
  8
0
 10
-385.508209
 20
83.226692
 11
-385.508209
 21
94.773506
  0
LINE
  8
0
 10
-384.800018
 20
96.000160
 11
-385.508240
 21
94.773514
  0
LINE
  8
0
 10
-384.800049
 20
82.000053
 11
-385.508270
 21
83.226700
  0
LINE
  8
0
  6
CENTER
 10
-379.000000
 20
131.000000
 11
-395.000000
 21
131.000000
  0
LINE
  8
0
 10
-390.000000
 20
126.000046
 11
-385.508209
 21
126.000046
  0
LINE
  8
0
 10
-390.000000
 20
136.000046
 11
-385.508209
 21
136.000046
  0
LINE
  8
0
 10
-390.000000
 20
131.000046
 11
-385.508209
 21
131.000046
  0
LINE
  8
0
 10
-384.799988
 20
137.999939
 11
-384.799988
 21
123.999855
  0
LINE
  8
0
 10
-384.000122
 20
123.999855
 11
-384.799988
 21
123.999855
  0
LINE
  8
0
 10
-384.000061
 20
137.999939
 11
-384.799988
 21
137.999939
  0
LINE
  8
0
 10
-385.508209
 20
136.773315
 11
-385.508209
 21
125.226494
  0
LINE
  8
0
 10
-384.800018
 20
123.999855
 11
-385.508240
 21
125.226509
  0
LINE
  8
0
 10
-384.800049
 20
137.999969
 11
-385.508240
 21
136.773331
  0
LINE
  8
0
 10
204.800095
 20
123.999847
 11
205.508286
 21
125.226471
  0
LINE
  8
0
 10
205.508270
 20
136.773285
 11
205.508270
 21
125.226463
  0
LINE
  8
0
 10
204.800171
 20
137.999954
 11
205.508362
 21
136.773315
  0
LINE
  8
0
 10
204.000153
 20
137.999939
 11
204.800079
 21
137.999939
  0
LINE
  8
0
 10
204.000031
 20
139.999969
 11
204.000031
 21
121.999969
  0
LINE
  8
0
 10
204.000031
 20
122.000000
 11
210.000031
 21
122.000000
  0
LINE
  8
0
 10
204.000031
 20
98.000000
 11
210.000031
 21
98.000000
  0
LINE
  8
0
 10
204.000031
 20
79.999969
 11
204.000031
 21
97.999969
  0
LINE
  8
0
  6
CENTER
 10
199.000031
 20
89.000000
 11
215.000031
 21
89.000000
  0
LINE
  8
0
 10
210.000031
 20
93.999954
 11
205.508270
 21
93.999954
  0
LINE
  8
0
 10
210.000031
 20
83.999954
 11
205.508270
 21
83.999954
  0
LINE
  8
0
 10
210.000031
 20
88.999954
 11
205.508270
 21
88.999954
  0
LINE
  8
0
 10
204.800079
 20
82.000023
 11
204.800079
 21
96.000114
  0
LINE
  8
0
 10
204.000153
 20
96.000145
 11
204.800079
 21
96.000145
  0
LINE
  8
0
 10
204.000153
 20
82.000053
 11
204.800079
 21
82.000053
  0
LINE
  8
0
 10
205.508270
 20
83.226662
 11
205.508270
 21
94.773476
  0
LINE
  8
0
 10
204.800079
 20
96.000114
 11
205.508270
 21
94.773491
  0
LINE
  8
0
 10
204.800125
 20
82.000031
 11
205.508316
 21
83.226662
  0
LINE
  8
0
  6
CENTER
 10
199.000031
 20
131.000000
 11
215.000031
 21
131.000000
  0
LINE
  8
0
 10
210.000031
 20
126.000046
 11
205.508270
 21
126.000046
  0
LINE
  8
0
 10
210.000031
 20
136.000046
 11
205.508270
 21
136.000046
  0
LINE
  8
0
 10
210.000031
 20
131.000046
 11
205.508270
 21
131.000046
  0
LINE
  8
0
 10
204.800079
 20
137.999908
 11
204.800079
 21
123.999825
  0
LINE
  8
0
 10
204.000153
 20
123.999855
 11
204.800079
 21
123.999855
  0
LINE
  8
0
 10
339.000031
 20
-180.000000
 11
350.000031
 21
-180.000000
  0
LINE
  8
0
  6
CENTER
 10
327.000000
 20
-171.000000
 11
351.000000
 21
-171.000000
  0
LINE
  8
0
  6
CENTER
 10
339.000000
 20
-159.000015
 11
339.000000
 21
-183.000015
  0
LINE
  8
0
 10
334.000092
 20
-173.886749
 11
339.000092
 21
-176.773514
  0
LINE
  8
0
 10
339.000000
 20
-176.773544
 11
344.000031
 21
-173.886780
  0
LINE
  8
0
 10
343.999969
 20
-173.886765
 11
343.999969
 21
-168.113251
  0
LINE
  8
0
 10
344.000031
 20
-168.113297
 11
339.000031
 21
-165.226532
  0
LINE
  8
0
 10
339.000122
 20
-165.226700
 11
334.000122
 21
-168.113464
  0
LINE
  8
0
 10
334.000000
 20
-168.113266
 11
334.000000
 21
-173.886780
  0
LINE
  8
0
  6
CENTER
 10
393.000000
 20
-171.000000
 11
369.000000
 21
-171.000000
  0
LINE
  8
0
  6
CENTER
 10
381.000000
 20
-158.999985
 11
381.000000
 21
-182.999985
  0
LINE
  8
0
 10
385.999939
 20
-173.886703
 11
380.999908
 21
-176.773468
  0
LINE
  8
0
 10
381.000000
 20
-176.773514
 11
375.999969
 21
-173.886749
  0
LINE
  8
0
 10
376.000031
 20
-173.886734
 11
376.000031
 21
-168.113220
  0
LINE
  8
0
 10
375.999847
 20
-168.113144
 11
380.999878
 21
-165.226379
  0
LINE
  8
0
 10
380.999939
 20
-165.226562
 11
385.999939
 21
-168.113312
  0
LINE
  8
0
 10
386.000000
 20
-168.113235
 11
386.000000
 21
-173.886749
  0
LINE
  8
0
 10
330.000000
 20
-162.000000
 11
339.000000
 21
-162.000000
  0
LINE
  8
0
 10
348.000000
 20
-171.000000
 11
348.000000
 21
-180.000000
  0
LINE
  8
0
 10
372.000000
 20
-171.000000
 11
372.000000
 21
-180.000000
  0
LINE
  8
0
 10
381.000000
 20
-162.000000
 11
390.000000
 21
-162.000000
  0
LINE
  8
0
 10
345.000031
 20
-185.000000
 11
356.750031
 21
-185.000000
  0
LINE
  8
0
 10
354.750031
 20
-183.000000
 11
356.750031
 21
-183.000000
  0
LINE
  8
0
 10
354.750000
 20
-178.699997
 11
365.250000
 21
-178.699997
  0
LINE
  8
0
 10
354.750000
 20
-178.699997
 11
354.750000
 21
-183.000000
  0
LINE
  8
0
 10
365.250000
 20
-178.699997
 11
365.250000
 21
-183.000000
  0
LINE
  8
0
 10
370.000031
 20
-180.000000
 11
381.000031
 21
-180.000000
  0
LINE
  8
0
 10
363.250000
 20
-183.000000
 11
363.250000
 21
-185.000000
  0
LINE
  8
0
 10
356.750000
 20
-183.000000
 11
356.750000
 21
-185.000000
  0
LINE
  8
0
 10
363.250031
 20
-183.000000
 11
365.250031
 21
-183.000000
  0
LINE
  8
0
 10
363.250031
 20
-185.000000
 11
375.000031
 21
-185.000000
  0
LINE
  8
0
 10
345.000000
 20
-180.000000
 11
345.000000
 21
-185.000000
  0
LINE
  8
0
 10
375.000000
 20
-179.999985
 11
375.000000
 21
-184.999985
  0
LINE
  8
0
  6
CENTER
 10
359.999969
 20
-84.000000
 11
359.999969
 21
-190.000000
  0
LINE
  8
0
  6
CENTER
 10
325.000000
 20
-149.999954
 11
395.000000
 21
-149.999954
  0
LINE
  8
0
 10
389.999969
 20
-128.999985
 11
389.999969
 21
-170.999985
  0
LINE
  8
0
 10
329.999969
 20
-129.000015
 11
329.999969
 21
-171.000015
  0
LINE
  8
0
 10
339.000000
 20
-119.999954
 11
381.000000
 21
-119.999954
  0
LINE
  8
0
  6
CENTER
 10
327.000000
 20
-128.999954
 11
351.000000
 21
-128.999954
  0
LINE
  8
0
  6
CENTER
 10
338.999969
 20
-141.000015
 11
338.999969
 21
-117.000015
  0
LINE
  8
0
 10
334.000031
 20
-126.113190
 11
339.000031
 21
-123.226433
  0
LINE
  8
0
 10
338.999969
 20
-123.226463
 11
343.999969
 21
-126.113213
  0
LINE
  8
0
 10
343.999939
 20
-126.113266
 11
343.999939
 21
-131.886795
  0
LINE
  8
0
 10
343.999847
 20
-131.886581
 11
338.999817
 21
-134.773346
  0
LINE
  8
0
 10
339.000092
 20
-134.773422
 11
334.000092
 21
-131.886673
  0
LINE
  8
0
 10
333.999969
 20
-131.886765
 11
333.999969
 21
-126.113235
  0
LINE
  8
0
  6
CENTER
 10
393.000000
 20
-128.999954
 11
369.000000
 21
-128.999954
  0
LINE
  8
0
  6
CENTER
 10
380.999969
 20
-140.999985
 11
380.999969
 21
-116.999985
  0
LINE
  8
0
 10
386.000061
 20
-126.113213
 11
381.000000
 21
-123.226433
  0
LINE
  8
0
 10
380.999969
 20
-123.226555
 11
375.999939
 21
-126.113319
  0
LINE
  8
0
 10
376.000000
 20
-126.113235
 11
376.000000
 21
-131.886765
  0
LINE
  8
0
 10
376.000061
 20
-131.886749
 11
381.000092
 21
-134.773499
  0
LINE
  8
0
 10
380.999878
 20
-134.773376
 11
385.999878
 21
-131.886612
  0
LINE
  8
0
 10
385.999969
 20
-131.886734
 11
385.999969
 21
-126.113205
  0
LINE
  8
0
 10
347.999969
 20
-120.000000
 11
347.999969
 21
-129.000000
  0
LINE
  8
0
 10
371.999969
 20
-120.000000
 11
371.999969
 21
-129.000000
  0
LINE
  8
0
 10
330.000000
 20
-137.999954
 11
339.000000
 21
-137.999954
  0
LINE
  8
0
 10
381.000000
 20
-137.999954
 11
390.000000
 21
-137.999954
  0
LINE
  8
0
  6
CENTER
 10
370.999969
 20
-140.000000
 11
370.999969
 21
-160.000000
  0
LINE
  8
0
 10
350.999969
 20
-88.999954
 11
368.999969
 21
-88.999954
  0
LINE
  8
0
 10
345.999939
 20
-115.999954
 11
373.999939
 21
-115.999954
  0
LINE
  8
0
 10
373.999969
 20
-93.000000
 11
373.999969
 21
-115.999954
  0
LINE
  8
0
 10
345.999969
 20
-93.000000
 11
345.999969
 21
-115.999954
  0
LINE
  8
0
 10
368.999969
 20
-89.000000
 11
368.999969
 21
-116.000000
  0
LINE
  8
0
 10
350.999969
 20
-89.000000
 11
350.999969
 21
-116.000000
  0
LINE
  8
0
 10
345.999969
 20
-92.999954
 11
373.999969
 21
-92.999954
  0
LINE
  8
0
  6
CENTER
 10
334.999969
 20
-100.999954
 11
386.999969
 21
-100.999954
  0
LINE
  8
0
 10
339.999969
 20
-105.999954
 11
345.999969
 21
-105.999954
  0
LINE
  8
0
 10
339.999969
 20
-95.999954
 11
345.999969
 21
-95.999954
  0
LINE
  8
0
 10
339.999969
 20
-96.000015
 11
339.999969
 21
-106.000015
  0
LINE
  8
0
  6
CENTER
 10
348.999969
 20
-140.000000
 11
348.999969
 21
-160.000000
  0
LINE
  8
0
 10
378.999939
 20
-95.226440
 11
378.999939
 21
-106.773468
  0
LINE
  8
0
 10
378.999908
 20
-95.226448
 11
373.999939
 21
-95.226448
  0
LINE
  8
0
 10
378.999908
 20
-98.113197
 11
373.999939
 21
-98.113197
  0
LINE
  8
0
 10
378.999908
 20
-103.886696
 11
373.999939
 21
-103.886696
  0
LINE
  8
0
 10
378.999908
 20
-106.773476
 11
373.999939
 21
-106.773476
  0
LINE
  8
0
 10
381.499939
 20
-97.749939
 11
381.499939
 21
-104.249939
  0
LINE
  8
0
 10
378.999908
 20
-96.499954
 11
380.249908
 21
-96.499954
  0
LINE
  8
0
 10
378.999908
 20
-105.499954
 11
380.249908
 21
-105.499954
  0
LINE
  8
0
 10
-283.500061
 20
112.598106
 11
-250.359039
 21
170.000046
  0
LINE
  8
0
 10
-283.500061
 20
112.598106
 11
-281.947144
 21
118.393661
  0
LINE
  8
0
 10
-283.500092
 20
112.598114
 11
-279.257446
 21
116.840759
  0
LINE
  8
0
 10
-250.359039
 20
170.000046
 11
-189.583328
 21
170.000046
  0
LINE
  8
0
 10
194.710815
 20
-144.302887
 11
151.812057
 21
-70.000015
  0
LINE
  8
0
 10
194.710815
 20
-144.302887
 11
193.157898
 21
-138.507339
  0
LINE
  8
0
 10
194.710815
 20
-144.302887
 11
190.468170
 21
-140.060242
  0
LINE
  8
0
 10
78.771362
 20
-70.000015
 11
151.812057
 21
-70.000015
  0
LINE
  8
0
 10
-240.000000
 20
-190.000000
 11
-240.000000
 21
-244.000000
  0
LINE
  8
0
 10
60.000000
 20
-189.999985
 11
60.000000
 21
-244.000000
  0
LINE
  8
0
 10
-240.000000
 20
-240.000000
 11
60.000000
 21
-240.000000
  0
LINE
  8
0
 10
-239.999985
 20
-239.999985
 11
-234.204422
 21
-238.447067
  0
LINE
  8
0
 10
54.204441
 20
-241.552902
 11
59.999996
 21
-239.999985
  0
LINE
  8
0
 10
54.204441
 20
-238.447083
 11
59.999996
 21
-240.000000
  0
LINE
  8
0
 10
-239.999985
 20
-239.999985
 11
-234.204422
 21
-241.552902
  0
ARC
  8
0
 62
     5
 10
386.130402
 20
-332.404785
 40
3.128082
 50
0.000000
 51
90.000000
  0
ARC
  8
0
 62
     5
 10
411.937195
 20
-349.218353
 40
3.128082
 50
270.000000
 51
0.000000
  0
ARC
  8
0
 62
     5
 10
410.373047
 20
-333.968781
 40
4.692139
 50
0.000000
 51
90.000000
  0
ARC
  8
0
 62
     5
 10
438.916931
 20
-332.404785
 40
3.128082
 50
0.000000
 51
90.000000
  0
ARC
  8
0
 62
     5
 10
438.916931
 20
-334.903870
 40
3.128100
 50
294.999969
 51
0.000000
  0
ARC
  8
0
 62
     5
 10
463.159668
 20
-329.276672
 40
4.692149
 50
291.688202
 51
0.000000
  0
ARC
  8
0
 62
     5
 10
461.595520
 20
-328.215485
 40
1.564059
 50
291.688049
 51
0.000000
  0
ARC
  8
0
 10
-240.000000
 20
-98.999947
 40
5.999998
 50
218.682205
 51
321.317810
  0
ARC
  8
0
 10
-240.000000
 20
-98.999947
 40
6.000001
 50
33.557331
 51
146.442673
  0
ARC
  8
0
 10
-240.000000
 20
-100.999947
 40
5.000000
 50
180.000000
 51
0.000000
  0
CIRCLE
  8
0
 10
-185.000000
 20
-100.999939
 40
5.000000
  0
ARC
  8
0
 10
-240.000000
 20
-98.999947
 40
8.000001
 50
48.590370
 51
131.409622
  0
CIRCLE
  8
0
 10
186.499969
 20
-140.999969
 40
3.000000
  0
CIRCLE
  8
0
 10
-366.500000
 20
-141.000000
 40
3.000000
  0
CIRCLE
  8
0
 10
-378.000000
 20
-150.000000
 40
6.578500
  0
CIRCLE
  8
0
 10
-378.000000
 20
-150.000000
 40
5.722500
  0
ARC
  8
0
 10
182.738739
 20
-269.962463
 40
100.000008
 50
91.569405
 51
121.829102
  0
CIRCLE
  8
0
 10
-267.500000
 20
-100.999947
 40
3.500000
  0
CIRCLE
  8
0
 10
-295.000000
 20
-100.999954
 40
5.000000
  0
CIRCLE
  8
0
 10
-212.500000
 20
-100.999947
 40
3.500000
  0
CIRCLE
  8
0
 10
197.999969
 20
-149.999969
 40
5.722500
  0
CIRCLE
  8
0
 10
197.999969
 20
-149.999969
 40
6.578500
  0
ARC
  8
0
 10
-337.000000
 20
-118.999962
 40
3.000008
 50
90.000000
 51
270.000000
  0
ARC
  8
0
 10
-143.000000
 20
-118.999947
 40
3.000008
 50
270.000000
 51
90.000000
  0
ARC
  8
0
 10
-145.000000
 20
120.999969
 40
5.000000
 50
0.000000
 51
90.000000
  0
ARC
  8
0
 10
-145.000000
 20
98.999969
 40
5.000000
 50
270.000000
 51
0.000000
  0
ARC
  8
0
 10
-335.000000
 20
98.999985
 40
5.000000
 50
180.000000
 51
270.000000
  0
ARC
  8
0
 10
-335.000000
 20
120.999985
 40
5.000000
 50
90.000000
 51
180.000000
  0
CIRCLE
  8
0
 10
-285.000000
 20
109.999992
 40
3.000000
  0
CIRCLE
  8
0
 10
-285.000000
 20
109.999992
 40
2.458500
  0
CIRCLE
  8
0
 10
-195.000000
 20
109.999992
 40
2.458500
  0
CIRCLE
  8
0
 10
-195.000000
 20
109.999992
 40
3.000000
  0
ARC
  8
0
 10
-343.000000
 20
119.000000
 40
2.000000
 50
90.000000
 51
180.000000
  0
ARC
  8
0
 10
-343.000000
 20
101.000000
 40
2.000000
 50
180.000000
 51
270.000000
  0
ARC
  8
0
 10
-137.000000
 20
100.999985
 40
2.000000
 50
270.000000
 51
0.000000
  0
ARC
  8
0
 10
-137.000000
 20
118.999985
 40
2.000000
 50
0.000000
 51
90.000000
  0
ARC
  8
0
 10
-188.250000
 20
130.249985
 40
1.250000
 50
90.000000
 51
180.000000
  0
ARC
  8
0
 10
-181.750000
 20
130.249985
 40
1.250000
 50
0.000000
 51
90.000000
  0
ARC
  8
0
 10
-298.250000
 20
130.250000
 40
1.250000
 50
90.000000
 51
180.000000
  0
ARC
  8
0
 10
-291.750000
 20
130.250000
 40
1.250000
 50
0.000000
 51
90.000000
  0
CIRCLE
  8
0
 10
349.000000
 20
-150.000000
 40
6.578500
  0
CIRCLE
  8
0
 10
339.000000
 20
-171.000015
 40
7.000000
  0
CIRCLE
  8
0
 10
339.000000
 20
-171.000015
 40
3.000000
  0
CIRCLE
  8
0
 10
339.000000
 20
-171.000015
 40
2.458500
  0
CIRCLE
  8
0
 10
381.000000
 20
-170.999985
 40
2.458500
  0
CIRCLE
  8
0
 10
381.000000
 20
-170.999985
 40
7.000000
  0
CIRCLE
  8
0
 10
381.000000
 20
-170.999985
 40
3.000000
  0
ARC
  8
0
 10
339.000000
 20
-171.000015
 40
9.000000
 50
0.000000
 51
90.000000
  0
ARC
  8
0
 10
381.000000
 20
-170.999985
 40
9.000000
 50
90.000000
 51
180.000000
  0
ARC
  8
0
 10
339.000000
 20
-171.000015
 40
9.000000
 50
180.000000
 51
270.000000
  0
ARC
  8
0
 10
381.000000
 20
-170.999985
 40
9.000000
 50
270.000000
 51
0.000000
  0
ARC
  8
0
 10
360.000031
 20
-183.642853
 40
10.642856
 50
20.015938
 51
159.984070
  0
CIRCLE
  8
0
 10
381.000000
 20
-128.999985
 40
3.000000
  0
CIRCLE
  8
0
 10
339.000000
 20
-129.000015
 40
7.000000
  0
CIRCLE
  8
0
 10
339.000000
 20
-129.000015
 40
3.000000
  0
CIRCLE
  8
0
 10
339.000000
 20
-129.000015
 40
2.458500
  0
CIRCLE
  8
0
 10
381.000000
 20
-128.999985
 40
2.458500
  0
CIRCLE
  8
0
 10
381.000000
 20
-128.999985
 40
7.000000
  0
ARC
  8
0
 10
339.000000
 20
-129.000015
 40
9.000000
 50
270.000000
 51
0.000000
  0
ARC
  8
0
 10
381.000000
 20
-128.999985
 40
9.000000
 50
180.000000
 51
270.000000
  0
ARC
  8
0
 10
339.000000
 20
-129.000015
 40
9.000000
 50
90.000000
 51
179.999908
  0
ARC
  8
0
 10
381.000000
 20
-128.999985
 40
9.000000
 50
0.000000
 51
90.000000
  0
CIRCLE
  8
0
 10
371.000000
 20
-150.000000
 40
5.722500
  0
CIRCLE
  8
0
 10
371.000000
 20
-150.000000
 40
6.578500
  0
CIRCLE
  8
0
 10
349.000000
 20
-150.000000
 40
5.722500
  0
ARC
  8
0
 10
380.249908
 20
-97.749939
 40
1.250000
 50
0.000000
 51
90.000000
  0
ARC
  8
0
 10
380.249908
 20
-104.249939
 40
1.250000
 50
270.000000
 51
0.000000
  0
ARC
  8
0
 10
372.999939
 20
-118.999947
 40
3.000003
 50
340.528809
 51
90.000000
  0
ARC
  8
0
 10
346.999939
 20
-118.999962
 40
3.000000
 50
90.000000
 51
199.471207
  0
TEXT
  8
0
 10
320.176178
 20
329.975403
 40
12.000000
  1
DATE : MAY ,1991
 50
0.000000
 41
1.052631
 51
0.000000
  7
STANDARD
  0
TEXT
  8
0
 10
-488.244446
 20
328.175323
 40
14.000000
  1
RODLESS CYLINDER
 50
0.000000
 41
1.052632
 51
0.000000
  7
STANDARD
  0
TEXT
  8
0
 10
-483.244446
 20
257.950592
 40
14.000000
  1
MODEL : ORCA 40xST(300)
 50
0.000000
 41
1.052632
 51
0.000000
  7
STANDARD
  0
TEXT
  8
0
 10
-251.537628
 20
169.500046
 40
10.000000
  1
2-M6x1
 50
0.000000
 41
1.052632
 51
0.000000
  7
STANDARD
  0
TEXT
  8
0
 10
78.633476
 20
-70.500023
 40
10.000000
  1
6-Rc1/4
 50
0.000000
 41
1.052632
 51
0.000000
  7
STANDARD
  0
TEXT
  8
0
 10
-121.178566
 20
-238.000000
 40
10.000000
  1
STROKE
 50
0.000000
 41
1.052632
 51
0.000000
  7
STANDARD
  0
ENDSEC
  0
EOF
